  0
SECTION
  2
HEADER
  9
$ACADVER
  1
AC1009
  9
$INSBASE
 10
2373.8733186568938436
 20
142.0140360288546049
 30
0.0
  9
$EXTMIN
 10
2370.3300115702941184
 20
137.815202879454489
 30
0.0
  9
$EXTMAX
 10
2377.4166257434940235
 20
142.0186377524188117
 30
0.0
  9
$LIMMIN
 10
0.0
 20
0.0
  9
$LIMMAX
 10
11.6929133858000007
 20
8.2677165353999982
  9
$ORTHOMODE
 70
     0
  9
$REGENMODE
 70
     1
  9
$FILLMODE
 70
     1
  9
$QTEXTMODE
 70
     0
  9
$MIRRTEXT
 70
     0
  9
$DRAGMODE
 70
     2
  9
$LTSCALE
 40
0.6431102362
  9
$OSMODE
 70
  4095
  9
$ATTMODE
 70
     1
  9
$TEXTSIZE
 40
0.2
  9
$TRACEWID
 40
0.05
  9
$TEXTSTYLE
  7
STANDARD
  9
$CLAYER
  8
0
  9
$CELTYPE
  6
BYLAYER
  9
$CECOLOR
 62
   256
  9
$DIMSCALE
 40
1.0
  9
$DIMASZ
 40
0.1875
  9
$DIMEXO
 40
0.0625
  9
$DIMDLI
 40
0.4443307087
  9
$DIMRND
 40
0.0
  9
$DIMDLE
 40
0.0
  9
$DIMEXE
 40
0.125
  9
$DIMTP
 40
0.01
  9
$DIMTM
 40
0.01
  9
$DIMTXT
 40
2.0
  9
$DIMCEN
 40
0.1052362205
  9
$DIMTSZ
 40
0.0
  9
$DIMTOL
 70
     1
  9
$DIMLIM
 70
     0
  9
$DIMTIH
 70
     1
  9
$DIMTOH
 70
     1
  9
$DIMSE1
 70
     0
  9
$DIMSE2
 70
     0
  9
$DIMTAD
 70
     0
  9
$DIMZIN
 70
     0
  9
$DIMBLK
  1

  9
$DIMASO
 70
     1
  9
$DIMSHO
 70
     1
  9
$DIMPOST
  1
\X
  9
$DIMAPOST
  1

  9
$DIMALT
 70
     1
  9
$DIMALTD
 70
     2
  9
$DIMALTF
 40
25.3999999999999986
  9
$DIMLFAC
 40
1.0
  9
$DIMTOFL
 70
     0
  9
$DIMTVP
 40
0.0
  9
$DIMTIX
 70
     0
  9
$DIMSOXD
 70
     0
  9
$DIMSAH
 70
     0
  9
$DIMBLK1
  1

  9
$DIMBLK2
  1

  9
$DIMSTYLE
  2
STANDARD
  9
$DIMCLRD
 70
     0
  9
$DIMCLRE
 70
     0
  9
$DIMCLRT
 70
     0
  9
$DIMTFAC
 40
1.0
  9
$DIMGAP
 40
0.09
  9
$LUNITS
 70
     2
  9
$LUPREC
 70
     4
  9
$SKETCHINC
 40
0.1
  9
$FILLETRAD
 40
0.0
  9
$AUNITS
 70
     0
  9
$AUPREC
 70
     0
  9
$MENU
  1
.
  9
$ELEVATION
 40
0.0
  9
$PELEVATION
 40
0.0
  9
$THICKNESS
 40
0.0
  9
$LIMCHECK
 70
     0
  9
$BLIPMODE
 70
     0
  9
$CHAMFERA
 40
0.0
  9
$CHAMFERB
 40
0.0
  9
$SKPOLY
 70
     0
  9
$TDCREATE
 40
2458060.468368056230247
  9
$TDUPDATE
 40
2459007.5347800930030644
  9
$TDINDWG
 40
0.3291621528
  9
$TDUSRTIMER
 40
0.3291621528
  9
$USRTIMER
 70
     1
  9
$ANGBASE
 50
0.0
  9
$ANGDIR
 70
     0
  9
$PDMODE
 70
     0
  9
$PDSIZE
 40
0.3125
  9
$PLINEWID
 40
0.0
  9
$COORDS
 70
     1
  9
$SPLFRAME
 70
     0
  9
$SPLINETYPE
 70
     6
  9
$SPLINESEGS
 70
     8
  9
$ATTDIA
 70
     1
  9
$ATTREQ
 70
     1
  9
$HANDLING
 70
     1
  9
$HANDSEED
  5
B2E5
  9
$SURFTAB1
 70
     6
  9
$SURFTAB2
 70
     6
  9
$SURFTYPE
 70
     6
  9
$SURFU
 70
     6
  9
$SURFV
 70
     6
  9
$UCSNAME
  2

  9
$UCSORG
 10
0.0
 20
0.0
 30
0.0
  9
$UCSXDIR
 10
1.0
 20
0.0
 30
0.0
  9
$UCSYDIR
 10
0.0
 20
1.0
 30
0.0
  9
$PUCSNAME
  2

  9
$PUCSORG
 10
0.0
 20
0.0
 30
0.0
  9
$PUCSXDIR
 10
1.0
 20
0.0
 30
0.0
  9
$PUCSYDIR
 10
0.0
 20
1.0
 30
0.0
  9
$USERI1
 70
     0
  9
$USERI2
 70
     0
  9
$USERI3
 70
     0
  9
$USERI4
 70
     0
  9
$USERI5
 70
     0
  9
$USERR1
 40
0.0
  9
$USERR2
 40
0.0
  9
$USERR3
 40
0.0
  9
$USERR4
 40
0.0
  9
$USERR5
 40
0.0
  9
$WORLDVIEW
 70
     1
  9
$SHADEDGE
 70
     3
  9
$SHADEDIF
 70
    70
  9
$TILEMODE
 70
     1
  9
$MAXACTVP
 70
    64
  9
$PLIMCHECK
 70
     0
  9
$PEXTMIN
 10
1.0000000000000000E+20
 20
1.0000000000000000E+20
 30
1.0000000000000000E+20
  9
$PEXTMAX
 10
-1.0000000000000000E+20
 20
-1.0000000000000000E+20
 30
-1.0000000000000000E+20
  9
$PLIMMIN
 10
0.0
 20
0.0
  9
$PLIMMAX
 10
12.0
 20
9.0
  9
$UNITMODE
 70
     0
  9
$VISRETAIN
 70
     1
  9
$PLINEGEN
 70
     0
  9
$PSLTSCALE
 70
     1
  0
ENDSEC
  0
SECTION
  2
TABLES
  0
TABLE
  2
VPORT
 70
     1
  0
VPORT
  2
*ACTIVE
 70
     0
 10
0.0
 20
0.0
 11
1.0
 21
1.0
 12
22.7303181625334787
 22
9.3009261243792292
 13
0.0
 23
0.0
 14
1.0
 24
1.0
 15
0.0
 25
0.0
 16
0.0
 26
0.0
 36
53.3158568736729777
 17
2358.0555419921879547
 27
134.0635681152344034
 37
0.0
 40
40.8837372666983896
 41
2.6486111111111108
 42
50.0
 43
0.0
 44
0.0
 50
0.0
 51
0.0
 71
     0
 72
   100
 73
     1
 74
     1
 75
     0
 76
     0
 77
     0
 78
     0
  0
ENDTAB
  0
TABLE
  2
LTYPE
 70
     2
  0
LTYPE
  2
CONTINUOUS
 70
     0
  3
Solid line
 72
    65
 73
     0
 40
0.0
  0
LTYPE
  2
PHANTOM2
 70
     0
  3
___ _ _ ___ _ _ ___ _ _ ___ _ _
 72
    65
 73
     6
 40
1.25
 49
0.625
 49
-0.125
 49
0.125
 49
-0.125
 49
0.125
 49
-0.125
  0
ENDTAB
  0
TABLE
  2
LAYER
 70
     2
  0
LAYER
  2
0
 70
     0
 62
   255
  6
CONTINUOUS
  0
LAYER
  2
DEFPOINTS
 70
     0
 62
     7
  6
CONTINUOUS
  0
ENDTAB
  0
TABLE
  2
STYLE
 70
     1
  0
STYLE
  2
STANDARD
 70
     0
 40
0.0
 41
0.8
 50
0.0
 71
     0
 42
0.2
  3
txt
  4

  0
ENDTAB
  0
TABLE
  2
VIEW
 70
     0
  0
ENDTAB
  0
TABLE
  2
UCS
 70
     0
  0
ENDTAB
  0
TABLE
  2
APPID
 70
     9
  0
APPID
  2
ACAD
 70
     0
  0
APPID
  2
ACAD_MLEADERVER
 70
     0
  0
APPID
  2
ACAD_EXEMPT_FROM_CAD_STANDARDS
 70
     0
  0
APPID
  2
ACAD_NAV_VCDISPLAY
 70
     0
  0
APPID
  2
ACAECLAYERSTANDARD
 70
     0
  0
APPID
  2
ACCMTRANSPARENCY
 70
     0
  0
APPID
  2
ACAD_DSTYLE_DIMJAG
 70
     0
  0
APPID
  2
ACAD_DSTYLE_DIMTALN
 70
     0
  0
APPID
  2
ACDBATTR
 70
     0
  0
ENDTAB
  0
TABLE
  2
DIMSTYLE
 70
     1
  0
DIMSTYLE
  2
STANDARD
 70
     0
  3

  4

  5

  6

  7

 40
1.0
 41
0.1875
 42
0.0625
 43
0.38
 44
0.125
 45
0.0
 46
0.0
 47
0.01
 48
0.01
140
0.15625
141
0.09
142
0.0
143
25.3999999999999986
144
1.0
145
0.0
146
1.0
147
0.09
 71
     1
 72
     0
 73
     1
 74
     1
 75
     0
 76
     0
 77
     0
 78
     4
170
     0
171
     2
172
     0
173
     0
174
     0
175
     0
176
     0
177
     0
178
     0
  0
ENDTAB
  0
ENDSEC
  0
SECTION
  2
BLOCKS
  0
BLOCK
  8
0
  2
$MODEL_SPACE
 70
     0
 10
0.0
 20
0.0
 30
0.0
  3
$MODEL_SPACE
  1

  0
ENDBLK
  5
21
  8
0
  0
BLOCK
 67
     1
  8
0
  2
$PAPER_SPACE
 70
     0
 10
0.0
 20
0.0
 30
0.0
  3
$PAPER_SPACE
  1

  0
ENDBLK
  5
1D
 67
     1
  8
0
  0
ENDSEC
  0
SECTION
  2
ENTITIES
  0
ATTDEF
  5
3930
  8
DEFPOINTS
 10
2373.873594234346001
 20
142.0176377524186933
 30
0.0
 40
0.001
  1
K-72803T-4M
  3

  2
MODELNUMBER
 70
     0
1001
ACDBATTR
1070
     0
1070
     1
  0
ATTDEF
  5
3931
  8
DEFPOINTS
 10
2373.873594234346001
 20
142.0159710857521134
 30
0.0
 40
0.001
  1
VALVE TRIM
  3

  2
TRADENAME
 70
     0
1001
ACDBATTR
1070
     0
1070
     1
  0
ATTDEF
  5
3932
  8
DEFPOINTS
 10
2373.873594234346001
 20
142.0143044190853914
 30
0.0
 40
0.001
  1
TRIM VALVE
  3

  2
PRODUCT
 70
     0
1001
ACDBATTR
1070
     0
1070
     1
  0
LINE
  5
B0B7
  8
0
 10
2377.4166257434940235
 20
142.0140360288546049
 30
0.0
 11
2370.3300115702941184
 21
142.0140360288546049
 31
0.0
  0
LINE
  5
B0B8
  8
0
 10
2370.3300115702941184
 20
142.0140360288546049
 30
0.0
 11
2370.3397793473591264
 21
141.7343234899545052
 31
0.0
  0
ARC
  5
B0B9
  8
0
 10
2370.4578176339809943
 20
141.7384454777401004
 30
0.0
 40
0.1181102361855717
 50
181.9999999938260942
 51
270.0000000067482802
  0
LINE
  5
B0BA
  8
0
 10
2370.457817633994182
 20
141.6203352415546135
 30
0.0
 11
2377.2888196795638578
 21
141.620335248627498
 31
0.0
  0
ARC
  5
B0BB
  8
0
 10
2370.5040666883060112
 20
141.5219100446107916
 30
0.0
 40
0.0984251969915812
 50
5.2159085911762038
 51
89.9999999488017153
  0
ARC
  5
B0BC
  8
0
 10
2370.7197054904718243
 20
141.5415950839272909
 30
0.0
 40
0.1181102360727031
 50
185.2159085273287076
 51
270.0000000593274763
  0
LINE
  5
B0BD
  8
0
 10
2370.7197054905950608
 20
141.4234848478546098
 30
0.0
 11
2377.0269318236018989
 21
141.4234848543852081
 31
0.0
  0
CIRCLE
  5
B0BE
  8
0
 10
2373.8733186568938436
 20
138.2010028794545065
 30
0.0
 40
0.0422221527000009
  0
CIRCLE
  5
B0BF
  8
0
 10
2373.8733186568938436
 20
138.2010028794545065
 30
0.0
 40
0.1541322699999998
  0
ARC
  5
B0C0
  8
0
 10
2373.4098099714428827
 20
138.5674022898498947
 30
0.0
 40
0.249334731761287
 50
343.0540759670104762
 51
16.622427767539719
  0
ARC
  5
B0C1
  8
0
 10
2373.4069441206320334
 20
138.5659773322769013
 30
0.0
 40
0.2524890383773926
 50
16.7462362178200515
 51
49.8830455824586068
  0
ARC
  5
B0C2
  8
0
 10
2373.5955052354938744
 20
138.78976641705151
 30
0.0
 40
0.0401487044074261
 50
152.8307497445834997
 51
229.8830455824574983
  0
ARC
  5
B0C3
  8
0
 10
2373.545517378634031
 20
138.8154227817059905
 30
0.0
 40
0.0160387931403034
 50
332.8307497445820218
 51
73.9709124658596551
  0
ARC
  5
B0C4
  8
0
 10
2373.5543814624161314
 20
138.846276390159602
 30
0.0
 40
0.0160628755997873
 50
180.1692454531383021
 51
253.9709124658596124
  0
LINE
  5
B0C5
  8
0
 10
2373.5383186568938072
 20
138.8462289422546121
 30
0.0
 11
2373.5382992999598173
 21
138.8527819536654135
 31
0.0
  0
ARC
  5
B0C6
  8
0
 10
2373.5181598599288009
 20
138.8527224637938104
 30
0.0
 40
0.0201395278948456
 50
0.1692454531366605
 51
55.046703579603637
  0
ARC
  5
B0C7
  8
0
 10
2373.5515413254961459
 20
138.9004789422546082
 30
0.0
 40
0.0381271304814792
 50
124.953296420396299
 51
235.0467035796035873
  0
ARC
  5
B0C8
  8
0
 10
2373.5181336997547987
 20
138.9482728462074022
 30
0.0
 40
0.0201851899375935
 50
304.9532964203945085
 51
359.7248232497017852
  0
LINE
  5
B0C9
  8
0
 10
2373.5383186568938072
 20
138.9481759023545067
 30
0.0
 11
2373.5383186568938072
 21
138.9547289422546044
 31
0.0
  0
ARC
  5
B0CA
  8
0
 10
2373.5544504129247798
 20
138.9545971862241061
 30
0.0
 40
0.0161322940797653
 50
90.4679525650578285
 51
179.5320474349340998
  0
LINE
  5
B0CB
  8
0
 10
2374.581971129699923
 20
138.9707289437220084
 30
0.0
 11
2373.1646661894938006
 21
138.9707289422545102
 31
0.0
  0
ARC
  5
B0CC
  8
0
 10
2373.1646661894938006
 20
139.010107971871804
 30
0.0
 40
0.0393790296172565
 50
180.0130232781596078
 51
270.0
  0
LINE
  5
B0CD
  8
0
 10
2373.125287160894004
 20
139.0100990210544865
 30
0.0
 11
2373.125287160894004
 21
139.0415950840545065
 31
0.0
  0
ARC
  5
B0CE
  8
0
 10
2373.0662063860067974
 20
139.0415694272672908
 30
0.0
 40
0.0590807804581565
 50
0.0248816224283809
 51
89.9751184746008335
  0
LINE
  5
B0CF
  8
0
 10
2374.798515512431095
 20
139.1006502040704902
 30
0.0
 11
2372.948121806493873
 21
139.1006502021546112
 31
0.0
  0
ARC
  5
B0D0
  8
0
 10
2372.948121806493873
 20
139.1400202808544861
 30
0.0
 40
0.0393700787000011
 50
180.0000000000032117
 51
270.0
  0
LINE
  5
B0D1
  8
0
 10
2372.9087517277939696
 20
139.1400202808544861
 30
0.0
 11
2372.9087522712939062
 21
140.1835622519546121
 31
0.0
  0
ARC
  5
B0D2
  8
0
 10
2373.8531996082770092
 20
142.5053158573288101
 30
0.0
 40
2.682869380399318
 50
259.8062075076267092
 51
270.4296695868036977
  0
ARC
  5
B0D3
  8
0
 10
2373.5916164533969095
 20
141.050593524022986
 30
0.0
 40
1.2048156554163649
 50
247.1606128559907063
 51
259.8062075076267092
  0
ARC
  5
B0D4
  8
0
 10
2373.2955464215010579
 20
140.357367463822186
 30
0.0
 40
0.451037421030178
 50
222.9141297553427137
 51
247.6410457425619995
  0
ARC
  5
B0D5
  8
0
 10
2373.1375128166628201
 20
140.2022095293644952
 30
0.0
 40
0.2297294007626554
 50
194.1924521798881926
 51
221.4104224758980877
  0
ARC
  5
B0D6
  8
0
 10
2373.1236717313790905
 20
140.1987091363839113
 30
0.0
 40
0.215452552621473
 50
184.0313703538043058
 51
194.1924521798881926
  0
ARC
  5
B0D7
  8
0
 10
2372.9712695711568813
 20
140.1843421289869127
 30
0.0
 40
0.0625221639922808
 50
162.9385827839502099
 51
180.7147036898176964
  0
ARC
  5
B0D8
  8
0
 10
2372.9492022981480659
 20
140.1911420033868865
 30
0.0
 40
0.0394310023650717
 50
90.5070085623133878
 51
162.976585998299214
  0
LINE
  5
B0D9
  8
0
 10
2372.9488533789949543
 20
140.2305714619546109
 30
0.0
 11
2373.0616665440938959
 21
140.2305714619546109
 31
0.0
  0
LINE
  5
B0DA
  8
0
 10
2372.9087517277939696
 20
141.423484850121099
 30
0.0
 11
2372.9087517277939696
 21
140.3526187060544999
 31
0.0
  0
ARC
  5
B0DB
  8
0
 10
2372.9205627513938452
 20
140.3526187060544999
 30
0.0
 40
0.0118110236
 50
180.0
 51
270.0
  0
LINE
  5
B0DC
  8
0
 10
2372.9205627513938452
 20
140.3408076824545105
 30
0.0
 11
2373.4714680918941667
 21
140.3408076824545105
 31
0.0
  0
LINE
  5
B0DD
  8
0
 10
2372.9284367670938991
 20
140.3408076824545105
 30
0.0
 11
2372.9284367670938991
 21
140.3165424656544928
 31
0.0
  0
ARC
  5
B0DE
  8
0
 10
2372.9481218062801418
 20
140.3165424655817901
 30
0.0
 40
0.019685039185795
 50
180.0000000794630921
 51
255.000024585771996
  0
LINE
  5
B0DF
  8
0
 10
2372.9430269513941312
 20
140.2975281756544916
 30
0.0
 11
2373.471743853694079
 21
140.2975281756544916
 31
0.0
  0
LINE
  5
B0E0
  8
0
 10
2373.0079417385941269
 20
140.2801343107545904
 30
0.0
 11
2372.9430269513941312
 21
140.2975281756544916
 31
0.0
  0
ARC
  5
B0E1
  8
0
 10
2372.9876513600229373
 20
140.2042405296880929
 30
0.0
 40
0.0785593117786332
 50
19.5830366963682714
 51
75.0319120886754973
  0
ARC
  5
B0E2
  8
0
 10
2372.9842939213322097
 20
140.2030461194885902
 30
0.0
 40
0.0821228788527068
 50
359.0038861464610136
 51
19.5830366963682714
  0
ARC
  5
B0E3
  8
0
 10
2373.8667962937170159
 20
140.2142180422667934
 30
0.0
 40
0.8004910681255887
 50
180.901863219271803
 51
191.6301411822992122
  0
ARC
  5
B0E4
  8
0
 10
2373.8587983167922175
 20
142.1615101492452027
 30
0.0
 40
2.288414574642557
 50
257.6772616386703021
 51
270.363552914257582
  0
ARC
  5
B0E5
  8
0
 10
2373.5386936535460336
 20
140.6961717859483088
 30
0.0
 40
0.7885200735587911
 50
234.6731544178215927
 51
257.6772616386703021
  0
ARC
  5
B0E6
  8
0
 10
2373.211932141233774
 20
140.2351281492709916
 30
0.0
 40
0.2234233377260815
 50
196.1565428685202903
 51
234.6731544178215927
  0
ARC
  5
B0E7
  8
0
 10
2373.6751804595987778
 20
140.369333294156803
 30
0.0
 40
0.7057199532876225
 50
193.7479246824246104
 51
196.1565428685202903
  0
ARC
  5
B0E8
  8
0
 10
2372.9434152941448701
 20
140.1902995895391086
 30
0.0
 40
0.0476281234752455
 50
13.7479246824246406
 51
57.7307148876523897
  0
ARC
  5
B0E9
  8
0
 10
2373.8733186568938436
 20
146.1321462651524996
 30
0.0
 40
6.1614173227979618
 50
265.5882742208273157
 51
270.0
  0
ARC
  5
B0EA
  8
0
 10
2373.400877712782858
 20
140.0086117477706011
 30
0.0
 40
0.0196850401890845
 50
180.0000023752191112
 51
265.5882742208273157
  0
LINE
  5
B0EB
  8
0
 10
2373.3910351922941118
 20
141.4234848506204969
 30
0.0
 11
2373.3910351922941118
 21
140.6163982336545075
 31
0.0
  0
LINE
  5
B0EC
  8
0
 10
2373.3910351922941118
 20
140.6163982336545075
 30
0.0
 11
2374.3556021225740551
 21
140.6163982336545075
 31
0.0
  0
LINE
  5
B0ED
  8
0
 10
2373.3910351922941118
 20
140.6163982336545075
 30
0.0
 11
2373.4107323052949141
 21
140.5967131942545905
 31
0.0
  0
LINE
  5
B0EE
  8
0
 10
2373.4107323052949141
 20
140.5967131942545905
 30
0.0
 11
2374.3359050096551073
 21
140.5967131942545905
 31
0.0
  0
LINE
  5
B0EF
  8
0
 10
2373.4796178694941773
 20
140.5967131942545905
 30
0.0
 11
2373.4796178694941773
 21
140.5056620888545069
 31
0.0
  0
LINE
  5
B0F0
  8
0
 10
2374.2670194699499007
 20
140.5056620888545069
 30
0.0
 11
2373.4796178694941773
 21
140.5056620888545069
 31
0.0
  0
LINE
  5
B0F1
  8
0
 10
2373.4796178694941773
 20
140.5056620888545069
 30
0.0
 11
2373.4001907140500407
 21
140.502888431561189
 31
0.0
  0
ARC
  5
B0F2
  8
0
 10
2373.4008777119920524
 20
140.4832153838231079
 30
0.0
 40
0.0196850393313741
 50
91.9999999327405362
 51
180.000000199621212
  0
ARC
  5
B0F3
  8
0
 10
2373.4300053048559676
 20
140.4832153839246018
 30
0.0
 40
0.0488126321950366
 50
180.0000001996195067
 51
226.1941409118410036
  0
ARC
  5
B0F4
  8
0
 10
2374.8844152573319661
 20
141.9995496344687069
 30
0.0
 40
2.149902318342868
 50
226.1941409118410036
 51
227.8058591353999986
  0
ARC
  5
B0F5
  8
0
 10
2373.3770346090118437
 20
140.3367987281474996
 30
0.0
 40
0.0944098246990472
 50
9.6463935084697106
 51
47.8058591353999489
  0
ARC
  5
B0F6
  8
0
 10
2373.3612101026360506
 20
140.3341090314582118
 30
0.0
 40
0.1104612878817182
 50
3.4766936829620461
 51
9.6463935084697106
  0
LINE
  5
B0F7
  8
0
 10
2373.4714680918941667
 20
140.3408076824545105
 30
0.0
 11
2373.471743853694079
 21
140.1578781739544866
 31
0.0
  0
ARC
  5
B0F8
  8
0
 10
2373.3733186568952078
 20
140.1578781739544866
 30
0.0
 40
0.0984251968999952
 50
313.0000000729002068
 51
0.0000000000032569
  0
ARC
  5
B0F9
  8
0
 10
2373.4284835835269405
 20
140.0100488163297996
 30
0.0
 40
0.0473127406416495
 50
132.9999996650498133
 51
181.7405610039537009
  0
ARC
  5
B0FA
  8
0
 10
2373.3881964676070311
 20
140.4832153464546138
 30
0.0
 40
0.0070037949464024
 50
179.999693470257796
 51
246.7302355244891885
  0
ARC
  5
B0FB
  8
0
 10
2370.6488665609472264
 20
135.5159859489887992
 30
0.0
 40
5.6655332691673923
 50
60.7247156531601107
 51
61.117204020139603
  0
ARC
  5
B0FC
  8
0
 10
2373.5672947750499588
 20
140.7327219268329088
 30
0.0
 40
0.3120977868568216
 50
241.7030622440396996
 51
252.2158508022999968
  0
ARC
  5
B0FD
  8
0
 10
2373.5375951324408561
 20
140.0158243149182908
 30
0.0
 40
0.4109776097570462
 50
59.6341052513663925
 51
76.4808567491826068
  0
ARC
  5
B0FE
  8
0
 10
2373.7211004725381827
 20
140.3331448777063031
 30
0.0
 40
0.0444717944272648
 50
2.082418466925072
 51
56.9522197372154722
  0
LINE
  5
B0FF
  8
0
 10
2373.7655428973948801
 20
140.334760851854611
 30
0.0
 11
2373.7655428973948801
 21
140.1578781275545964
 31
0.0
  0
ARC
  5
B100
  8
0
 10
2373.4997209547891543
 20
140.5416632891763129
 30
0.0
 40
0.1096935244220887
 50
255.3457912685150006
 51
273.5000508059794129
  0
ARC
  5
B101
  8
0
 10
2373.5110857945469434
 20
139.9761487676871923
 30
0.0
 40
0.4560494955209639
 50
74.4074452729361013
 51
90.5864886565502729
  0
ARC
  5
B102
  8
0
 10
2373.3882326827738325
 20
140.0093804005092863
 30
0.0
 40
0.0070578364082538
 50
113.401193992417106
 51
179.6512074158463008
  0
ARC
  5
B103
  8
0
 10
2370.6488665609472264
 20
144.9766530304202945
 30
0.0
 40
5.6655332691673923
 50
298.8827959798604184
 51
299.2752843468398964
  0
ARC
  5
B104
  8
0
 10
2373.5672947750499588
 20
139.7599170525760996
 30
0.0
 40
0.3120977868568288
 50
107.7841491977000032
 51
118.296937755937293
  0
ARC
  5
B105
  8
0
 10
2373.5375951324408561
 20
140.4768146644908029
 30
0.0
 40
0.4109776097570462
 50
283.5191432508174216
 51
300.3658947486335933
  0
ARC
  5
B106
  8
0
 10
2373.7211004725381827
 20
140.1594941017027907
 30
0.0
 40
0.0444717944272648
 50
303.0477802627844994
 51
357.9175815330748947
  0
ARC
  5
B107
  8
0
 10
2373.4997209547891543
 20
139.9509756902328093
 30
0.0
 40
0.1096935244220887
 50
86.4999491940205729
 51
104.6542087314849994
  0
ARC
  5
B108
  8
0
 10
2373.5110857945469434
 20
140.5164902117219015
 30
0.0
 40
0.4560494955209639
 50
269.4135113434497271
 51
285.5925547270638845
  0
LINE
  5
B109
  8
0
 10
2373.396216372193976
 20
140.0446511643546046
 30
0.0
 11
2373.4404444796941789
 21
140.0858945419545876
 31
0.0
  0
LINE
  5
B10A
  8
0
 10
2377.4166257434940235
 20
142.0140360288546049
 30
0.0
 11
2377.4068579661939111
 21
141.7343234972719017
 31
0.0
  0
ARC
  5
B10B
  8
0
 10
2377.2888196795638578
 20
141.7384454848130986
 30
0.0
 40
0.1181102361855717
 50
270.0000001118806949
 51
358.0000001248246235
  0
ARC
  5
B10C
  8
0
 10
2377.2425706370490843
 20
141.5219100459459867
 30
0.0
 40
0.098425208819935
 50
90.0203142367888205
 51
174.7840888579914917
  0
ARC
  5
B10D
  8
0
 10
2377.0269318234800267
 20
141.5415950904578892
 30
0.0
 40
0.1181102360727031
 50
270.0000000593274763
 51
354.7840915913208732
  0
ARC
  5
B10E
  8
0
 10
2374.336883062087054
 20
138.5673928347399908
 30
0.0
 40
0.24939082208501
 50
163.3791522167572055
 51
196.9383361229710943
  0
ARC
  5
B10F
  8
0
 10
2374.3396931994820989
 20
138.5659773332426994
 30
0.0
 40
0.2524890383773926
 50
130.1169545362025985
 51
163.253763900829199
  0
ARC
  5
B110
  8
0
 10
2374.1511320841568704
 20
138.7897664176267938
 30
0.0
 40
0.0401487044074261
 50
310.1169545362035933
 51
27.1692503740627593
  0
ARC
  5
B111
  8
0
 10
2374.2011199409630535
 20
138.8154227823847862
 30
0.0
 40
0.0160387931403034
 50
106.0290876527963064
 51
207.1692503740642053
  0
ARC
  5
B112
  8
0
 10
2374.1922558571168338
 20
138.8462763908200941
 30
0.0
 40
0.0160628755997873
 50
286.0290876527963064
 51
359.8307546655123019
  0
LINE
  5
B113
  8
0
 10
2374.208318662639158
 20
138.8462289429483008
 30
0.0
 11
2374.2083380195590507
 21
138.8527819543591875
 31
0.0
  0
ARC
  5
B114
  8
0
 10
2374.2284774595909767
 20
138.8527224645293074
 30
0.0
 40
0.0201395278948456
 50
124.953296539059707
 51
179.8307546655138935
  0
ARC
  5
B115
  8
0
 10
2374.1950959939249515
 20
138.9004789429208984
 30
0.0
 40
0.0381271304814792
 50
304.9532965390595791
 51
55.0467036982456221
  0
ARC
  5
B116
  8
0
 10
2374.2285036195671637
 20
138.9482728469428992
 30
0.0
 40
0.0201851899375935
 50
180.2751768689495862
 51
235.0467036982475122
  0
LINE
  5
B117
  8
0
 10
2374.2083186624281552
 20
138.948175903048309
 30
0.0
 11
2374.2083186624140581
 21
138.954728942948293
 31
0.0
  0
ARC
  5
B118
  8
0
 10
2374.1922097134620344
 20
138.9546516505124885
 30
0.0
 40
0.0160776619519544
 50
0.2751778915249563
 51
89.6117370139620277
  0
ARC
  5
B119
  8
0
 10
2374.581971133476145
 20
139.0101079642552975
 30
0.0
 40
0.0393790205332538
 50
269.9999946238158941
 51
359.9869900545501196
  0
LINE
  5
B11A
  8
0
 10
2374.6213501529941823
 20
139.0100990226036117
 30
0.0
 11
2374.6213501529941823
 21
139.0415950856036034
 31
0.0
  0
ARC
  5
B11B
  8
0
 10
2374.6804309370249939
 20
139.0415694199153052
 30
0.0
 40
0.0590807896055696
 50
90.0248854256140731
 51
179.9751097492732868
  0
ARC
  5
B11C
  8
0
 10
2374.798515512431095
 20
139.1400202827705073
 30
0.0
 40
0.0393700787000011
 50
270.0000001186550094
 51
0.0000001186484296
  0
LINE
  5
B11D
  8
0
 10
2374.8378855911300889
 20
139.1400202828519923
 30
0.0
 11
2374.837885588970039
 21
140.1835670160519953
 31
0.0
  0
ARC
  5
B11E
  8
0
 10
2373.8934377036789556
 20
142.5053158573705048
 30
0.0
 40
2.682869380399318
 50
269.5703305318546086
 51
280.1937926110252874
  0
ARC
  5
B11F
  8
0
 10
2374.1550208615722113
 20
141.0505935246063984
 30
0.0
 40
1.2048156554163649
 50
280.1937926110252874
 51
292.8393872626406846
  0
ARC
  5
B120
  8
0
 10
2374.4510908949027908
 20
140.3573674650187115
 30
0.0
 40
0.451037421030178
 50
292.3589543761012806
 51
317.0858703632953848
  0
ARC
  5
B121
  8
0
 10
2374.6091245000629897
 20
140.2022095308882115
 30
0.0
 40
0.2297294007626554
 50
318.5895776427511237
 51
345.8075479387583755
  0
ARC
  5
B122
  8
0
 10
2374.6229655853539953
 20
140.1987091379363051
 30
0.0
 40
0.215452552621473
 50
345.8075479387583755
 51
355.9686297648459004
  0
ARC
  5
B123
  8
0
 10
2374.7753677456062178
 20
140.1843421308549011
 30
0.0
 40
0.0625221639922808
 50
359.2852964288331918
 51
17.0614173346986284
  0
ARC
  5
B124
  8
0
 10
2374.7974350186000265
 20
140.1911420053006054
 30
0.0
 40
0.0394310023650717
 50
17.0234141203500293
 51
89.4929915563461833
  0
LINE
  5
B125
  8
0
 10
2374.7977839376731026
 20
140.230571463869012
 30
0.0
 11
2374.6849707725718872
 21
140.2305714636353002
 31
0.0
  0
LINE
  5
B126
  8
0
 10
2374.8378855864020807
 20
141.4234848521186052
 30
0.0
 11
2374.8378855886198835
 21
140.352618708052006
 31
0.0
  0
ARC
  5
B127
  8
0
 10
2374.8260745650200079
 20
140.3526187080275918
 30
0.0
 40
0.0118110236
 50
270.0000001186550094
 51
0.0000001186500581
  0
LINE
  5
B128
  8
0
 10
2374.8260745650441095
 20
140.3408076844276025
 30
0.0
 11
2374.275169224543788
 21
140.3408076832866982
 31
0.0
  0
LINE
  5
B129
  8
0
 10
2374.8182005493440556
 20
140.3408076844112884
 30
0.0
 11
2374.8182005493940778
 21
140.3165424676112139
 31
0.0
  0
ARC
  5
B12A
  8
0
 10
2374.7985155102078352
 20
140.3165424674978112
 30
0.0
 40
0.019685039185795
 50
284.9999755328871061
 51
0.0000000391885048
  0
LINE
  5
B12B
  8
0
 10
2374.803610365132954
 20
140.2975281775810004
 30
0.0
 11
2374.2748934628339157
 21
140.2975281764861109
 31
0.0
  0
LINE
  5
B12C
  8
0
 10
2374.7386955627098359
 20
140.280134308546593
 30
0.0
 11
2374.803610365132954
 21
140.2975281775810004
 31
0.0
  0
ARC
  5
B12D
  8
0
 10
2374.7589859566978703
 20
140.2042405315222027
 30
0.0
 40
0.0785593117786332
 50
104.9680880299919039
 51
160.4169634222782861
  0
ARC
  5
B12E
  8
0
 10
2374.7623433953917811
 20
140.2030461213296064
 30
0.0
 40
0.0821228788527068
 50
160.4169634222797924
 51
180.9961139721893915
  0
ARC
  5
B12F
  8
0
 10
2373.879841022985147
 20
140.2142180422802937
 30
0.0
 40
0.8004910681255887
 50
348.3698589363506244
 51
359.0981368993785168
  0
ARC
  5
B130
  8
0
 10
2373.8878389958767912
 20
142.1615101492753013
 30
0.0
 40
2.288414574642557
 50
269.6364472043997011
 51
282.3227384799824904
  0
ARC
  5
B131
  8
0
 10
2374.2079436621570494
 20
140.6961717866412016
 30
0.0
 40
0.7885200735587911
 50
282.3227384799824904
 51
305.3268457008226733
  0
ARC
  5
B132
  8
0
 10
2374.5347051754229142
 20
140.2351281506406053
 30
0.0
 40
0.2234233377260815
 50
305.3268457008226733
 51
343.8434572501367938
  0
ARC
  5
B133
  8
0
 10
2374.0714568567800598
 20
140.3693332945670988
 30
0.0
 40
0.7057199532876225
 50
343.8434572501367938
 51
346.2520754362246862
  0
ARC
  5
B134
  8
0
 10
2374.8032220226059508
 20
140.1902995914647931
 30
0.0
 40
0.0476281234752455
 50
122.2692852310099028
 51
166.2520754362246862
  0
ARC
  5
B135
  8
0
 10
2373.8733186475510593
 20
146.1321462651524996
 30
0.0
 40
6.1614173227979618
 50
270.0000001186550094
 51
274.4117258978143923
  0
ARC
  5
B136
  8
0
 10
2374.3457596043431295
 20
140.0086117487489901
 30
0.0
 40
0.0196850401890845
 50
274.4117258978143923
 51
359.9999977434309812
  0
LINE
  5
B137
  8
0
 10
2374.3556021219019385
 20
141.4234848516192073
 30
0.0
 11
2374.355602123573135
 21
140.6163982346533032
 31
0.0
  0
LINE
  5
B138
  8
0
 10
2374.355602123573135
 20
140.6163982346533032
 30
0.0
 11
2374.3359050096551073
 21
140.5967131942545905
 31
0.0
  0
LINE
  5
B139
  8
0
 10
2374.2670194464139968
 20
140.5967131950698104
 30
0.0
 11
2374.2670194466031717
 21
140.5056620896698973
 31
0.0
  0
LINE
  5
B13A
  8
0
 10
2374.2670194466031717
 20
140.5056620896698973
 30
0.0
 11
2374.34644660205322
 21
140.502888432540999
 31
0.0
  0
ARC
  5
B13B
  8
0
 10
2374.3457596041512261
 20
140.4832153848014968
 30
0.0
 40
0.0196850393313741
 50
359.999999919030472
 51
88.0000001859085188
  0
ARC
  5
B13C
  8
0
 10
2374.3166320112882204
 20
140.4832153848427083
 30
0.0
 40
0.0488126321950366
 50
313.8058592068011876
 51
359.999999919030472
  0
ARC
  5
B13D
  8
0
 10
2372.8622220556708271
 20
141.999549632374908
 30
0.0
 40
2.149902318342868
 50
312.1941409832542718
 51
313.8058592068011876
  0
ARC
  5
B13E
  8
0
 10
2374.369602707435206
 20
140.3367987291750865
 30
0.0
 40
0.0944098246990472
 50
132.1941409832543002
 51
170.353606610180293
  0
ARC
  5
B13F
  8
0
 10
2374.3854272138160013
 20
140.334109032518711
 30
0.0
 40
0.1104612878817182
 50
170.353606610180293
 51
176.523306435687914
  0
LINE
  5
B140
  8
0
 10
2374.275169224543788
 20
140.3408076832866982
 30
0.0
 11
2374.274893463123135
 21
140.1578781747861058
 31
0.0
  0
ARC
  5
B141
  8
0
 10
2374.3733186599229157
 20
140.1578781749900031
 30
0.0
 40
0.0984251968999952
 50
180.0000001186467955
 51
227.0000000457411033
  0
ARC
  5
B142
  8
0
 10
2374.3183503929089966
 20
140.0101863644534035
 30
0.0
 40
0.047078050231365
 50
0.3783476706043178
 51
47.0608773805813172
  0
ARC
  5
B143
  8
0
 10
2374.3584408485371569
 20
140.4832153474592076
 30
0.0
 40
0.0070037949464024
 50
293.2697645941519795
 51
0.0003066483921929
  0
ARC
  5
B144
  8
0
 10
2377.0977707654828919
 20
135.5159859556661957
 30
0.0
 40
5.6655332691673923
 50
118.8827960985248069
 51
119.2752844654857967
  0
ARC
  5
B145
  8
0
 10
2374.1793425405771814
 20
140.7327219274667129
 30
0.0
 40
0.3120977868568216
 50
287.7841493163450082
 51
298.2969378745954145
  0
ARC
  5
B146
  8
0
 10
2374.2090421846701247
 20
140.0158243156134859
 30
0.0
 40
0.4109776097570462
 50
103.5191433694767937
 51
120.3658948672816962
  0
ARC
  5
B147
  8
0
 10
2374.025536843916143
 20
140.3331448780214998
 30
0.0
 40
0.0444717944272648
 50
123.0477803814329008
 51
177.9175816517262945
  0
LINE
  5
B148
  8
0
 10
2373.9810944190571718
 20
140.334760852077693
 30
0.0
 11
2373.9810944194227886
 21
140.1578781277777068
 31
0.0
  0
ARC
  5
B149
  8
0
 10
2374.2469163612340708
 20
140.5416632899500087
 30
0.0
 40
0.1096935244220887
 50
266.4999493126622951
 51
284.6542088501428793
  0
ARC
  5
B14A
  8
0
 10
2374.235551522645892
 20
139.9761487684374117
 30
0.0
 40
0.4560494955209639
 50
89.4135114621109182
 51
105.5925548457085057
  0
ARC
  5
B14B
  8
0
 10
2374.3584408887381869
 20
140.0094236634469951
 30
0.0
 40
0.007003752362959
 50
359.9975699378267109
 51
66.7304350898070453
  0
ARC
  5
B14C
  8
0
 10
2377.0977707458919213
 20
144.9766530370976056
 30
0.0
 40
5.6655332691673923
 50
240.7247157718059896
 51
241.1172041387818865
  0
ARC
  5
B14D
  8
0
 10
2374.1793425425921669
 20
139.7599170532099038
 30
0.0
 40
0.3120977868568288
 50
61.7030623626979065
 51
72.2158509209697144
  0
ARC
  5
B14E
  8
0
 10
2374.2090421837160648
 20
140.4768146651859979
 30
0.0
 40
0.4109776097570462
 50
239.6341053700145096
 51
256.4808568678163283
  0
ARC
  5
B14F
  8
0
 10
2374.0255368442758481
 20
140.1594941020179874
 30
0.0
 40
0.0444717944272648
 50
182.0824185855757946
 51
236.9522198558638877
  0
ARC
  5
B150
  8
0
 10
2374.2469163624568864
 20
139.950975691006505
 30
0.0
 40
0.1096935244220887
 50
75.34579138714804
 51
93.500050924647212
  0
ARC
  5
B151
  8
0
 10
2374.2355515215272135
 20
140.5164902124720072
 30
0.0
 40
0.4560494955209639
 50
254.4074453915808078
 51
270.5864887752114214
  0
LINE
  5
B152
  8
0
 10
2374.3504209448569782
 20
140.0446511653424864
 30
0.0
 11
2374.3061928372721923
 21
140.0858945428510083
 31
0.0
  0
LINE
  5
B153
  8
0
 10
2373.529697967238917
 20
138.9317286747146909
 30
0.0
 11
2374.2169399926069673
 21
138.9317282277183097
 31
0.0
  0
LINE
  5
B154
  8
0
 10
2373.529697967238917
 20
138.8692292097944119
 30
0.0
 11
2374.2169398055648344
 21
138.8692295273773141
 31
0.0
  0
LINE
  5
B155
  8
0
 10
2374.1966910583078061
 20
138.8308379674546131
 30
0.0
 11
2373.5499462536308783
 21
138.8308379674546131
 31
0.0
  0
LINE
  5
B156
  8
0
 10
2373.6483186568420933
 20
138.4947289422501058
 30
0.0
 11
2374.0983186568460042
 21
138.4947289422501058
 31
0.0
  0
ARC
  5
B158
  8
0
 10
2373.8733186568938436
 20
138.2010028794545065
 30
0.0
 40
0.3857999999999997
 50
124.5850889857379968
 51
55.4156139096862432
  0
ARC
  5
B159
  8
0
 10
2373.8733186568938436
 20
138.2010028794545065
 30
0.0
 40
0.3699999999999992
 50
127.4528322292080986
 51
52.5486423799872
  0
ARC
  5
B15A
  8
0
 10
2374.4243819371940845
 20
140.0110237256172923
 30
0.0
 40
0.0589568712971005
 50
180.5116608073522002
 51
181.4342189480256877
  0
ENDSEC
  0
EOF
