  0
SECTION
  2
HEADER
  9
$ACADVER
  1
AC1009
  9
$INSBASE
 10
513.8335606991784061
 20
49.4021502324692179
 30
0.0
  9
$EXTMIN
 10
510.2865353560777066
 20
45.8586761392309228
 30
-0.0015258207003583
  9
$EXTMAX
 10
517.4007664585534485
 20
52.9495162132271986
 30
0.0000000349246037
  9
$LIMMIN
 10
0.0
 20
0.0
  9
$LIMMAX
 10
11.6929133858000007
 20
8.2677165353999982
  9
$ORTHOMODE
 70
     0
  9
$REGENMODE
 70
     1
  9
$FILLMODE
 70
     1
  9
$QTEXTMODE
 70
     0
  9
$MIRRTEXT
 70
     0
  9
$DRAGMODE
 70
     2
  9
$LTSCALE
 40
0.6431102362
  9
$OSMODE
 70
  4095
  9
$ATTMODE
 70
     1
  9
$TEXTSIZE
 40
0.2
  9
$TRACEWID
 40
0.05
  9
$TEXTSTYLE
  7
STANDARD
  9
$CLAYER
  8
0
  9
$CELTYPE
  6
BYLAYER
  9
$CECOLOR
 62
   256
  9
$DIMSCALE
 40
1.0
  9
$DIMASZ
 40
0.1875
  9
$DIMEXO
 40
0.0625
  9
$DIMDLI
 40
0.4443307087
  9
$DIMRND
 40
0.0
  9
$DIMDLE
 40
0.0
  9
$DIMEXE
 40
0.125
  9
$DIMTP
 40
0.01
  9
$DIMTM
 40
0.01
  9
$DIMTXT
 40
1.0
  9
$DIMCEN
 40
0.1052362205
  9
$DIMTSZ
 40
0.0
  9
$DIMTOL
 70
     1
  9
$DIMLIM
 70
     0
  9
$DIMTIH
 70
     0
  9
$DIMTOH
 70
     1
  9
$DIMSE1
 70
     0
  9
$DIMSE2
 70
     0
  9
$DIMTAD
 70
     0
  9
$DIMZIN
 70
     0
  9
$DIMBLK
  1

  9
$DIMASO
 70
     1
  9
$DIMSHO
 70
     1
  9
$DIMPOST
  1
\X
  9
$DIMAPOST
  1

  9
$DIMALT
 70
     1
  9
$DIMALTD
 70
     2
  9
$DIMALTF
 40
25.3999999999999986
  9
$DIMLFAC
 40
1.0
  9
$DIMTOFL
 70
     0
  9
$DIMTVP
 40
0.0
  9
$DIMTIX
 70
     0
  9
$DIMSOXD
 70
     0
  9
$DIMSAH
 70
     0
  9
$DIMBLK1
  1

  9
$DIMBLK2
  1

  9
$DIMSTYLE
  2
STANDARD
  9
$DIMCLRD
 70
     0
  9
$DIMCLRE
 70
     0
  9
$DIMCLRT
 70
     0
  9
$DIMTFAC
 40
1.0
  9
$DIMGAP
 40
0.09
  9
$LUNITS
 70
     2
  9
$LUPREC
 70
     4
  9
$SKETCHINC
 40
0.1
  9
$FILLETRAD
 40
0.0
  9
$AUNITS
 70
     0
  9
$AUPREC
 70
     0
  9
$MENU
  1
.
  9
$ELEVATION
 40
0.0
  9
$PELEVATION
 40
0.0
  9
$THICKNESS
 40
0.0
  9
$LIMCHECK
 70
     0
  9
$BLIPMODE
 70
     0
  9
$CHAMFERA
 40
0.0
  9
$CHAMFERB
 40
0.0
  9
$SKPOLY
 70
     0
  9
$TDCREATE
 40
2458172.5207638889551163
  9
$TDUPDATE
 40
2459388.6973379631526768
  9
$TDINDWG
 40
0.2811083102
  9
$TDUSRTIMER
 40
0.2811083102
  9
$USRTIMER
 70
     1
  9
$ANGBASE
 50
0.0
  9
$ANGDIR
 70
     0
  9
$PDMODE
 70
     0
  9
$PDSIZE
 40
0.3125
  9
$PLINEWID
 40
0.0
  9
$COORDS
 70
     1
  9
$SPLFRAME
 70
     0
  9
$SPLINETYPE
 70
     6
  9
$SPLINESEGS
 70
     8
  9
$ATTDIA
 70
     1
  9
$ATTREQ
 70
     1
  9
$HANDLING
 70
     1
  9
$HANDSEED
  5
F03A
  9
$SURFTAB1
 70
     6
  9
$SURFTAB2
 70
     6
  9
$SURFTYPE
 70
     6
  9
$SURFU
 70
     6
  9
$SURFV
 70
     6
  9
$UCSNAME
  2

  9
$UCSORG
 10
0.0
 20
0.0
 30
0.0
  9
$UCSXDIR
 10
1.0
 20
0.0
 30
0.0
  9
$UCSYDIR
 10
0.0
 20
1.0
 30
0.0
  9
$PUCSNAME
  2

  9
$PUCSORG
 10
0.0
 20
0.0
 30
0.0
  9
$PUCSXDIR
 10
1.0
 20
0.0
 30
0.0
  9
$PUCSYDIR
 10
0.0
 20
1.0
 30
0.0
  9
$USERI1
 70
     0
  9
$USERI2
 70
     0
  9
$USERI3
 70
     0
  9
$USERI4
 70
     0
  9
$USERI5
 70
     0
  9
$USERR1
 40
0.0
  9
$USERR2
 40
0.0
  9
$USERR3
 40
0.0
  9
$USERR4
 40
0.0
  9
$USERR5
 40
0.0
  9
$WORLDVIEW
 70
     1
  9
$SHADEDGE
 70
     3
  9
$SHADEDIF
 70
    70
  9
$TILEMODE
 70
     1
  9
$MAXACTVP
 70
    64
  9
$PLIMCHECK
 70
     0
  9
$PEXTMIN
 10
1.0000000000000000E+20
 20
1.0000000000000000E+20
 30
1.0000000000000000E+20
  9
$PEXTMAX
 10
-1.0000000000000000E+20
 20
-1.0000000000000000E+20
 30
-1.0000000000000000E+20
  9
$PLIMMIN
 10
0.0
 20
0.0
  9
$PLIMMAX
 10
12.0
 20
9.0
  9
$UNITMODE
 70
     0
  9
$VISRETAIN
 70
     1
  9
$PLINEGEN
 70
     0
  9
$PSLTSCALE
 70
     1
  0
ENDSEC
  0
SECTION
  2
TABLES
  0
TABLE
  2
VPORT
 70
     1
  0
VPORT
  2
*ACTIVE
 70
     0
 10
0.0
 20
0.0
 11
1.0
 21
1.0
 12
84.2143617992618374
 22
-20.2984453359896193
 13
0.0
 23
0.0
 14
1.0
 24
1.0
 15
0.0
 25
0.0
 16
0.0
 26
0.0
 36
14.6338572656650907
 17
429.6292891080536833
 27
69.7025415122186871
 37
0.0
 40
7.1470422410292684
 41
1.67063492063492
 42
50.0
 43
0.0
 44
0.0
 50
0.0
 51
0.0
 71
     0
 72
   100
 73
     1
 74
     1
 75
     0
 76
     0
 77
     0
 78
     0
  0
ENDTAB
  0
TABLE
  2
LTYPE
 70
     2
  0
LTYPE
  2
CONTINUOUS
 70
     0
  3
Solid line
 72
    65
 73
     0
 40
0.0
  0
LTYPE
  2
PHANTOM2
 70
     0
  3
___ _ _ ___ _ _ ___ _ _ ___ _ _
 72
    65
 73
     6
 40
1.25
 49
0.625
 49
-0.125
 49
0.125
 49
-0.125
 49
0.125
 49
-0.125
  0
ENDTAB
  0
TABLE
  2
LAYER
 70
     2
  0
LAYER
  2
0
 70
     0
 62
   255
  6
CONTINUOUS
  0
LAYER
  2
DEFPOINTS
 70
     0
 62
     7
  6
CONTINUOUS
  0
ENDTAB
  0
TABLE
  2
STYLE
 70
     1
  0
STYLE
  2
STANDARD
 70
     0
 40
0.0
 41
0.8
 50
0.0
 71
     0
 42
0.2
  3
txt
  4

  0
ENDTAB
  0
TABLE
  2
VIEW
 70
     1
  0
ENDTAB
  0
TABLE
  2
UCS
 70
     0
  0
ENDTAB
  0
TABLE
  2
APPID
 70
    10
  0
APPID
  2
ACAD
 70
     0
  0
APPID
  2
ACAD_MLEADERVER
 70
     0
  0
APPID
  2
ACAD_EXEMPT_FROM_CAD_STANDARDS
 70
     0
  0
APPID
  2
ACAD_DSTYLE_DIMJAG
 70
     0
  0
APPID
  2
ACAD_DSTYLE_DIMTALN
 70
     0
  0
APPID
  2
ACAD_NAV_VCDISPLAY
 70
     0
  0
APPID
  2
ACAECLAYERSTANDARD
 70
     0
  0
APPID
  2
ACCMTRANSPARENCY
 70
     0
  0
APPID
  2
DCO15
 70
     0
  0
APPID
  2
ACDBATTR
 70
     0
  0
ENDTAB
  0
TABLE
  2
DIMSTYLE
 70
     1
  0
DIMSTYLE
  2
STANDARD
 70
     0
  3

  4

  5

  6

  7

 40
1.0
 41
0.1875
 42
0.0625
 43
0.38
 44
0.125
 45
0.0
 46
0.0
 47
0.01
 48
0.01
140
0.15625
141
0.09
142
0.0
143
25.3999999999999986
144
1.0
145
0.0
146
1.0
147
0.09
 71
     1
 72
     0
 73
     1
 74
     1
 75
     0
 76
     0
 77
     0
 78
     4
170
     0
171
     2
172
     0
173
     0
174
     0
175
     0
176
     0
177
     0
178
     0
  0
ENDTAB
  0
ENDSEC
  0
SECTION
  2
BLOCKS
  0
BLOCK
  8
0
  2
$MODEL_SPACE
 70
     0
 10
0.0
 20
0.0
 30
0.0
  3
$MODEL_SPACE
  1

  0
ENDBLK
  5
21
  8
0
  0
BLOCK
 67
     1
  8
0
  2
$PAPER_SPACE
 70
     0
 10
0.0
 20
0.0
 30
0.0
  3
$PAPER_SPACE
  1

  0
ENDBLK
  5
1D
 67
     1
  8
0
  0
ENDSEC
  0
SECTION
  2
ENTITIES
  0
ATTDEF
  5
C848
  8
DEFPOINTS
 10
513.8295482274251071
 20
49.4077911102213534
 30
0.0
 40
0.001
  1
K-72806T-4
  3

  2
MODELNUMBER
 70
     0
1001
ACDBATTR
1070
     0
1070
     1
  0
ATTDEF
  5
C849
  8
DEFPOINTS
 10
513.8295482274251071
 20
49.4061244435546882
 30
0.0
 40
0.001
  1
MODULO
  3

  2
TRADENAME
 70
     0
1001
ACDBATTR
1070
     0
1070
     1
  0
ATTDEF
  5
C84A
  8
DEFPOINTS
 10
513.8295482274251071
 20
49.4044577768880231
 30
0.0
 40
0.001
  1
VALVE TRIM
  3

  2
PRODUCT
 70
     0
1001
ACDBATTR
1070
     0
1070
     1
  0
ARC
  5
EFC4
  8
0
 10
513.8348127478222978
 20
47.4455767159534929
 30
0.0
 40
0.4632291045273174
 50
269.8404636411502793
 51
293.7493164859286026
  0
ARC
  5
EFC5
  8
0
 10
513.8626974535304726
 20
47.3782751830919295
 30
0.0
 40
0.3903999500985286
 50
293.9814075444377863
 51
328.6328670430676198
  0
ARC
  5
EFC6
  8
0
 10
513.5633467814864161
 20
47.5607639962302784
 30
0.0
 40
0.7409894419175344
 50
328.6328670430676198
 51
348.2626701741212969
  0
ARC
  5
EFC7
  8
0
 10
513.3770558316094821
 20
47.5994695935279779
 30
0.0
 40
0.9312588332240652
 50
348.2626701741212969
 51
1.2600036411969839
  0
ARC
  5
EFC8
  8
0
 10
509.5610197955878107
 20
47.5738052434055092
 30
0.0
 40
4.7472939429004608
 50
0.5569057976364467
 51
8.7632636197625988
  0
ARC
  5
EFC9
  8
0
 10
532.6721824995352108
 20
51.1874205513137426
 30
0.0
 40
18.6446855322283511
 50
186.9574541386548958
 51
188.9181290386522107
  0
ARC
  5
EFCA
  8
0
 10
515.7018866338155476
 20
49.1495035488287186
 30
0.0
 40
1.552840231704792
 50
163.8113388049175114
 51
188.1655676693085013
  0
ARC
  5
EFCB
  8
0
 10
515.8891233502686191
 20
49.0010493023938594
 30
0.0
 40
1.7763420441650291
 50
148.8325097321398118
 51
160.8953291730057913
  0
ARC
  5
EFCC
  8
0
 10
510.8259258585484872
 20
51.727047573239858
 30
0.0
 40
3.9772743125382091
 50
332.9834648918849211
 51
337.0149513076120229
  0
ARC
  5
EFCD
  8
0
 10
513.8335229182783905
 20
50.4454573191192281
 30
0.0
 40
0.7080313167999988
 50
337.4520487007579845
 51
203.6114702865592108
  0
ARC
  5
EFCE
  8
0
 10
513.8335229182783905
 20
50.4454573191192281
 30
0.0
 40
0.7500781869166291
 50
315.5747042437553773
 51
224.425295756244509
  0
CIRCLE
  5
EFCF
  8
0
 10
513.8335229182783905
 20
50.4454573191192281
 30
0.0
 40
0.5748848274432046
  0
ARC
  5
EFD0
  8
0
 10
513.8390023284787276
 20
47.4779936816966099
 30
0.0
 40
0.4956745614075519
 50
247.0436061662599911
 51
269.3666137066578017
  0
ARC
  5
EFD1
  8
0
 10
513.8043483830263085
 20
47.3782751830919295
 30
0.0
 40
0.3903999500985286
 50
211.3671329569324939
 51
246.0185924555622137
  0
ARC
  5
EFD2
  8
0
 10
514.1036990550704786
 20
47.5607639962302784
 30
0.0
 40
0.7409894419175344
 50
191.7373298258785894
 51
211.3671329569324939
  0
ARC
  5
EFD3
  8
0
 10
514.2899900049471853
 20
47.5994695935279779
 30
0.0
 40
0.9312588332240652
 50
178.7399963588030118
 51
191.7373298258785894
  0
ARC
  5
EFD4
  8
0
 10
518.1060260409687999
 20
47.5738052434055092
 30
0.0
 40
4.7472939429004608
 50
171.236736380237403
 51
179.4430942023635112
  0
ARC
  5
EFD5
  8
0
 10
494.9948633370213997
 20
51.1874205513137426
 30
0.0
 40
18.6446855322283511
 50
351.0818709613478177
 51
353.0425458613449905
  0
ARC
  5
EFD6
  8
0
 10
511.9651592027411766
 20
49.1495035488287186
 30
0.0
 40
1.552840231704792
 50
351.8344323306915271
 51
16.1886611950824602
  0
ARC
  5
EFD7
  8
0
 10
511.7779224862881051
 20
49.0010493023938594
 30
0.0
 40
1.7763420441650291
 50
19.1046708269941803
 51
31.1674902678601988
  0
ARC
  5
EFD8
  8
0
 10
516.841119978008237
 20
51.727047573239858
 30
0.0
 40
3.9772743125382091
 50
203.1743728934170861
 51
207.0165351081151073
  0
ARC
  5
EFD9
  8
0
 10
513.8335606991784061
 20
49.4021880134192273
 30
0.0
 40
3.5433087085504349
 50
279.1182035170406834
 51
260.8817964829593166
  0
ARC
  5
EFDA
  8
0
 10
513.8335606991784061
 20
50.4454573191192281
 30
0.0
 40
1.1932390526000001
 50
285.6790073197477113
 51
254.3171207193346106
  0
ARC
  5
EFDB
  8
0
 10
513.8334889966829451
 20
49.4017107969740721
 30
0.0
 40
3.538701648244039
 50
261.0404147084726105
 51
266.1736275457807892
  0
ARC
  5
EFDC
  8
0
 10
513.8336323607193208
 20
49.4017111891808014
 30
0.0
 40
3.5387020423185249
 50
273.8263726897970969
 51
278.9595849580733784
  0
LINE
  5
EFDD
  8
0
 10
514.3847418015419635
 20
45.906186832443268
 30
0.0
 11
514.3950751082526267
 21
45.9036542959182228
 31
0.0
  0
LINE
  5
EFDE
  8
0
 10
513.2823795968147351
 20
45.906186832443268
 30
0.0
 11
513.2720462901040719
 21
45.9036542959182228
 31
0.0
  0
CIRCLE
  5
EFDF
  8
0
 10
513.8335606991784061
 20
49.4021880134192273
 30
0.0
 40
3.2712343312000001
  0
ARC
  5
EFE0
  8
0
 10
513.8335606991784061
 20
49.402188013419341
 30
0.0
 40
3.543307086600112
 50
266.3448937553991982
 51
273.6551062446009155
  0
LINE
  5
EFE1
  8
0
 10
513.597340226736037
 20
45.8708974182446667
 30
0.0
 11
513.6076735333305123
 21
45.8660884536219413
 31
0.0
  0
LINE
  5
EFE2
  8
0
 10
514.0698014548283936
 20
45.8708987751184267
 30
0.0
 11
514.0594478648869199
 21
45.8660884536036804
 31
0.0
  0
ENDSEC
  0
EOF
