  0
SECTION
  2
HEADER
  9
$ACADVER
  1
AC1009
  9
$INSBASE
 10
492.4911181559915008
 20
58.3133801382181929
 30
0.0
  9
$EXTMIN
 10
488.9399269212254922
 20
54.1929389690655583
 30
-0.0015258207003583
  9
$EXTMAX
 10
496.068737750827097
 20
58.3231187411089635
 30
0.0000000349246037
  9
$LIMMIN
 10
0.0
 20
0.0
  9
$LIMMAX
 10
11.6929133858000007
 20
8.2677165353999982
  9
$ORTHOMODE
 70
     0
  9
$REGENMODE
 70
     1
  9
$FILLMODE
 70
     1
  9
$QTEXTMODE
 70
     0
  9
$MIRRTEXT
 70
     0
  9
$DRAGMODE
 70
     2
  9
$LTSCALE
 40
0.6431102362
  9
$OSMODE
 70
  4095
  9
$ATTMODE
 70
     1
  9
$TEXTSIZE
 40
0.2
  9
$TRACEWID
 40
0.05
  9
$TEXTSTYLE
  7
STANDARD
  9
$CLAYER
  8
0
  9
$CELTYPE
  6
BYLAYER
  9
$CECOLOR
 62
   256
  9
$DIMSCALE
 40
1.0
  9
$DIMASZ
 40
0.1875
  9
$DIMEXO
 40
0.0625
  9
$DIMDLI
 40
0.4443307087
  9
$DIMRND
 40
0.0
  9
$DIMDLE
 40
0.0
  9
$DIMEXE
 40
0.125
  9
$DIMTP
 40
0.01
  9
$DIMTM
 40
0.01
  9
$DIMTXT
 40
1.0
  9
$DIMCEN
 40
0.1052362205
  9
$DIMTSZ
 40
0.0
  9
$DIMTOL
 70
     1
  9
$DIMLIM
 70
     0
  9
$DIMTIH
 70
     0
  9
$DIMTOH
 70
     1
  9
$DIMSE1
 70
     0
  9
$DIMSE2
 70
     0
  9
$DIMTAD
 70
     0
  9
$DIMZIN
 70
     0
  9
$DIMBLK
  1

  9
$DIMASO
 70
     1
  9
$DIMSHO
 70
     1
  9
$DIMPOST
  1
\X
  9
$DIMAPOST
  1

  9
$DIMALT
 70
     1
  9
$DIMALTD
 70
     2
  9
$DIMALTF
 40
25.3999999999999986
  9
$DIMLFAC
 40
1.0
  9
$DIMTOFL
 70
     0
  9
$DIMTVP
 40
0.0
  9
$DIMTIX
 70
     0
  9
$DIMSOXD
 70
     0
  9
$DIMSAH
 70
     0
  9
$DIMBLK1
  1

  9
$DIMBLK2
  1

  9
$DIMSTYLE
  2
STANDARD
  9
$DIMCLRD
 70
     0
  9
$DIMCLRE
 70
     0
  9
$DIMCLRT
 70
     0
  9
$DIMTFAC
 40
1.0
  9
$DIMGAP
 40
0.09
  9
$LUNITS
 70
     2
  9
$LUPREC
 70
     4
  9
$SKETCHINC
 40
0.1
  9
$FILLETRAD
 40
0.0
  9
$AUNITS
 70
     0
  9
$AUPREC
 70
     0
  9
$MENU
  1
.
  9
$ELEVATION
 40
0.0
  9
$PELEVATION
 40
0.0
  9
$THICKNESS
 40
0.0
  9
$LIMCHECK
 70
     0
  9
$BLIPMODE
 70
     0
  9
$CHAMFERA
 40
0.0
  9
$CHAMFERB
 40
0.0
  9
$SKPOLY
 70
     0
  9
$TDCREATE
 40
2458172.5207638889551163
  9
$TDUPDATE
 40
2459388.6972453710623085
  9
$TDINDWG
 40
0.2816407176
  9
$TDUSRTIMER
 40
0.2816407176
  9
$USRTIMER
 70
     1
  9
$ANGBASE
 50
0.0
  9
$ANGDIR
 70
     0
  9
$PDMODE
 70
     0
  9
$PDSIZE
 40
0.3125
  9
$PLINEWID
 40
0.0
  9
$COORDS
 70
     1
  9
$SPLFRAME
 70
     0
  9
$SPLINETYPE
 70
     6
  9
$SPLINESEGS
 70
     8
  9
$ATTDIA
 70
     1
  9
$ATTREQ
 70
     1
  9
$HANDLING
 70
     1
  9
$HANDSEED
  5
F1A4
  9
$SURFTAB1
 70
     6
  9
$SURFTAB2
 70
     6
  9
$SURFTYPE
 70
     6
  9
$SURFU
 70
     6
  9
$SURFV
 70
     6
  9
$UCSNAME
  2

  9
$UCSORG
 10
0.0
 20
0.0
 30
0.0
  9
$UCSXDIR
 10
1.0
 20
0.0
 30
0.0
  9
$UCSYDIR
 10
0.0
 20
1.0
 30
0.0
  9
$PUCSNAME
  2

  9
$PUCSORG
 10
0.0
 20
0.0
 30
0.0
  9
$PUCSXDIR
 10
1.0
 20
0.0
 30
0.0
  9
$PUCSYDIR
 10
0.0
 20
1.0
 30
0.0
  9
$USERI1
 70
     0
  9
$USERI2
 70
     0
  9
$USERI3
 70
     0
  9
$USERI4
 70
     0
  9
$USERI5
 70
     0
  9
$USERR1
 40
0.0
  9
$USERR2
 40
0.0
  9
$USERR3
 40
0.0
  9
$USERR4
 40
0.0
  9
$USERR5
 40
0.0
  9
$WORLDVIEW
 70
     1
  9
$SHADEDGE
 70
     3
  9
$SHADEDIF
 70
    70
  9
$TILEMODE
 70
     1
  9
$MAXACTVP
 70
    64
  9
$PLIMCHECK
 70
     0
  9
$PEXTMIN
 10
1.0000000000000000E+20
 20
1.0000000000000000E+20
 30
1.0000000000000000E+20
  9
$PEXTMAX
 10
-1.0000000000000000E+20
 20
-1.0000000000000000E+20
 30
-1.0000000000000000E+20
  9
$PLIMMIN
 10
0.0
 20
0.0
  9
$PLIMMAX
 10
12.0
 20
9.0
  9
$UNITMODE
 70
     0
  9
$VISRETAIN
 70
     1
  9
$PLINEGEN
 70
     0
  9
$PSLTSCALE
 70
     1
  0
ENDSEC
  0
SECTION
  2
TABLES
  0
TABLE
  2
VPORT
 70
     1
  0
VPORT
  2
*ACTIVE
 70
     0
 10
0.0
 20
0.0
 11
1.0
 21
1.0
 12
62.9487679936388034
 22
-13.6358490184507097
 13
0.0
 23
0.0
 14
1.0
 24
1.0
 15
0.0
 25
0.0
 16
0.0
 26
0.0
 36
14.6338572656650907
 17
429.6292891080536833
 27
69.7025415122186871
 37
0.0
 40
6.8536837010693468
 41
1.67063492063492
 42
50.0
 43
0.0
 44
0.0
 50
0.0
 51
0.0
 71
     0
 72
   100
 73
     1
 74
     1
 75
     0
 76
     0
 77
     0
 78
     0
  0
ENDTAB
  0
TABLE
  2
LTYPE
 70
     2
  0
LTYPE
  2
CONTINUOUS
 70
     0
  3
Solid line
 72
    65
 73
     0
 40
0.0
  0
LTYPE
  2
PHANTOM2
 70
     0
  3
___ _ _ ___ _ _ ___ _ _ ___ _ _
 72
    65
 73
     6
 40
1.25
 49
0.625
 49
-0.125
 49
0.125
 49
-0.125
 49
0.125
 49
-0.125
  0
ENDTAB
  0
TABLE
  2
LAYER
 70
     2
  0
LAYER
  2
0
 70
     0
 62
   255
  6
CONTINUOUS
  0
LAYER
  2
DEFPOINTS
 70
     0
 62
     7
  6
CONTINUOUS
  0
ENDTAB
  0
TABLE
  2
STYLE
 70
     1
  0
STYLE
  2
STANDARD
 70
     0
 40
0.0
 41
0.8
 50
0.0
 71
     0
 42
0.2
  3
txt
  4

  0
ENDTAB
  0
TABLE
  2
VIEW
 70
     1
  0
ENDTAB
  0
TABLE
  2
UCS
 70
     0
  0
ENDTAB
  0
TABLE
  2
APPID
 70
    10
  0
APPID
  2
ACAD
 70
     0
  0
APPID
  2
ACAD_MLEADERVER
 70
     0
  0
APPID
  2
ACAD_EXEMPT_FROM_CAD_STANDARDS
 70
     0
  0
APPID
  2
ACAD_DSTYLE_DIMJAG
 70
     0
  0
APPID
  2
ACAD_DSTYLE_DIMTALN
 70
     0
  0
APPID
  2
ACAD_NAV_VCDISPLAY
 70
     0
  0
APPID
  2
ACAECLAYERSTANDARD
 70
     0
  0
APPID
  2
ACCMTRANSPARENCY
 70
     0
  0
APPID
  2
DCO15
 70
     0
  0
APPID
  2
ACDBATTR
 70
     0
  0
ENDTAB
  0
TABLE
  2
DIMSTYLE
 70
     1
  0
DIMSTYLE
  2
STANDARD
 70
     0
  3

  4

  5

  6

  7

 40
1.0
 41
0.1875
 42
0.0625
 43
0.38
 44
0.125
 45
0.0
 46
0.0
 47
0.01
 48
0.01
140
0.15625
141
0.09
142
0.0
143
25.3999999999999986
144
1.0
145
0.0
146
1.0
147
0.09
 71
     1
 72
     0
 73
     1
 74
     1
 75
     0
 76
     0
 77
     0
 78
     4
170
     0
171
     2
172
     0
173
     0
174
     0
175
     0
176
     0
177
     0
178
     0
  0
ENDTAB
  0
ENDSEC
  0
SECTION
  2
BLOCKS
  0
BLOCK
  8
0
  2
$MODEL_SPACE
 70
     0
 10
0.0
 20
0.0
 30
0.0
  3
$MODEL_SPACE
  1

  0
ENDBLK
  5
21
  8
0
  0
BLOCK
 67
     1
  8
0
  2
$PAPER_SPACE
 70
     0
 10
0.0
 20
0.0
 30
0.0
  3
$PAPER_SPACE
  1

  0
ENDBLK
  5
1D
 67
     1
  8
0
  0
ENDSEC
  0
SECTION
  2
ENTITIES
  0
ATTDEF
  5
C848
  8
DEFPOINTS
 10
492.488170148105894
 20
58.3184856140423733
 30
0.0
 40
0.001
  1
K-72806T-4
  3

  2
MODELNUMBER
 70
     0
1001
ACDBATTR
1070
     0
1070
     1
  0
ATTDEF
  5
C849
  8
DEFPOINTS
 10
492.488170148105894
 20
58.316818947375701
 30
0.0
 40
0.001
  1
MODULO
  3

  2
TRADENAME
 70
     0
1001
ACDBATTR
1070
     0
1070
     1
  0
ATTDEF
  5
C84A
  8
DEFPOINTS
 10
492.488170148105894
 20
58.315152280709043
 30
0.0
 40
0.001
  1
VALVE TRIM
  3

  2
PRODUCT
 70
     0
1001
ACDBATTR
1070
     0
1070
     1
  0
LINE
  5
F0F9
  8
0
 10
488.9478094474409886
 20
58.3133801382181929
 30
0.0
 11
496.0344268645417856
 21
58.3133801382181929
 31
0.0
  0
LINE
  5
F0FA
  8
0
 10
496.0344268645417856
 20
58.3133801382181929
 30
0.0
 11
496.0246592646245745
 21
58.0336675993181785
 31
0.0
  0
ARC
  5
F0FB
  8
0
 10
495.9066209778491157
 20
58.0377895871963219
 30
0.0
 40
0.118110236378147
 50
270.0000000851480877
 51
357.9999999650841005
  0
ARC
  5
F0FC
  8
0
 10
495.8603719233930178
 20
57.8212541542329106
 30
0.0
 40
0.098425196585275
 50
89.9999998651876467
 51
141.9321667499114881
  0
ARC
  5
F0FD
  8
0
 10
495.8603719236244842
 20
57.8212541540181775
 30
0.0
 40
0.0984251968999702
 50
141.9321667346139009
 51
174.7840908006469931
  0
ARC
  5
F0FE
  8
0
 10
495.6447331214591259
 20
57.8409391934675483
 30
0.0
 40
0.1181102362805954
 50
312.3920457220701792
 51
354.7840913603645845
  0
ARC
  5
F0FF
  8
0
 10
495.6447331211284109
 20
57.8409391940572704
 30
0.0
 40
0.1181102369390921
 50
270.0000002027347819
 51
312.3920456476647018
  0
LINE
  5
F100
  8
0
 10
495.6447331215246095
 20
57.7228289572181694
 30
0.0
 11
489.3375069086022791
 21
57.7228289571181818
 31
0.0
  0
LINE
  5
F101
  8
0
 10
488.9478094474409886
 20
58.3133801382181929
 30
0.0
 11
488.9575806456246028
 21
58.0336675993181785
 31
0.0
  0
ARC
  5
F102
  8
0
 10
489.0756189324404204
 20
58.0377895866022371
 30
0.0
 40
0.1181102363624626
 50
181.9999997474066902
 51
270.0000265319122832
  0
LINE
  5
F103
  8
0
 10
489.0756189871336801
 20
57.9196793503397913
 30
0.0
 11
495.9066209780245913
 21
57.9196793508181784
 31
0.0
  0
ARC
  5
F104
  8
0
 10
489.121867986619975
 20
57.8212541532670201
 30
0.0
 40
0.0984251970806122
 50
38.0678529073104315
 51
89.9999999584942145
  0
ARC
  5
F105
  8
0
 10
489.1218679881629896
 20
57.8212541542827907
 30
0.0
 40
0.0984251952394869
 50
5.2159084615015914
 51
38.0678529956369971
  0
ARC
  5
F106
  8
0
 10
489.3375067890568744
 20
57.8409391930743624
 30
0.0
 40
0.1181102365106005
 50
185.2159084379266005
 51
227.6079542667499993
  0
ARC
  5
F107
  8
0
 10
489.3375067892009724
 20
57.8409391935236528
 30
0.0
 40
0.1181102369395396
 50
227.6079543620784875
 51
270.0000579115265964
  0
ARC
  5
F108
  8
0
 10
491.8132722653327846
 20
55.2452541451889019
 30
0.0
 40
0.073298801140799
 50
131.9514879780770968
 51
161.1080040113660061
  0
ARC
  5
F109
  8
0
 10
491.8313273376994061
 20
55.2458481812659201
 30
0.0
 40
0.0904162779663813
 50
165.1720898647672868
 51
177.4273673751270053
  0
ARC
  5
F10A
  8
0
 10
491.8015938607509838
 20
55.2507164324984572
 30
0.0
 40
0.060597084334278
 50
180.7657450271258881
 51
208.4678324875548867
  0
ARC
  5
F10B
  8
0
 10
491.8033037947113826
 20
55.2491362176685783
 30
0.0
 40
0.0613866138675478
 50
206.4100706195497139
 51
270.2560783641911257
  0
ARC
  5
F10C
  8
0
 10
491.9428599480776256
 20
55.0632457794670103
 30
0.0
 40
0.1598115428403842
 50
128.8244622194004023
 51
179.8362020995994897
  0
ARC
  5
F10D
  8
0
 10
491.9586355729010165
 20
55.0693567166714217
 30
0.0
 40
0.1756775244060708
 50
181.8443457998832002
 51
220.572458379997812
  0
ARC
  5
F10E
  8
0
 10
491.9434623842249721
 20
55.0640540028328331
 30
0.0
 40
0.1608093908745662
 50
222.654015509106614
 51
267.341037077128874
  0
ARC
  5
F10F
  8
0
 10
491.9518322964941035
 20
54.8400754872863132
 30
0.0
 40
0.0356426627607406
 50
181.0437490665590019
 51
185.000705521446406
  0
LINE
  5
F110
  8
0
 10
493.1786207604059769
 20
55.1877502169181895
 30
0.0
 11
491.8035781557817927
 21
55.1877502169181895
 31
0.0
  0
LINE
  5
F111
  8
0
 10
491.9404720434914111
 20
54.8884177461181935
 30
0.0
 11
491.939690724244997
 21
54.9028715665827107
 31
0.0
  0
LINE
  5
F112
  8
0
 10
493.0462340365805858
 20
54.9034177461181869
 30
0.0
 11
491.9360022755022896
 21
54.9034177461181869
 31
0.0
  0
ARC
  5
F113
  8
0
 10
493.0154688321961203
 20
55.0659633110424735
 30
0.0
 40
0.1837101388176494
 50
322.8790989873676835
 51
358.449311803870728
  0
ARC
  5
F114
  8
0
 10
493.0189260948615129
 20
55.058483712934212
 30
0.0
 40
0.180203052827708
 50
0.7974985747827157
 51
45.8351388253473431
  0
ARC
  5
F115
  8
0
 10
493.0442295720238235
 20
55.0633078650058465
 30
0.0
 40
0.1599026828920382
 50
270.7182516594714912
 51
317.4101548334483027
  0
ARC
  5
F116
  8
0
 10
492.7445092907490221
 20
54.4491724155607315
 30
0.0
 40
0.2300729268525244
 50
19.5264029886789494
 51
71.0671256753162908
  0
ARC
  5
F117
  8
0
 10
492.6764279808347737
 20
54.4952940426986316
 30
0.0
 40
0.2894605019896237
 50
340.6647799089525961
 51
357.4142407323670909
  0
ARC
  5
F118
  8
0
 10
492.7982578281049086
 20
54.4881603696198198
 30
0.0
 40
0.167440801649068
 50
357.9720434874764123
 51
13.0863769240642895
  0
ARC
  5
F119
  8
0
 10
492.6823070445129815
 20
54.52682420651076
 30
0.0
 40
0.2960543436744026
 50
287.6776806656910139
 51
334.5183826224605923
  0
ARC
  5
F11A
  8
0
 10
492.5189140087405804
 20
54.8779945835803318
 30
0.0
 40
0.682024044456448
 50
278.5225033520812872
 51
291.801056501613914
  0
ARC
  5
F11B
  8
0
 10
492.5284422256262928
 20
54.7838027494401416
 30
0.0
 40
0.5874777524204035
 50
270.0703469058835253
 51
278.9648989128061203
  0
ARC
  5
F11C
  8
0
 10
492.2973289814211171
 20
54.4937050347869985
 30
0.0
 40
0.2809403033547672
 50
182.3382338082334968
 51
199.5489642275030917
  0
ARC
  5
F11D
  8
0
 10
492.225839608373974
 20
54.4658609893292223
 30
0.0
 40
0.2098574114273918
 50
107.360808510675696
 51
175.5227674934758966
  0
ARC
  5
F11E
  8
0
 10
492.3000672862212923
 20
54.5270066875840911
 30
0.0
 40
0.2962346661086384
 50
205.4518857536232019
 51
252.2269010022590976
  0
ARC
  5
F11F
  8
0
 10
492.468563611873094
 20
54.8941322101000111
 30
0.0
 40
0.698948624492911
 50
248.2569877191988894
 51
261.4722348008526751
  0
ARC
  5
F120
  8
0
 10
492.4552244120810087
 20
54.8185206466058972
 30
0.0
 40
0.6221981097627407
 50
261.6545089318209989
 51
269.8038051870652794
  0
ARC
  5
F121
  8
0
 10
491.8251198244955731
 20
54.7213099201834581
 30
0.0
 40
0.3425695387940633
 50
304.9687577985432085
 51
353.1295997154404063
  0
ARC
  5
F122
  8
0
 10
493.147558950907694
 20
54.7173499637868233
 30
0.0
 40
0.3322681698287706
 50
186.3771864286464961
 51
235.8451046603979933
  0
ARC
  5
F123
  8
0
 10
491.4204176977830798
 20
56.2718458564527708
 30
0.0
 40
0.0299999999654252
 50
89.9999999839337761
 51
144.6790790766920907
  0
ARC
  5
F124
  8
0
 10
491.7416579166521728
 20
56.0080424274238595
 30
0.0
 40
0.4456065508307619
 50
140.8809725690354071
 51
174.8088052365334022
  0
ARC
  5
F125
  8
0
 10
491.619880698677207
 20
56.0609610646413685
 30
0.0
 40
0.322248035795754
 50
182.2409193232886082
 51
206.1245791962539045
  0
ARC
  5
F126
  8
0
 10
491.7531975179837787
 20
56.1826673847456135
 30
0.0
 40
0.4981089863681691
 50
211.951514036977386
 51
240.3057919607078077
  0
ARC
  5
F127
  8
0
 10
489.4720815087056849
 20
52.0669765982990285
 30
0.0
 40
4.2075034773187161
 50
57.8285508112479008
 51
61.0851438674945797
  0
ARC
  5
F128
  8
0
 10
491.5732877937592207
 20
55.3692060568357505
 30
0.0
 40
0.2942070945587045
 50
27.7676599927329413
 51
61.7844674444475928
  0
ARC
  5
F129
  8
0
 10
491.6318138878532977
 20
55.4729716633402887
 30
0.0
 40
0.2180479138872237
 50
307.4069497014457966
 51
344.289305091257404
  0
ARC
  5
F12A
  8
0
 10
491.6852136608579826
 20
55.4467277460706569
 30
0.0
 40
0.1599021622873732
 50
348.1634778061518887
 51
21.862969133294019
  0
LINE
  5
F12B
  8
0
 10
491.4204176977913789
 20
56.3018458564181969
 30
0.0
 11
493.5618223323353959
 21
56.3018458564181969
 31
0.0
  0
ARC
  5
F12C
  8
0
 10
491.5383622505311791
 20
56.6519628153346702
 30
0.0
 40
0.0118110236397433
 50
180.00000007987191
 51
270.0035973404349079
  0
LINE
  5
F12D
  8
0
 10
491.5462362662913733
 20
56.3251911618182106
 30
0.0
 11
491.5466435396195948
 21
56.3018458564181827
 31
0.0
  0
LINE
  5
F12E
  8
0
 10
491.5462362662913733
 20
56.3251911618182106
 30
0.0
 11
491.5462362662913733
 21
56.6401517917181891
 31
0.0
  0
LINE
  5
F12F
  8
0
 10
491.5265512268915131
 20
56.6519628153346702
 30
0.0
 11
491.5265512268915131
 21
57.7228289571182103
 31
0.0
  0
ARC
  5
F130
  8
0
 10
493.1689677647942176
 20
55.2452541451889019
 30
0.0
 40
0.073298801140799
 50
18.8919959886339583
 51
48.0485120219228889
  0
ARC
  5
F131
  8
0
 10
493.1668252908912109
 20
55.2485922473654725
 30
0.0
 40
0.0743448901575743
 50
1.012984639188969
 51
15.9220382613784608
  0
ARC
  5
F132
  8
0
 10
493.1818973297894217
 20
55.2502226787046098
 30
0.0
 40
0.0592620751905908
 50
331.3752202225933274
 51
359.6943979442975206
  0
ARC
  5
F133
  8
0
 10
493.1789357344866858
 20
55.2491366746238128
 30
0.0
 40
0.0613872657667336
 50
269.7060177800707947
 51
333.5897553526990009
  0
ARC
  5
F134
  8
0
 10
493.5618223323438087
 20
56.2718458564527708
 30
0.0
 40
0.0299999999654252
 50
35.3209209233082291
 51
90.0000000160662239
  0
ARC
  5
F135
  8
0
 10
493.240619132241477
 20
56.0080643515307131
 30
0.0
 40
0.4455639976965077
 50
5.1888610417040111
 51
39.1198435822265225
  0
ARC
  5
F136
  8
0
 10
493.3577921511234194
 20
56.0621058846728388
 30
0.0
 40
0.3268541982000839
 50
334.047766694726306
 51
357.5898323375429868
  0
ARC
  5
F137
  8
0
 10
493.2290425121431099
 20
56.1826673847456135
 30
0.0
 40
0.4981089863681691
 50
299.6942080392922207
 51
328.0484859630225856
  0
ARC
  5
F138
  8
0
 10
495.51015852142109
 20
52.0669765982990285
 30
0.0
 40
4.2075034773187161
 50
118.9148561325054061
 51
122.1714491887521064
  0
ARC
  5
F139
  8
0
 10
493.4089522363677247
 20
55.3692060568357505
 30
0.0
 40
0.2942070945587045
 50
118.2155325555524001
 51
152.232340007267112
  0
ARC
  5
F13A
  8
0
 10
493.3504261422735908
 20
55.4729716633402887
 30
0.0
 40
0.2180479138872237
 50
195.7106949087425107
 51
232.5930502985536918
  0
ARC
  5
F13B
  8
0
 10
493.2970263692689059
 20
55.4467277460706569
 30
0.0
 40
0.1599021622873732
 50
158.1370308667059135
 51
191.8365221938481113
  0
ARC
  5
F13C
  8
0
 10
493.4438777795957094
 20
56.6519628153346702
 30
0.0
 40
0.0118110236397433
 50
269.9964026595650921
 51
359.9999999201281184
  0
LINE
  5
F13D
  8
0
 10
493.4360037638354015
 20
56.3251911618182106
 30
0.0
 11
493.4355927723632931
 21
56.3018458564181827
 31
0.0
  0
LINE
  5
F13E
  8
0
 10
493.4360037638354015
 20
56.3251911618182106
 30
0.0
 11
493.4360037638354015
 21
56.6401517917181891
 31
0.0
  0
LINE
  5
F13F
  8
0
 10
493.4556888032353754
 20
56.6519628153346702
 30
0.0
 11
493.4556888032353754
 21
57.7228289571182103
 31
0.0
  0
LINE
  5
F140
  8
0
 10
492.4530938571915044
 20
54.1963261846182007
 30
0.0
 11
492.5291635218914053
 21
54.1963254398182102
 31
0.0
  0
LINE
  5
F141
  8
0
 10
491.5383629920913791
 20
56.6401517917181891
 30
0.0
 11
493.4438777795957094
 21
56.6401517916949331
 31
0.0
  0
ARC
  5
F143
  8
0
 10
492.1139701637242183
 20
54.901181850257899
 30
0.0
 40
0.177520132234421
 50
184.1232558387214056
 51
227.1453048862169055
  0
ARC
  5
F144
  8
0
 10
492.3542005815872926
 20
55.24703967450818
 30
0.0
 40
0.5973855428267451
 50
232.8252288165284085
 51
252.2712813198471054
  0
ARC
  5
F145
  8
0
 10
492.4950370928593202
 20
55.6190045233389228
 30
0.0
 40
0.9947907685950971
 50
251.0685448716346002
 51
269.7742850752372874
  0
LINE
  5
F146
  8
0
 10
491.9369095102915139
 20
54.8884177461181935
 30
0.0
 11
491.940472043555701
 21
54.8884177449292494
 31
0.0
  0
LINE
  5
F147
  8
0
 10
491.9369095102915139
 20
54.8884177461181935
 30
0.0
 11
491.9404141239588739
 21
54.8894892141180435
 31
0.0
  0
LINE
  5
F148
  8
0
 10
491.9396907242485781
 20
54.9028715665181934
 30
0.0
 11
493.0461131757915041
 21
54.9028715665181934
 31
0.0
  0
LINE
  5
F149
  8
0
 10
491.9694929395918166
 20
54.9034177461181869
 30
0.0
 11
491.939690724244997
 21
54.9028715665827107
 31
0.0
  0
ARC
  5
F14A
  8
0
 10
492.8666113516882206
 20
54.9023501600605783
 30
0.0
 40
0.1795025813771792
 50
312.9882719340224071
 51
0.1664289795378904
  0
ARC
  5
F14B
  8
0
 10
492.6280357303955952
 20
55.24703967450818
 30
0.0
 40
0.5973855428267451
 50
287.728718680152781
 51
307.1747711834715915
  0
ARC
  5
F14C
  8
0
 10
492.4871992191236814
 20
55.6190045233389228
 30
0.0
 40
0.9947907685950971
 50
270.2257149247627126
 51
288.9314551283653145
  0
LINE
  5
F14D
  8
0
 10
493.0127433723911281
 20
54.9034177461181869
 30
0.0
 11
493.0461131757915041
 21
54.9028715665181934
 31
0.0
  0
ENDSEC
  0
EOF
