  0
SECTION
  2
HEADER
  9
$ACADVER
  1
AC1009
  9
$INSBASE
 10
3903.5974431033791916
 20
51.8586623553224371
 30
0.0
  9
$EXTMIN
 10
3889.8160383890340199
 20
47.5163552687224282
 30
0.0
  9
$EXTMAX
 10
3907.1407501899789168
 20
63.2136894510618177
 30
0.0
  9
$LIMMIN
 10
0.0
 20
0.0
  9
$LIMMAX
 10
11.6929133858000007
 20
8.2677165353999982
  9
$ORTHOMODE
 70
     0
  9
$REGENMODE
 70
     1
  9
$FILLMODE
 70
     1
  9
$QTEXTMODE
 70
     0
  9
$MIRRTEXT
 70
     0
  9
$DRAGMODE
 70
     2
  9
$LTSCALE
 40
0.6431102362
  9
$OSMODE
 70
  4095
  9
$ATTMODE
 70
     1
  9
$TEXTSIZE
 40
0.2
  9
$TRACEWID
 40
0.05
  9
$TEXTSTYLE
  7
STANDARD
  9
$CLAYER
  8
0
  9
$CELTYPE
  6
BYLAYER
  9
$CECOLOR
 62
   256
  9
$DIMSCALE
 40
1.0
  9
$DIMASZ
 40
0.1875
  9
$DIMEXO
 40
0.0625
  9
$DIMDLI
 40
0.4443307087
  9
$DIMRND
 40
0.0
  9
$DIMDLE
 40
0.0
  9
$DIMEXE
 40
0.125
  9
$DIMTP
 40
0.01
  9
$DIMTM
 40
0.01
  9
$DIMTXT
 40
2.0
  9
$DIMCEN
 40
0.1052362205
  9
$DIMTSZ
 40
0.0
  9
$DIMTOL
 70
     1
  9
$DIMLIM
 70
     0
  9
$DIMTIH
 70
     1
  9
$DIMTOH
 70
     1
  9
$DIMSE1
 70
     0
  9
$DIMSE2
 70
     0
  9
$DIMTAD
 70
     0
  9
$DIMZIN
 70
     0
  9
$DIMBLK
  1

  9
$DIMASO
 70
     1
  9
$DIMSHO
 70
     1
  9
$DIMPOST
  1
\X
  9
$DIMAPOST
  1

  9
$DIMALT
 70
     1
  9
$DIMALTD
 70
     2
  9
$DIMALTF
 40
25.3999999999999986
  9
$DIMLFAC
 40
1.0
  9
$DIMTOFL
 70
     0
  9
$DIMTVP
 40
0.0
  9
$DIMTIX
 70
     0
  9
$DIMSOXD
 70
     0
  9
$DIMSAH
 70
     0
  9
$DIMBLK1
  1

  9
$DIMBLK2
  1

  9
$DIMSTYLE
  2
STANDARD
  9
$DIMCLRD
 70
     0
  9
$DIMCLRE
 70
     0
  9
$DIMCLRT
 70
     0
  9
$DIMTFAC
 40
1.0
  9
$DIMGAP
 40
0.09
  9
$LUNITS
 70
     2
  9
$LUPREC
 70
     4
  9
$SKETCHINC
 40
0.1
  9
$FILLETRAD
 40
0.0
  9
$AUNITS
 70
     0
  9
$AUPREC
 70
     0
  9
$MENU
  1
.
  9
$ELEVATION
 40
0.0
  9
$PELEVATION
 40
0.0
  9
$THICKNESS
 40
0.0
  9
$LIMCHECK
 70
     0
  9
$BLIPMODE
 70
     0
  9
$CHAMFERA
 40
0.0
  9
$CHAMFERB
 40
0.0
  9
$SKPOLY
 70
     0
  9
$TDCREATE
 40
2458060.468368056230247
  9
$TDUPDATE
 40
2459058.4725115741603076
  9
$TDINDWG
 40
0.411222338
  9
$TDUSRTIMER
 40
0.411222338
  9
$USRTIMER
 70
     1
  9
$ANGBASE
 50
0.0
  9
$ANGDIR
 70
     0
  9
$PDMODE
 70
     0
  9
$PDSIZE
 40
0.3125
  9
$PLINEWID
 40
0.0
  9
$COORDS
 70
     1
  9
$SPLFRAME
 70
     0
  9
$SPLINETYPE
 70
     6
  9
$SPLINESEGS
 70
     8
  9
$ATTDIA
 70
     1
  9
$ATTREQ
 70
     1
  9
$HANDLING
 70
     1
  9
$HANDSEED
  5
7392
  9
$SURFTAB1
 70
     6
  9
$SURFTAB2
 70
     6
  9
$SURFTYPE
 70
     6
  9
$SURFU
 70
     6
  9
$SURFV
 70
     6
  9
$UCSNAME
  2

  9
$UCSORG
 10
0.0
 20
0.0
 30
0.0
  9
$UCSXDIR
 10
1.0
 20
0.0
 30
0.0
  9
$UCSYDIR
 10
0.0
 20
1.0
 30
0.0
  9
$PUCSNAME
  2

  9
$PUCSORG
 10
0.0
 20
0.0
 30
0.0
  9
$PUCSXDIR
 10
1.0
 20
0.0
 30
0.0
  9
$PUCSYDIR
 10
0.0
 20
1.0
 30
0.0
  9
$USERI1
 70
     0
  9
$USERI2
 70
     0
  9
$USERI3
 70
     0
  9
$USERI4
 70
     0
  9
$USERI5
 70
     0
  9
$USERR1
 40
0.0
  9
$USERR2
 40
0.0
  9
$USERR3
 40
0.0
  9
$USERR4
 40
0.0
  9
$USERR5
 40
0.0
  9
$WORLDVIEW
 70
     1
  9
$SHADEDGE
 70
     3
  9
$SHADEDIF
 70
    70
  9
$TILEMODE
 70
     1
  9
$MAXACTVP
 70
    64
  9
$PLIMCHECK
 70
     0
  9
$PEXTMIN
 10
1.0000000000000000E+20
 20
1.0000000000000000E+20
 30
1.0000000000000000E+20
  9
$PEXTMAX
 10
-1.0000000000000000E+20
 20
-1.0000000000000000E+20
 30
-1.0000000000000000E+20
  9
$PLIMMIN
 10
0.0
 20
0.0
  9
$PLIMMAX
 10
12.0
 20
9.0
  9
$UNITMODE
 70
     0
  9
$VISRETAIN
 70
     1
  9
$PLINEGEN
 70
     0
  9
$PSLTSCALE
 70
     1
  0
ENDSEC
  0
SECTION
  2
TABLES
  0
TABLE
  2
VPORT
 70
     1
  0
VPORT
  2
*ACTIVE
 70
     0
 10
0.0
 20
0.0
 11
1.0
 21
1.0
 12
132.6816316071005133
 22
-79.3343135828213946
 13
0.0
 23
0.0
 14
1.0
 24
1.0
 15
0.0
 25
0.0
 16
0.0
 26
0.0
 36
5.1040778033513332
 17
3792.35791015625
 27
120.1806564331053977
 37
0.0
 40
55.7575961369372308
 41
2.005224660397074
 42
50.0
 43
0.0
 44
0.0
 50
0.0
 51
0.0
 71
     0
 72
   100
 73
     1
 74
     1
 75
     0
 76
     0
 77
     0
 78
     0
  0
ENDTAB
  0
TABLE
  2
LTYPE
 70
     2
  0
LTYPE
  2
CONTINUOUS
 70
     0
  3
Solid line
 72
    65
 73
     0
 40
0.0
  0
LTYPE
  2
PHANTOM2
 70
     0
  3
___ _ _ ___ _ _ ___ _ _ ___ _ _
 72
    65
 73
     6
 40
1.25
 49
0.625
 49
-0.125
 49
0.125
 49
-0.125
 49
0.125
 49
-0.125
  0
ENDTAB
  0
TABLE
  2
LAYER
 70
     2
  0
LAYER
  2
0
 70
     0
 62
   255
  6
CONTINUOUS
  0
LAYER
  2
DEFPOINTS
 70
     0
 62
     7
  6
CONTINUOUS
  0
ENDTAB
  0
TABLE
  2
STYLE
 70
     1
  0
STYLE
  2
STANDARD
 70
     0
 40
0.0
 41
0.8
 50
0.0
 71
     0
 42
0.2
  3
txt
  4

  0
ENDTAB
  0
TABLE
  2
VIEW
 70
     0
  0
ENDTAB
  0
TABLE
  2
UCS
 70
     0
  0
ENDTAB
  0
TABLE
  2
APPID
 70
     9
  0
APPID
  2
ACAD
 70
     0
  0
APPID
  2
ACAD_MLEADERVER
 70
     0
  0
APPID
  2
ACAD_EXEMPT_FROM_CAD_STANDARDS
 70
     0
  0
APPID
  2
ACAD_NAV_VCDISPLAY
 70
     0
  0
APPID
  2
ACAECLAYERSTANDARD
 70
     0
  0
APPID
  2
ACCMTRANSPARENCY
 70
     0
  0
APPID
  2
ACAD_DSTYLE_DIMJAG
 70
     0
  0
APPID
  2
ACAD_DSTYLE_DIMTALN
 70
     0
  0
APPID
  2
ACDBATTR
 70
     0
  0
ENDTAB
  0
TABLE
  2
DIMSTYLE
 70
     1
  0
DIMSTYLE
  2
STANDARD
 70
     0
  3

  4

  5

  6

  7

 40
1.0
 41
0.1875
 42
0.0625
 43
0.38
 44
0.125
 45
0.0
 46
0.0
 47
0.01
 48
0.01
140
0.15625
141
0.09
142
0.0
143
25.3999999999999986
144
1.0
145
0.0
146
1.0
147
0.09
 71
     1
 72
     0
 73
     1
 74
     1
 75
     0
 76
     0
 77
     0
 78
     4
170
     0
171
     2
172
     0
173
     0
174
     0
175
     0
176
     0
177
     0
178
     0
  0
ENDTAB
  0
ENDSEC
  0
SECTION
  2
BLOCKS
  0
BLOCK
  8
0
  2
$MODEL_SPACE
 70
     0
 10
0.0
 20
0.0
 30
0.0
  3
$MODEL_SPACE
  1

  0
ENDBLK
  5
21
  8
0
  0
BLOCK
 67
     1
  8
0
  2
$PAPER_SPACE
 70
     0
 10
0.0
 20
0.0
 30
0.0
  3
$PAPER_SPACE
  1

  0
ENDBLK
  5
1D
 67
     1
  8
0
  0
BLOCK
  8
0
  2
_FILLED
 70
     0
 10
0.0
 20
0.0
 30
0.0
  3
_FILLED
  1

  0
SOLID
  5
69B4
  8
0
  6
BYBLOCK
 62
     0
 10
0.0
 20
0.0
 30
0.0
 11
-1.0
 21
0.1666666667
 31
0.0
 12
-1.0
 22
-0.1666666667
 32
0.0
 13
-1.0
 23
-0.1666666667
 33
0.0
  0
ENDBLK
  5
69B5
  8
0
  6
BYBLOCK
 62
     0
  0
BLOCK
  8
0
  2
A$CDFAF6206
 70
     0
 10
0.0
 20
0.0
 30
0.0
  3
A$CDFAF6206
  1

  0
LINE
  5
6A0E
  8
0
 10
7.4646650085734834
 20
10.9287685970688493
 30
0.0
 11
7.4646650085734896
 21
10.8905784766688498
 31
0.0
  0
ARC
  5
6A0F
  8
0
 10
7.7269027075262349
 20
10.8926811525838598
 30
0.0
 40
0.2622461286616791
 50
180.4593995232625048
 51
217.0214027758331099
  0
LINE
  5
6A10
  8
0
 10
9.767814609867095
 20
10.9287685970688493
 30
0.0
 11
9.767814609867095
 21
10.8905433757650094
 31
0.0
  0
ARC
  5
6A11
  8
0
 10
9.5068669568548287
 20
10.8922438613003703
 30
0.0
 40
0.2609531936261092
 50
322.8847083717149076
 51
359.6266329125650145
  0
LINE
  5
6A12
  8
0
 10
7.517522606271406
 20
10.7347792678688396
 30
0.0
 11
9.7149570120691777
 21
10.7347792678688396
 31
0.0
  0
LINE
  5
6A13
  8
0
 10
7.4646650085734834
 20
10.9287685970688493
 30
0.0
 11
9.7678146123202936
 21
10.9287685970688493
 31
0.0
  0
ARC
  5
6A14
  8
0
 10
4.0826771419203629
 20
8.527951346868889
 30
0.0
 40
4.0826771653999172
 50
13.3117747050523896
 51
32.7200330051415591
  0
ARC
  5
6A15
  8
0
 10
4.0826771460567306
 20
8.5279513475907933
 30
0.0
 40
4.0826771612084691
 50
359.6656501984817851
 51
13.3117747085593798
  0
ARC
  5
6A16
  8
0
 10
13.1498041284835097
 20
8.5279508235212234
 30
0.0
 40
4.0826788382043553
 50
147.2799733478981068
 51
166.6882233021349862
  0
ARC
  5
6A17
  8
0
 10
13.1498064934207992
 20
8.5279506557033251
 30
0.0
 40
4.0826811782395342
 50
166.688228652086309
 51
180.3343397625230011
  0
LINE
  5
6A18
  8
0
 10
8.1652847935202928
 20
8.504127000268852
 30
0.0
 11
9.0671948248202892
 21
8.5041270002687881
 31
0.0
  0
LINE
  5
6A19
  8
0
 10
8.1652847935202786
 20
8.5041270002667204
 30
0.0
 11
8.1652847935202928
 21
8.3607006934688481
 31
0.0
  0
ARC
  5
6A1A
  8
0
 10
5.6196779630382627
 20
8.3631022096452732
 30
0.0
 40
2.545607963272567
 50
342.0511668832173768
 51
359.945947387132378
  0
LINE
  5
6A1B
  8
0
 10
9.0671948248202892
 20
8.5041270002687881
 30
0.0
 11
9.0671948248202892
 21
8.2885990108688503
 31
0.0
  0
ARC
  5
6A1C
  8
0
 10
9.4521885297801163
 20
7.9614488056228501
 30
0.0
 40
0.5052201595850959
 50
139.6436242991769916
 51
174.6757930071850069
  0
ARC
  5
6A1D
  8
0
 10
9.9238413395551746
 20
8.1492417579399508
 30
0.0
 40
0.9848265662939324
 50
188.2263441834095943
 51
209.5593615864376034
  0
ARC
  5
6A1E
  8
0
 10
8.0788764238271256
 20
7.5665710856463297
 30
0.0
 40
0.0393715937169877
 50
162.1669117288323037
 51
227.2023190037006088
  0
ARC
  5
6A1F
  8
0
 10
8.7223682141740682
 20
8.2079667397440517
 30
0.0
 40
0.947895137885075
 50
225.0018610752970858
 51
261.4598823366255829
  0
ARC
  5
6A20
  8
0
 10
8.6645157662702701
 20
8.1695128573935332
 30
0.0
 40
0.9027466462812931
 50
264.7303071214498118
 51
281.8608311947915013
  0
ARC
  5
6A21
  8
0
 10
8.6645157662698935
 20
8.1695128573999671
 30
0.0
 40
0.9027466462876658
 50
299.1741886792128753
 51
299.1743179154552195
  0
ARC
  5
6A22
  8
0
 10
9.0843330931590316
 20
7.4150554710086141
 30
0.0
 40
0.0393703053609601
 50
251.9700352025496954
 51
252.4698971938937859
  0
ARC
  5
6A23
  8
0
 10
9.0843330931590316
 20
7.4150554710086141
 30
0.0
 40
0.0393703053609601
 50
297.2453716727138726
 51
6.8376113572703074
  0
LINE
  5
6A24
  8
0
 10
9.0671948248202892
 20
7.663402160468852
 30
0.0
 11
9.1234233799329516
 21
7.419742732911689
 31
0.0
  0
ARC
  5
6A25
  8
0
 10
8.8843741880892395
 20
9.8961379890094676
 30
0.0
 40
2.5255097382132701
 50
263.792800240752797
 51
274.9514951129821156
  0
ARC
  5
6A26
  8
0
 10
8.8258167405968848
 20
9.2763025889666508
 30
0.0
 40
1.9029970832759311
 50
246.0108363320686067
 51
263.5276935074397215
  0
ARC
  5
6A27
  8
0
 10
8.607491361665744
 20
8.3225444804829642
 30
0.0
 40
1.064510137163637
 50
283.1717405874071005
 51
297.7022170607311864
  0
LINE
  5
6A28
  8
0
 10
9.0671948248202892
 20
8.2885990108688503
 30
0.0
 11
26.2014378595979593
 21
8.2885990108689942
 31
0.0
  0
LINE
  5
6A29
  8
0
 10
26.2014378595979913
 20
7.6634021604689053
 30
0.0
 11
9.0671948248202892
 21
7.6634021604688618
 31
0.0
  0
LINE
  5
6A2A
  8
0
 10
27.8039676758446994
 20
10.9287685970690802
 30
0.0
 11
27.8039676758446888
 21
10.8905784766690807
 31
0.0
  0
ARC
  5
6A2B
  8
0
 10
27.5417299768919399
 20
10.8926811525840801
 30
0.0
 40
0.2622461286616791
 50
322.9785972241680838
 51
359.5406004767386889
  0
LINE
  5
6A2C
  8
0
 10
25.5008180745510913
 20
10.9287685970690305
 30
0.0
 11
25.5008180745510913
 21
10.8905433757651799
 31
0.0
  0
ARC
  5
6A2D
  8
0
 10
25.7617657275633505
 20
10.8922438613005497
 30
0.0
 40
0.2609531936261092
 50
180.3733670874362929
 51
217.1152916282862861
  0
LINE
  5
6A2E
  8
0
 10
27.7511100781467803
 20
10.7347792678690706
 30
0.0
 11
25.5536756723490015
 21
10.7347792678690208
 31
0.0
  0
LINE
  5
6A2F
  8
0
 10
27.8039676758446888
 20
10.9287685970686006
 30
0.0
 11
25.5008180745510806
 21
10.9287685970686006
 31
0.0
  0
ARC
  5
6A30
  8
0
 10
31.1859555424978616
 20
8.5279513468691981
 30
0.0
 40
4.0826771653999172
 50
147.2799669948597057
 51
166.6882252949490066
  0
ARC
  5
6A31
  8
0
 10
31.185955538361501
 20
8.5279513475911024
 30
0.0
 40
4.0826771612084691
 50
166.6882252914419098
 51
180.3343498015194086
  0
ARC
  5
6A32
  8
0
 10
22.1188285559344706
 20
8.5279508235212251
 30
0.0
 40
4.0826788382046102
 50
13.3117766978667795
 51
32.7200266521023977
  0
ARC
  5
6A33
  8
0
 10
22.1188261909974315
 20
8.5279506557034264
 30
0.0
 40
4.0826811782395342
 50
359.665660237478221
 51
13.31177134791497
  0
LINE
  5
6A34
  8
0
 10
27.1033478908979397
 20
8.5041270002690652
 30
0.0
 11
26.2014378595979416
 21
8.5041270002689835
 31
0.0
  0
LINE
  5
6A35
  8
0
 10
27.1033478908979504
 20
8.5041270002669354
 30
0.0
 11
27.1033478908979397
 21
8.3607006934690649
 31
0.0
  0
ARC
  5
6A36
  8
0
 10
29.6489547213799689
 20
8.3631022096455467
 30
0.0
 40
2.545607963272567
 50
180.0540526128687873
 51
197.9488331167837032
  0
LINE
  5
6A37
  8
0
 10
26.2014378595979416
 20
8.5041270002689835
 30
0.0
 11
26.2014378595979487
 21
8.2885990108690457
 31
0.0
  0
ARC
  5
6A38
  8
0
 10
25.8164441546381305
 20
7.9614488056230366
 30
0.0
 40
0.5052201595850959
 50
5.324206992816312
 51
40.3563757008241879
  0
ARC
  5
6A39
  8
0
 10
25.3447913448601803
 20
8.149241757940846
 30
0.0
 40
0.9848265662968968
 50
330.4406384136033807
 51
351.7736558165743759
  0
ARC
  5
6A3A
  8
0
 10
27.1897562605911212
 20
7.5665710856465473
 30
0.0
 40
0.0393715937169877
 50
312.7976809963004143
 51
17.8330882711689185
  0
ARC
  5
6A3B
  8
0
 10
26.5462644702441715
 20
8.2079667397442542
 30
0.0
 40
0.947895137885075
 50
278.5401176633754972
 51
314.9981389247041079
  0
ARC
  5
6A3C
  8
0
 10
26.6041169181479695
 20
8.1695128573937392
 30
0.0
 40
0.9027466462812931
 50
258.139168805210204
 51
275.2696928785518935
  0
ARC
  5
6A3D
  8
0
 10
26.6041169181483497
 20
8.1695128574001732
 30
0.0
 40
0.9027466462876658
 50
240.8256820845460027
 51
240.8258113207880058
  0
ARC
  5
6A3E
  8
0
 10
26.1842995912592293
 20
7.4150554710088086
 30
0.0
 40
0.0393703053609601
 50
287.5301028061073794
 51
288.0299647974517825
  0
ARC
  5
6A3F
  8
0
 10
26.1842995912592293
 20
7.4150554710088086
 30
0.0
 40
0.0393703053609601
 50
173.1623886427310026
 51
242.7546283272870085
  0
LINE
  5
6A40
  8
0
 10
26.2014378595981192
 20
7.6634021604690448
 30
0.0
 11
26.1452093044853093
 21
7.4197427329118826
 31
0.0
  0
ARC
  5
6A41
  8
0
 10
26.384258496328961
 20
9.8961379890096666
 30
0.0
 40
2.5255097382132701
 50
265.0485048870193054
 51
276.2071997592482262
  0
ARC
  5
6A42
  8
0
 10
26.4428159438213299
 20
9.2763025889668516
 30
0.0
 40
1.9029970832759311
 50
276.4723064925619838
 51
293.9891636679327007
  0
ARC
  5
6A43
  8
0
 10
26.6611413227524885
 20
8.3225444804831703
 30
0.0
 40
1.064510137163637
 50
242.2977829392704052
 51
256.8282594125943774
  0
LINE
  5
6A44
  8
0
 62
     4
 10
17.9031473532159602
 20
10.9287685970686006
 30
0.0
 11
24.6329820359843588
 21
20.0952817181593808
 31
0.0
  0
LINE
  5
6A45
  8
0
 62
     4
 10
17.9031473532159602
 20
-0.0000000300842942
 30
0.0
 11
22.3963351323106608
 21
4.993614497796286
 31
0.0
  0
ENDBLK
  5
6A49
  8
0
  0
ENDSEC
  0
SECTION
  2
ENTITIES
  0
ATTDEF
  5
3930
  8
DEFPOINTS
 10
3903.597734636360201
 20
51.8604017149907222
 30
0.0
 40
0.001
  1
K-72809T-4
  3

  2
MODELNUMBER
 70
     0
1001
ACDBATTR
1070
     0
1070
     1
  0
ATTDEF
  5
3931
  8
DEFPOINTS
 10
3903.597734636360201
 20
51.858735048324057
 30
0.0
 40
0.001
  1
MODULO
  3

  2
TRADENAME
 70
     0
1001
ACDBATTR
1070
     0
1070
     1
  0
ATTDEF
  5
3932
  8
DEFPOINTS
 10
3903.597734636360201
 20
51.857068381657399
 30
0.0
 40
0.001
  1
VALVE TRIM
  3

  2
PRODUCT
 70
     0
1001
ACDBATTR
1070
     0
1070
     1
  0
ARC
  5
72BE
  8
0
 10
3903.5974431033791916
 20
51.8586623553224371
 30
0.0
 40
3.5433070866
 50
275.8793875304743892
 51
264.1206124711493999
  0
CIRCLE
  5
72BF
  8
0
 10
3903.5974431033791916
 20
53.3744103868224329
 30
0.0
 40
0.5314960629999997
  0
CIRCLE
  5
72C0
  8
0
 10
3903.5974431033791916
 20
53.3744103868224329
 30
0.0
 40
0.4921259843000004
  0
ARC
  5
72C1
  8
0
 10
3903.5974577730048622
 20
50.8153552687793209
 30
0.0
 40
0.4750146696257021
 50
299.226752674154227
 51
180.006274604045899
  0
CIRCLE
  5
72C2
  8
0
 10
3903.5974431033791916
 20
50.8153552687224419
 30
0.0
 40
0.3448074624000004
  0
ARC
  5
72C3
  8
0
 10
3903.5974648969668124
 20
50.8156682986109516
 30
0.0
 40
0.7483275615889268
 50
293.3193284090195903
 51
246.6730740950332006
  0
ARC
  5
72C4
  8
0
 10
3903.5974431033791916
 20
50.8153552687224419
 30
0.0
 40
0.9645669291
 50
287.5373234246314951
 51
252.4626765770912016
  0
ARC
  5
72C5
  8
0
 10
3903.5974577725792187
 20
50.815355269522442
 30
0.0
 40
0.9941091573999996
 50
288.0509693969402178
 51
251.9474045967581048
  0
ARC
  5
72C6
  8
0
 10
3903.3246806524412023
 20
50.3320068561569798
 30
0.0
 40
0.0800000582848666
 50
353.0400067061623872
 51
60.5614135018543109
  0
ARC
  5
72C7
  8
0
 10
3903.8702054903851604
 20
50.3320068669988885
 30
0.0
 40
0.0799999961165923
 50
120.6751874447203932
 51
186.9600066054084095
  0
ARC
  5
72C8
  8
0
 10
3903.1176532252488869
 20
50.3477419692680002
 30
0.0
 40
0.2875645203398401
 50
318.6325527282663757
 51
354.9267291922204777
  0
ARC
  5
72C9
  8
0
 10
3903.2497075933338238
 20
50.0685121014762373
 30
0.0
 40
0.0267527207713076
 50
107.1402397754154947
 51
149.744310329570709
  0
ARC
  5
72CA
  8
0
 10
3903.2529525428458328
 20
50.0687405884491596
 30
0.0
 40
0.0294975031717871
 50
153.3057750151405969
 51
191.8694047044537001
  0
ARC
  5
72CB
  8
0
 10
3903.1373327172282188
 20
50.342413819134471
 30
0.0
 40
0.2694246288463417
 50
292.8194476506744195
 51
316.7167294721680264
  0
ARC
  5
72CC
  8
0
 10
3903.4466072631757925
 20
50.0924098355026999
 30
0.0
 40
0.2244996304257612
 50
187.611543182190502
 51
219.8180101440871965
  0
ARC
  5
72CD
  8
0
 10
3903.3750650917659186
 20
50.0311039680669083
 30
0.0
 40
0.1302983192460224
 50
219.2569802213868968
 51
253.2176232833056986
  0
ARC
  5
72CE
  8
0
 10
3903.3380176110968023
 20
49.8555910109285279
 30
0.0
 40
0.0507675085904612
 50
90.6483983757692471
 51
163.2834781570876999
  0
ARC
  5
72CF
  8
0
 10
3903.3370125235987871
 20
49.8561523820356101
 30
0.0
 40
0.0496440477560233
 50
163.570335699185506
 51
247.0095073360849085
  0
ARC
  5
72D0
  8
0
 10
3903.305730348949055
 20
49.7829093620299901
 30
0.0
 40
0.0300000000210186
 50
356.000000011700422
 51
66.6460943596843549
  0
LINE
  5
72D1
  8
0
 10
3903.335657270478805
 20
49.7808166678224424
 30
0.0
 11
3903.2290318444879631
 21
48.2560020360224371
 31
0.0
  0
ARC
  5
72D2
  8
0
 10
3903.199104923242885
 20
48.2580947301244905
 30
0.0
 40
0.0299999997292275
 50
290.7460916165576919
 51
356.0000001749460807
  0
ARC
  5
72D3
  8
0
 10
3903.2274431033738438
 20
48.1832819805248107
 30
0.0
 40
0.0499999999942268
 50
110.7460921204371971
 51
210.0000000070220096
  0
ARC
  5
72D4
  8
0
 10
3903.158161071079121
 20
48.1432819805224312
 30
0.0
 40
0.0299999999999989
 50
302.2042275039913193
 51
29.9999999998978915
  0
ARC
  5
72D5
  8
0
 10
3903.2274431033688415
 20
48.0332819805266169
 30
0.0
 40
0.0999999999899116
 50
122.2042274993036983
 51
170.2795145425814951
  0
ARC
  5
72D6
  8
0
 10
3903.227443103378846
 20
48.0332819805224318
 30
0.0
 40
0.0999999999999949
 50
170.2795145411294016
 51
210.4537046521523962
  0
ARC
  5
72D7
  8
0
 10
3903.2302250925631597
 20
48.0354221576858791
 30
0.0
 40
0.1034838285675394
 50
210.6944888729360912
 51
238.8959936274675897
  0
ARC
  5
72D8
  8
0
 10
3903.158161071079121
 20
47.9232819805224324
 30
0.0
 40
0.0300000000000001
 50
330.0000000001037961
 51
51.6717443226910618
  0
ARC
  5
72D9
  8
0
 10
3903.2274431034070403
 20
47.8832819805324306
 30
0.0
 40
0.0500000000286058
 50
150.0000000321626885
 51
215.6514430130276878
  0
ARC
  5
72DA
  8
0
 10
3903.227443103378846
 20
47.8832819805224332
 30
0.0
 40
0.0499999999999991
 50
215.6514430224260934
 51
253.7994138982994912
  0
ARC
  5
72DB
  8
0
 10
3903.2051230288789156
 20
47.8064587137855526
 30
0.0
 40
0.0300000002364991
 50
21.1377621430520009
 51
73.7994137111676736
  0
ARC
  5
72DC
  8
0
 10
3903.4717257901079392
 20
47.9076062053705769
 30
0.0
 40
0.2551459755973676
 50
200.7339622076034118
 51
219.660487361664309
  0
ARC
  5
72DD
  8
0
 10
3903.433054915988123
 20
47.8754451280331565
 30
0.0
 40
0.2048492174305104
 50
219.6387563636824041
 51
243.2091545081065078
  0
ARC
  5
72DE
  8
0
 10
3903.3274431035129055
 20
47.6656838434607124
 30
0.0
 40
0.0299999998659155
 50
359.9999999269007844
 51
63.7277321372754599
  0
LINE
  5
72DF
  8
0
 10
3903.3574431033789551
 20
47.6656838434224284
 30
0.0
 11
3903.3574431033789551
 21
47.6438019462224318
 31
0.0
  0
ARC
  5
72E0
  8
0
 10
3903.3874431032400025
 20
47.6438019461716422
 30
0.0
 40
0.0299999998610128
 50
179.9999999029894866
 51
260.2988054972033751
  0
ARC
  5
72E1
  8
0
 10
3903.365216658549798
 20
47.506311534367903
 30
0.0
 40
0.109276932792935
 50
56.723039082784048
 51
80.959404295180093
  0
ARC
  5
72E2
  8
0
 10
3903.3843969404988457
 20
47.531621138882457
 30
0.0
 40
0.0776231592524488
 50
32.5842651238443466
 51
58.3088947867664871
  0
ARC
  5
72E3
  8
0
 10
3903.3446143025771562
 20
47.5003931887244519
 30
0.0
 40
0.1280548351438302
 50
16.7750690802660891
 51
34.7719151070728785
  0
ARC
  5
72E4
  8
0
 10
3903.4958368593579507
 20
47.5463552686581181
 30
0.0
 40
0.0299999999356898
 50
197.4646230499157014
 51
270.000000040228997
  0
ARC
  5
72E5
  8
0
 10
3904.0744746654590926
 20
50.3465585931656818
 30
0.0
 40
0.2847138993705393
 50
184.8851467785463001
 51
221.5555713044523998
  0
ARC
  5
72E6
  8
0
 10
3903.9419615057067858
 20
50.0687442107866474
 30
0.0
 40
0.0294710030721211
 50
348.1125702815170939
 51
26.71224927738578
  0
ARC
  5
72E7
  8
0
 10
3904.057553489545171
 20
50.342413819148419
 30
0.0
 40
0.2694246288463417
 50
223.2832705295739117
 51
247.1805523510516878
  0
ARC
  5
72E8
  8
0
 10
3903.7484012524851096
 20
50.09235610779956
 30
0.0
 40
0.2243712856014832
 50
320.1725278639232215
 51
352.3979189125320204
  0
ARC
  5
72E9
  8
0
 10
3903.8198211150161114
 20
50.0311039680736513
 30
0.0
 40
0.1302983192460224
 50
286.7823767184353869
 51
320.7430197803465148
  0
ARC
  5
72EA
  8
0
 10
3903.8568685956911395
 20
49.8555910109364007
 30
0.0
 40
0.0507675085904612
 50
16.7165218446474491
 51
89.3516016259505079
  0
ARC
  5
72EB
  8
0
 10
3903.8578736831877904
 20
49.8561523820434971
 30
0.0
 40
0.0496440477558475
 50
292.990492681691876
 51
16.4296643026296501
  0
ARC
  5
72EC
  8
0
 10
3903.8891558577279284
 20
49.7829093621663432
 30
0.0
 40
0.0299999998599943
 50
113.3539055172328034
 51
184.0000002706007081
  0
LINE
  5
72ED
  8
0
 10
3903.8592289363700729
 20
49.7808166678224424
 30
0.0
 11
3903.9658543623791047
 21
48.2560020360224371
 31
0.0
  0
ARC
  5
72EE
  8
0
 10
3903.9957812837960773
 20
48.2580947301548733
 30
0.0
 40
0.0299999999042245
 50
183.9999998598514992
 51
249.2539076015586943
  0
ARC
  5
72EF
  8
0
 10
3903.9674431036651185
 20
48.1832819805908414
 30
0.0
 40
0.0499999997861914
 50
329.9999997680228034
 51
69.2539083333164598
  0
ARC
  5
72F0
  8
0
 10
3904.0367251359598413
 20
48.143281980590082
 30
0.0
 40
0.0300000002067316
 50
150.0000003771218928
 51
237.7957721666849977
  0
ARC
  5
72F1
  8
0
 10
3903.9674431037710747
 20
48.0332819806566889
 30
0.0
 40
0.09999999967608
 50
9.7204854208770914
 51
57.795772629832129
  0
ARC
  5
72F2
  8
0
 10
3903.9674431034632107
 20
48.0332819805336513
 30
0.0
 40
0.1000000000000068
 50
329.5462953495883767
 51
9.7204854606030704
  0
ARC
  5
72F3
  8
0
 10
3903.9646611084740471
 20
48.0354221621909829
 30
0.0
 40
0.1034838358533707
 50
301.1040059231689838
 51
329.3055106298858732
  0
ARC
  5
72F4
  8
0
 10
3904.0367251357670284
 20
47.9232819805357408
 30
0.0
 40
0.0300000000000001
 50
128.3282623472321973
 51
210.0000000016414106
  0
ARC
  5
72F5
  8
0
 10
3903.9674431034759436
 20
47.8832819805310379
 30
0.0
 40
0.0499999999919068
 50
324.3485569763259946
 51
30.0000000106010916
  0
ARC
  5
72F6
  8
0
 10
3903.9674431034682129
 20
47.8832819805336527
 30
0.0
 40
0.0499999999999991
 50
286.20058610343699
 51
324.3485569792978822
  0
ARC
  5
72F7
  8
0
 10
3903.9897631775929767
 20
47.8064587141872295
 30
0.0
 40
0.0299999996938037
 50
106.2005859017880027
 51
158.8622382561088955
  0
ARC
  5
72F8
  8
0
 10
3903.7231604152329965
 20
47.9076062064256405
 30
0.0
 40
0.2551459774271722
 50
320.3395126740890078
 51
339.2660376972575023
  0
ARC
  5
72F9
  8
0
 10
3903.7618312908598455
 20
47.8754451280375903
 30
0.0
 40
0.204849217429859
 50
296.7908454936145972
 51
320.361243636889526
  0
ARC
  5
72FA
  8
0
 10
3903.8674431035619818
 20
47.6656838432248691
 30
0.0
 40
0.0300000001826773
 50
116.2722680371518038
 51
179.9999996226906944
  0
LINE
  5
72FB
  8
0
 10
3903.8374431033789733
 20
47.6656838434224284
 30
0.0
 11
3903.837443103474925
 21
47.6438019462297078
 31
0.0
  0
ARC
  5
72FC
  8
0
 10
3903.8074431036138776
 20
47.6438019461780087
 30
0.0
 40
0.0299999998610147
 50
279.7011945045409789
 51
0.0000000987439586
  0
ARC
  5
72FD
  8
0
 10
3903.8296695483090843
 20
47.5063115343749374
 30
0.0
 40
0.109276932792935
 50
99.0405957065610494
 51
123.276960918958693
  0
ARC
  5
72FE
  8
0
 10
3903.8104892663591272
 20
47.53162113888893
 30
0.0
 40
0.0776231592524488
 50
121.6911052149767016
 51
147.4157348778940104
  0
ARC
  5
72FF
  8
0
 10
3903.85027190422079
 20
47.5003931887680793
 30
0.0
 40
0.1280548350727136
 50
145.2280848921554934
 51
163.224930930522703
  0
ARC
  5
7300
  8
0
 10
3903.6990493474982031
 20
47.5463552686658275
 30
0.0
 40
0.0299999999403191
 50
269.999999964408687
 51
342.535376937428623
  0
ARC
  5
7301
  8
0
 10
3903.9445201536650529
 20
50.0676825904630007
 30
0.0
 40
0.0277421139221258
 50
31.0503239210600306
 51
72.0651134375409299
  0
ARC
  5
7302
  8
0
 10
3903.5974431033791916
 20
50.8153552687224419
 30
0.0
 40
0.474999999999997
 50
180.0062667536751917
 51
214.4725240269065978
  0
ARC
  5
7303
  8
0
 10
3903.5974428106710548
 20
50.8153550143178379
 30
0.0
 40
0.474999614695835
 50
214.4725187129627102
 51
240.5634685037742031
  0
LINE
  5
7304
  8
0
 10
3903.3374431033789733
 20
49.9063552687224288
 30
0.0
 11
3903.8574431041029129
 21
49.9063552687224288
 31
0.0
  0
LINE
  5
7305
  8
0
 10
3903.3176226318619229
 20
49.8104515770535627
 30
0.0
 11
3903.877263574916924
 21
49.8104515770576128
 31
0.0
  0
LINE
  5
7306
  8
0
 10
3903.2290318444879631
 20
48.2560020360224371
 30
0.0
 11
3903.9658543623791047
 21
48.2560020360224371
 31
0.0
  0
LINE
  5
7307
  8
0
 10
3903.4958429594789777
 20
47.5163552687224282
 30
0.0
 11
3903.6990493474982031
 21
47.5163552687224282
 31
0.0
  0
LINE
  5
7308
  8
0
 10
3903.3574431033789551
 20
47.6438019462224318
 30
0.0
 11
3903.837443103474925
 21
47.6438019461750386
 31
0.0
  0
LINE
  5
7309
  8
0
 10
3903.2331045111382082
 20
47.817277062308122
 30
0.0
 11
3903.9617816957720606
 21
47.8172770623383983
 31
0.0
  0
LINE
  5
730A
  8
0
 10
3903.176766050254173
 20
47.9468160993694568
 30
0.0
 11
3904.0181201538521236
 21
47.9468160972169528
 31
0.0
  0
LINE
  5
730B
  8
0
 10
3903.1841418331791829
 20
48.1582819805224318
 30
0.0
 11
3904.0107443735792003
 21
48.1582819805224318
 31
0.0
  0
ARC
  5
730C
  8
0
 10
3903.5974416568619745
 20
51.858663097918928
 30
0.0
 40
3.153612423688378
 50
276.1117498155335284
 51
263.8883026553376112
  0
ARC
  5
730D
  8
0
 10
3903.5974426214352206
 20
51.8586627745560094
 30
0.0
 40
3.2712339119616041
 50
276.0357700573404145
 51
263.9642467965828132
  0
LINE
  5
730F
  8
0
 10
3903.2418232583158897
 20
50.0940766341378989
 30
0.0
 11
3903.9530629484988822
 21
50.0940766341339696
 31
0.0
  0
ENDSEC
  0
EOF
