  0
SECTION
  2
HEADER
  9
$ACADVER
  1
AC1009
  9
$INSBASE
 10
3929.089471265100201
 20
74.1185313945271247
 30
0.0
  9
$EXTMIN
 10
3916.5602915534777821
 20
68.6343390992812346
 30
0.0
  9
$EXTMAX
 10
3933.9898131903778449
 20
79.493820307381597
 30
0.0
  9
$LIMMIN
 10
0.0
 20
0.0
  9
$LIMMAX
 10
11.6929133858000007
 20
8.2677165353999982
  9
$ORTHOMODE
 70
     0
  9
$REGENMODE
 70
     1
  9
$FILLMODE
 70
     1
  9
$QTEXTMODE
 70
     0
  9
$MIRRTEXT
 70
     0
  9
$DRAGMODE
 70
     2
  9
$LTSCALE
 40
0.6431102362
  9
$OSMODE
 70
  4095
  9
$ATTMODE
 70
     1
  9
$TEXTSIZE
 40
0.2
  9
$TRACEWID
 40
0.05
  9
$TEXTSTYLE
  7
STANDARD
  9
$CLAYER
  8
0
  9
$CELTYPE
  6
BYLAYER
  9
$CECOLOR
 62
   256
  9
$DIMSCALE
 40
1.0
  9
$DIMASZ
 40
0.1875
  9
$DIMEXO
 40
0.0625
  9
$DIMDLI
 40
0.4443307087
  9
$DIMRND
 40
0.0
  9
$DIMDLE
 40
0.0
  9
$DIMEXE
 40
0.125
  9
$DIMTP
 40
0.01
  9
$DIMTM
 40
0.01
  9
$DIMTXT
 40
2.0
  9
$DIMCEN
 40
0.1052362205
  9
$DIMTSZ
 40
0.0
  9
$DIMTOL
 70
     1
  9
$DIMLIM
 70
     0
  9
$DIMTIH
 70
     1
  9
$DIMTOH
 70
     1
  9
$DIMSE1
 70
     0
  9
$DIMSE2
 70
     0
  9
$DIMTAD
 70
     0
  9
$DIMZIN
 70
     0
  9
$DIMBLK
  1

  9
$DIMASO
 70
     1
  9
$DIMSHO
 70
     1
  9
$DIMPOST
  1
\X
  9
$DIMAPOST
  1

  9
$DIMALT
 70
     1
  9
$DIMALTD
 70
     2
  9
$DIMALTF
 40
25.3999999999999986
  9
$DIMLFAC
 40
1.0
  9
$DIMTOFL
 70
     0
  9
$DIMTVP
 40
0.0
  9
$DIMTIX
 70
     0
  9
$DIMSOXD
 70
     0
  9
$DIMSAH
 70
     0
  9
$DIMBLK1
  1

  9
$DIMBLK2
  1

  9
$DIMSTYLE
  2
STANDARD
  9
$DIMCLRD
 70
     0
  9
$DIMCLRE
 70
     0
  9
$DIMCLRT
 70
     0
  9
$DIMTFAC
 40
1.0
  9
$DIMGAP
 40
0.09
  9
$LUNITS
 70
     2
  9
$LUPREC
 70
     4
  9
$SKETCHINC
 40
0.1
  9
$FILLETRAD
 40
0.0
  9
$AUNITS
 70
     0
  9
$AUPREC
 70
     0
  9
$MENU
  1
.
  9
$ELEVATION
 40
0.0
  9
$PELEVATION
 40
0.0
  9
$THICKNESS
 40
0.0
  9
$LIMCHECK
 70
     0
  9
$BLIPMODE
 70
     0
  9
$CHAMFERA
 40
0.0
  9
$CHAMFERB
 40
0.0
  9
$SKPOLY
 70
     0
  9
$TDCREATE
 40
2458060.468368056230247
  9
$TDUPDATE
 40
2459058.4738310188986361
  9
$TDINDWG
 40
0.4155278935
  9
$TDUSRTIMER
 40
0.4155278935
  9
$USRTIMER
 70
     1
  9
$ANGBASE
 50
0.0
  9
$ANGDIR
 70
     0
  9
$PDMODE
 70
     0
  9
$PDSIZE
 40
0.3125
  9
$PLINEWID
 40
0.0
  9
$COORDS
 70
     1
  9
$SPLFRAME
 70
     0
  9
$SPLINETYPE
 70
     6
  9
$SPLINESEGS
 70
     8
  9
$ATTDIA
 70
     1
  9
$ATTREQ
 70
     1
  9
$HANDLING
 70
     1
  9
$HANDSEED
  5
7ADF
  9
$SURFTAB1
 70
     6
  9
$SURFTAB2
 70
     6
  9
$SURFTYPE
 70
     6
  9
$SURFU
 70
     6
  9
$SURFV
 70
     6
  9
$UCSNAME
  2

  9
$UCSORG
 10
0.0
 20
0.0
 30
0.0
  9
$UCSXDIR
 10
1.0
 20
0.0
 30
0.0
  9
$UCSYDIR
 10
0.0
 20
1.0
 30
0.0
  9
$PUCSNAME
  2

  9
$PUCSORG
 10
0.0
 20
0.0
 30
0.0
  9
$PUCSXDIR
 10
1.0
 20
0.0
 30
0.0
  9
$PUCSYDIR
 10
0.0
 20
1.0
 30
0.0
  9
$USERI1
 70
     0
  9
$USERI2
 70
     0
  9
$USERI3
 70
     0
  9
$USERI4
 70
     0
  9
$USERI5
 70
     0
  9
$USERR1
 40
0.0
  9
$USERR2
 40
0.0
  9
$USERR3
 40
0.0
  9
$USERR4
 40
0.0
  9
$USERR5
 40
0.0
  9
$WORLDVIEW
 70
     1
  9
$SHADEDGE
 70
     3
  9
$SHADEDIF
 70
    70
  9
$TILEMODE
 70
     1
  9
$MAXACTVP
 70
    64
  9
$PLIMCHECK
 70
     0
  9
$PEXTMIN
 10
1.0000000000000000E+20
 20
1.0000000000000000E+20
 30
1.0000000000000000E+20
  9
$PEXTMAX
 10
-1.0000000000000000E+20
 20
-1.0000000000000000E+20
 30
-1.0000000000000000E+20
  9
$PLIMMIN
 10
0.0
 20
0.0
  9
$PLIMMAX
 10
12.0
 20
9.0
  9
$UNITMODE
 70
     0
  9
$VISRETAIN
 70
     1
  9
$PLINEGEN
 70
     0
  9
$PSLTSCALE
 70
     1
  0
ENDSEC
  0
SECTION
  2
TABLES
  0
TABLE
  2
VPORT
 70
     1
  0
VPORT
  2
*ACTIVE
 70
     0
 10
0.0
 20
0.0
 11
1.0
 21
1.0
 12
150.5087771796667084
 22
-60.0045644656120984
 13
0.0
 23
0.0
 14
1.0
 24
1.0
 15
0.0
 25
0.0
 16
0.0
 26
0.0
 36
5.1040778033513332
 17
3792.35791015625
 27
120.1806564331053977
 37
0.0
 40
59.893201022161449
 41
2.005224660397074
 42
50.0
 43
0.0
 44
0.0
 50
0.0
 51
0.0
 71
     0
 72
   100
 73
     1
 74
     1
 75
     0
 76
     0
 77
     0
 78
     0
  0
ENDTAB
  0
TABLE
  2
LTYPE
 70
     2
  0
LTYPE
  2
CONTINUOUS
 70
     0
  3
Solid line
 72
    65
 73
     0
 40
0.0
  0
LTYPE
  2
PHANTOM2
 70
     0
  3
___ _ _ ___ _ _ ___ _ _ ___ _ _
 72
    65
 73
     6
 40
1.25
 49
0.625
 49
-0.125
 49
0.125
 49
-0.125
 49
0.125
 49
-0.125
  0
ENDTAB
  0
TABLE
  2
LAYER
 70
     2
  0
LAYER
  2
0
 70
     0
 62
   255
  6
CONTINUOUS
  0
LAYER
  2
DEFPOINTS
 70
     0
 62
     7
  6
CONTINUOUS
  0
ENDTAB
  0
TABLE
  2
STYLE
 70
     1
  0
STYLE
  2
STANDARD
 70
     0
 40
0.0
 41
0.8
 50
0.0
 71
     0
 42
0.2
  3
txt
  4

  0
ENDTAB
  0
TABLE
  2
VIEW
 70
     0
  0
ENDTAB
  0
TABLE
  2
UCS
 70
     0
  0
ENDTAB
  0
TABLE
  2
APPID
 70
     9
  0
APPID
  2
ACAD
 70
     0
  0
APPID
  2
ACAD_MLEADERVER
 70
     0
  0
APPID
  2
ACAD_EXEMPT_FROM_CAD_STANDARDS
 70
     0
  0
APPID
  2
ACAD_NAV_VCDISPLAY
 70
     0
  0
APPID
  2
ACAECLAYERSTANDARD
 70
     0
  0
APPID
  2
ACCMTRANSPARENCY
 70
     0
  0
APPID
  2
ACAD_DSTYLE_DIMJAG
 70
     0
  0
APPID
  2
ACAD_DSTYLE_DIMTALN
 70
     0
  0
APPID
  2
ACDBATTR
 70
     0
  0
ENDTAB
  0
TABLE
  2
DIMSTYLE
 70
     1
  0
DIMSTYLE
  2
STANDARD
 70
     0
  3

  4

  5

  6

  7

 40
1.0
 41
0.1875
 42
0.0625
 43
0.38
 44
0.125
 45
0.0
 46
0.0
 47
0.01
 48
0.01
140
0.15625
141
0.09
142
0.0
143
25.3999999999999986
144
1.0
145
0.0
146
1.0
147
0.09
 71
     1
 72
     0
 73
     1
 74
     1
 75
     0
 76
     0
 77
     0
 78
     4
170
     0
171
     2
172
     0
173
     0
174
     0
175
     0
176
     0
177
     0
178
     0
  0
ENDTAB
  0
ENDSEC
  0
SECTION
  2
BLOCKS
  0
BLOCK
  8
0
  2
$MODEL_SPACE
 70
     0
 10
0.0
 20
0.0
 30
0.0
  3
$MODEL_SPACE
  1

  0
ENDBLK
  5
21
  8
0
  0
BLOCK
 67
     1
  8
0
  2
$PAPER_SPACE
 70
     0
 10
0.0
 20
0.0
 30
0.0
  3
$PAPER_SPACE
  1

  0
ENDBLK
  5
1D
 67
     1
  8
0
  0
BLOCK
  8
0
  2
_FILLED
 70
     0
 10
0.0
 20
0.0
 30
0.0
  3
_FILLED
  1

  0
SOLID
  5
69B4
  8
0
  6
BYBLOCK
 62
     0
 10
0.0
 20
0.0
 30
0.0
 11
-1.0
 21
0.1666666667
 31
0.0
 12
-1.0
 22
-0.1666666667
 32
0.0
 13
-1.0
 23
-0.1666666667
 33
0.0
  0
ENDBLK
  5
69B5
  8
0
  6
BYBLOCK
 62
     0
  0
BLOCK
  8
0
  2
A$CDFAF6206
 70
     0
 10
0.0
 20
0.0
 30
0.0
  3
A$CDFAF6206
  1

  0
LINE
  5
6A0E
  8
0
 10
7.4646650085734834
 20
10.9287685970688493
 30
0.0
 11
7.4646650085734896
 21
10.8905784766688498
 31
0.0
  0
ARC
  5
6A0F
  8
0
 10
7.7269027075262349
 20
10.8926811525838598
 30
0.0
 40
0.2622461286616791
 50
180.4593995232625048
 51
217.0214027758331099
  0
LINE
  5
6A10
  8
0
 10
9.767814609867095
 20
10.9287685970688493
 30
0.0
 11
9.767814609867095
 21
10.8905433757650094
 31
0.0
  0
ARC
  5
6A11
  8
0
 10
9.5068669568548287
 20
10.8922438613003703
 30
0.0
 40
0.2609531936261092
 50
322.8847083717149076
 51
359.6266329125650145
  0
LINE
  5
6A12
  8
0
 10
7.517522606271406
 20
10.7347792678688396
 30
0.0
 11
9.7149570120691777
 21
10.7347792678688396
 31
0.0
  0
LINE
  5
6A13
  8
0
 10
7.4646650085734834
 20
10.9287685970688493
 30
0.0
 11
9.7678146123202936
 21
10.9287685970688493
 31
0.0
  0
ARC
  5
6A14
  8
0
 10
4.0826771419203629
 20
8.527951346868889
 30
0.0
 40
4.0826771653999172
 50
13.3117747050523896
 51
32.7200330051415591
  0
ARC
  5
6A15
  8
0
 10
4.0826771460567306
 20
8.5279513475907933
 30
0.0
 40
4.0826771612084691
 50
359.6656501984817851
 51
13.3117747085593798
  0
ARC
  5
6A16
  8
0
 10
13.1498041284835097
 20
8.5279508235212234
 30
0.0
 40
4.0826788382043553
 50
147.2799733478981068
 51
166.6882233021349862
  0
ARC
  5
6A17
  8
0
 10
13.1498064934207992
 20
8.5279506557033251
 30
0.0
 40
4.0826811782395342
 50
166.688228652086309
 51
180.3343397625230011
  0
LINE
  5
6A18
  8
0
 10
8.1652847935202928
 20
8.504127000268852
 30
0.0
 11
9.0671948248202892
 21
8.5041270002687881
 31
0.0
  0
LINE
  5
6A19
  8
0
 10
8.1652847935202786
 20
8.5041270002667204
 30
0.0
 11
8.1652847935202928
 21
8.3607006934688481
 31
0.0
  0
ARC
  5
6A1A
  8
0
 10
5.6196779630382627
 20
8.3631022096452732
 30
0.0
 40
2.545607963272567
 50
342.0511668832173768
 51
359.945947387132378
  0
LINE
  5
6A1B
  8
0
 10
9.0671948248202892
 20
8.5041270002687881
 30
0.0
 11
9.0671948248202892
 21
8.2885990108688503
 31
0.0
  0
ARC
  5
6A1C
  8
0
 10
9.4521885297801163
 20
7.9614488056228501
 30
0.0
 40
0.5052201595850959
 50
139.6436242991769916
 51
174.6757930071850069
  0
ARC
  5
6A1D
  8
0
 10
9.9238413395551746
 20
8.1492417579399508
 30
0.0
 40
0.9848265662939324
 50
188.2263441834095943
 51
209.5593615864376034
  0
ARC
  5
6A1E
  8
0
 10
8.0788764238271256
 20
7.5665710856463297
 30
0.0
 40
0.0393715937169877
 50
162.1669117288323037
 51
227.2023190037006088
  0
ARC
  5
6A1F
  8
0
 10
8.7223682141740682
 20
8.2079667397440517
 30
0.0
 40
0.947895137885075
 50
225.0018610752970858
 51
261.4598823366255829
  0
ARC
  5
6A20
  8
0
 10
8.6645157662702701
 20
8.1695128573935332
 30
0.0
 40
0.9027466462812931
 50
264.7303071214498118
 51
281.8608311947915013
  0
ARC
  5
6A21
  8
0
 10
8.6645157662698935
 20
8.1695128573999671
 30
0.0
 40
0.9027466462876658
 50
299.1741886792128753
 51
299.1743179154552195
  0
ARC
  5
6A22
  8
0
 10
9.0843330931590316
 20
7.4150554710086141
 30
0.0
 40
0.0393703053609601
 50
251.9700352025496954
 51
252.4698971938937859
  0
ARC
  5
6A23
  8
0
 10
9.0843330931590316
 20
7.4150554710086141
 30
0.0
 40
0.0393703053609601
 50
297.2453716727138726
 51
6.8376113572703074
  0
LINE
  5
6A24
  8
0
 10
9.0671948248202892
 20
7.663402160468852
 30
0.0
 11
9.1234233799329516
 21
7.419742732911689
 31
0.0
  0
ARC
  5
6A25
  8
0
 10
8.8843741880892395
 20
9.8961379890094676
 30
0.0
 40
2.5255097382132701
 50
263.792800240752797
 51
274.9514951129821156
  0
ARC
  5
6A26
  8
0
 10
8.8258167405968848
 20
9.2763025889666508
 30
0.0
 40
1.9029970832759311
 50
246.0108363320686067
 51
263.5276935074397215
  0
ARC
  5
6A27
  8
0
 10
8.607491361665744
 20
8.3225444804829642
 30
0.0
 40
1.064510137163637
 50
283.1717405874071005
 51
297.7022170607311864
  0
LINE
  5
6A28
  8
0
 10
9.0671948248202892
 20
8.2885990108688503
 30
0.0
 11
26.2014378595979593
 21
8.2885990108689942
 31
0.0
  0
LINE
  5
6A29
  8
0
 10
26.2014378595979913
 20
7.6634021604689053
 30
0.0
 11
9.0671948248202892
 21
7.6634021604688618
 31
0.0
  0
LINE
  5
6A2A
  8
0
 10
27.8039676758446994
 20
10.9287685970690802
 30
0.0
 11
27.8039676758446888
 21
10.8905784766690807
 31
0.0
  0
ARC
  5
6A2B
  8
0
 10
27.5417299768919399
 20
10.8926811525840801
 30
0.0
 40
0.2622461286616791
 50
322.9785972241680838
 51
359.5406004767386889
  0
LINE
  5
6A2C
  8
0
 10
25.5008180745510913
 20
10.9287685970690305
 30
0.0
 11
25.5008180745510913
 21
10.8905433757651799
 31
0.0
  0
ARC
  5
6A2D
  8
0
 10
25.7617657275633505
 20
10.8922438613005497
 30
0.0
 40
0.2609531936261092
 50
180.3733670874362929
 51
217.1152916282862861
  0
LINE
  5
6A2E
  8
0
 10
27.7511100781467803
 20
10.7347792678690706
 30
0.0
 11
25.5536756723490015
 21
10.7347792678690208
 31
0.0
  0
LINE
  5
6A2F
  8
0
 10
27.8039676758446888
 20
10.9287685970686006
 30
0.0
 11
25.5008180745510806
 21
10.9287685970686006
 31
0.0
  0
ARC
  5
6A30
  8
0
 10
31.1859555424978616
 20
8.5279513468691981
 30
0.0
 40
4.0826771653999172
 50
147.2799669948597057
 51
166.6882252949490066
  0
ARC
  5
6A31
  8
0
 10
31.185955538361501
 20
8.5279513475911024
 30
0.0
 40
4.0826771612084691
 50
166.6882252914419098
 51
180.3343498015194086
  0
ARC
  5
6A32
  8
0
 10
22.1188285559344706
 20
8.5279508235212251
 30
0.0
 40
4.0826788382046102
 50
13.3117766978667795
 51
32.7200266521023977
  0
ARC
  5
6A33
  8
0
 10
22.1188261909974315
 20
8.5279506557034264
 30
0.0
 40
4.0826811782395342
 50
359.665660237478221
 51
13.31177134791497
  0
LINE
  5
6A34
  8
0
 10
27.1033478908979397
 20
8.5041270002690652
 30
0.0
 11
26.2014378595979416
 21
8.5041270002689835
 31
0.0
  0
LINE
  5
6A35
  8
0
 10
27.1033478908979504
 20
8.5041270002669354
 30
0.0
 11
27.1033478908979397
 21
8.3607006934690649
 31
0.0
  0
ARC
  5
6A36
  8
0
 10
29.6489547213799689
 20
8.3631022096455467
 30
0.0
 40
2.545607963272567
 50
180.0540526128687873
 51
197.9488331167837032
  0
LINE
  5
6A37
  8
0
 10
26.2014378595979416
 20
8.5041270002689835
 30
0.0
 11
26.2014378595979487
 21
8.2885990108690457
 31
0.0
  0
ARC
  5
6A38
  8
0
 10
25.8164441546381305
 20
7.9614488056230366
 30
0.0
 40
0.5052201595850959
 50
5.324206992816312
 51
40.3563757008241879
  0
ARC
  5
6A39
  8
0
 10
25.3447913448601803
 20
8.149241757940846
 30
0.0
 40
0.9848265662968968
 50
330.4406384136033807
 51
351.7736558165743759
  0
ARC
  5
6A3A
  8
0
 10
27.1897562605911212
 20
7.5665710856465473
 30
0.0
 40
0.0393715937169877
 50
312.7976809963004143
 51
17.8330882711689185
  0
ARC
  5
6A3B
  8
0
 10
26.5462644702441715
 20
8.2079667397442542
 30
0.0
 40
0.947895137885075
 50
278.5401176633754972
 51
314.9981389247041079
  0
ARC
  5
6A3C
  8
0
 10
26.6041169181479695
 20
8.1695128573937392
 30
0.0
 40
0.9027466462812931
 50
258.139168805210204
 51
275.2696928785518935
  0
ARC
  5
6A3D
  8
0
 10
26.6041169181483497
 20
8.1695128574001732
 30
0.0
 40
0.9027466462876658
 50
240.8256820845460027
 51
240.8258113207880058
  0
ARC
  5
6A3E
  8
0
 10
26.1842995912592293
 20
7.4150554710088086
 30
0.0
 40
0.0393703053609601
 50
287.5301028061073794
 51
288.0299647974517825
  0
ARC
  5
6A3F
  8
0
 10
26.1842995912592293
 20
7.4150554710088086
 30
0.0
 40
0.0393703053609601
 50
173.1623886427310026
 51
242.7546283272870085
  0
LINE
  5
6A40
  8
0
 10
26.2014378595981192
 20
7.6634021604690448
 30
0.0
 11
26.1452093044853093
 21
7.4197427329118826
 31
0.0
  0
ARC
  5
6A41
  8
0
 10
26.384258496328961
 20
9.8961379890096666
 30
0.0
 40
2.5255097382132701
 50
265.0485048870193054
 51
276.2071997592482262
  0
ARC
  5
6A42
  8
0
 10
26.4428159438213299
 20
9.2763025889668516
 30
0.0
 40
1.9029970832759311
 50
276.4723064925619838
 51
293.9891636679327007
  0
ARC
  5
6A43
  8
0
 10
26.6611413227524885
 20
8.3225444804831703
 30
0.0
 40
1.064510137163637
 50
242.2977829392704052
 51
256.8282594125943774
  0
LINE
  5
6A44
  8
0
 62
     4
 10
17.9031473532159602
 20
10.9287685970686006
 30
0.0
 11
24.6329820359843588
 21
20.0952817181593808
 31
0.0
  0
LINE
  5
6A45
  8
0
 62
     4
 10
17.9031473532159602
 20
-0.0000000300842942
 30
0.0
 11
22.3963351323106608
 21
4.993614497796286
 31
0.0
  0
ENDBLK
  5
6A49
  8
0
  0
ENDSEC
  0
SECTION
  2
ENTITIES
  0
ATTDEF
  5
7411
  8
DEFPOINTS
 10
3929.0896408619209978
 20
74.1168949391571914
 30
0.0
 40
0.001
  1
VALVE TRIM
  3

  2
PRODUCT
 70
     0
1001
ACDBATTR
1070
     0
1070
     1
  0
ATTDEF
  5
7412
  8
DEFPOINTS
 10
3929.0896408619209978
 20
74.1185616058238566
 30
0.0
 40
0.001
  1
MODULO
  3

  2
TRADENAME
 70
     0
1001
ACDBATTR
1070
     0
1070
     1
  0
ATTDEF
  5
7413
  8
DEFPOINTS
 10
3929.0896408619209978
 20
74.1202282724905217
 30
0.0
 40
0.001
  1
K-72809T-4
  3

  2
MODELNUMBER
 70
     0
1001
ACDBATTR
1070
     0
1070
     1
  0
ARC
  5
7940
  8
0
 10
3924.8383594371161962
 20
72.6074483600735903
 30
0.0
 40
0.287181735822158
 50
318.6085352625963196
 51
354.9163576049473932
  0
ARC
  5
7941
  8
0
 10
3924.9735885356849394
 20
72.3285771538751021
 30
0.0
 40
0.0297958490959186
 50
153.5047918766277917
 51
191.6847831470890071
  0
ARC
  5
7942
  8
0
 10
3924.8576541598681615
 20
72.6023036575210199
 30
0.0
 40
0.2694519319357634
 50
292.8218418321254148
 51
316.716121901581289
  0
ARC
  5
7943
  8
0
 10
3925.1671084515000985
 20
72.352379081428893
 30
0.0
 40
0.2246880973029949
 50
187.6308625413568905
 51
219.8112117479568042
  0
ARC
  5
7944
  8
0
 10
3925.095404451327795
 20
72.290973007271603
 30
0.0
 40
0.1302983192460224
 50
219.2569802213868968
 51
253.2176232833056986
  0
ARC
  5
7945
  8
0
 10
3925.0583569706582239
 20
72.1154600501332368
 30
0.0
 40
0.0507675085904612
 50
90.6483983757692471
 51
163.2834781570876999
  0
ARC
  5
7946
  8
0
 10
3925.0573518831611182
 20
72.1160214212403048
 30
0.0
 40
0.0496440477560233
 50
163.570335699185506
 51
247.0095073360849085
  0
ARC
  5
7947
  8
0
 10
3925.0260697085118409
 20
72.0427784012346706
 30
0.0
 40
0.0300000000210186
 50
356.000000011700422
 51
66.6460943596843549
  0
LINE
  5
7948
  8
0
 10
3925.0559966300411361
 20
72.0406857070271229
 30
0.0
 11
3924.9493712040498394
 21
70.5158710752271247
 31
0.0
  0
ARC
  5
7949
  8
0
 10
3924.9194442828061256
 20
70.5179637693291852
 30
0.0
 40
0.0299999997292275
 50
290.7460916165576919
 51
356.0000001749460807
  0
ARC
  5
794A
  8
0
 10
3924.9477824629348106
 20
70.4431510197294983
 30
0.0
 40
0.0499999999942268
 50
110.7460921204371971
 51
210.0000000070220096
  0
ARC
  5
794B
  8
0
 10
3924.8785004306400879
 20
70.4031510197271331
 30
0.0
 40
0.0299999999999989
 50
302.2042275039913193
 51
29.9999999998978915
  0
ARC
  5
794C
  8
0
 10
3924.9477824629311726
 20
70.2931510197313258
 30
0.0
 40
0.0999999999899116
 50
122.2042274993038973
 51
170.2795145425814951
  0
ARC
  5
794D
  8
0
 10
3924.9477824629411771
 20
70.2931510197271336
 30
0.0
 40
0.0999999999999949
 50
170.2795145411294016
 51
210.453704652152112
  0
ARC
  5
794E
  8
0
 10
3924.950564452125036
 20
70.2952911968905738
 30
0.0
 40
0.1034838285675394
 50
210.6944888729360912
 51
238.8959936274675897
  0
ARC
  5
794F
  8
0
 10
3924.8785004306400879
 20
70.1831510197271342
 30
0.0
 40
0.0300000000000001
 50
330.0000000001037961
 51
51.6717443226910618
  0
ARC
  5
7950
  8
0
 10
3924.9477824629680072
 20
70.1431510197371324
 30
0.0
 40
0.0500000000286058
 50
150.0000000321626885
 51
215.6514430130276878
  0
ARC
  5
7951
  8
0
 10
3924.9477824629411771
 20
70.1431510197271137
 30
0.0
 40
0.0499999999999991
 50
215.6514430224260934
 51
253.7994138982994912
  0
ARC
  5
7952
  8
0
 10
3924.9254623884398825
 20
70.0663277529902331
 30
0.0
 40
0.0300000002364991
 50
21.1377621430520009
 51
73.7994137111676736
  0
ARC
  5
7953
  8
0
 10
3925.1920651496689061
 20
70.1674752445752716
 30
0.0
 40
0.2551459755973676
 50
200.7339622076034118
 51
219.660487361664309
  0
ARC
  5
7954
  8
0
 10
3925.1533942755490898
 20
70.1353141672378513
 30
0.0
 40
0.2048492174305104
 50
219.6387563636826883
 51
243.2091545081065078
  0
ARC
  5
7955
  8
0
 10
3925.0477824630747818
 20
69.9255528826654
 30
0.0
 40
0.0299999998659155
 50
359.9999999269007844
 51
63.7277321372754599
  0
LINE
  5
7956
  8
0
 10
3925.077782462939922
 20
69.9255528826271302
 30
0.0
 11
3925.077782462939922
 21
69.9036709854271265
 31
0.0
  0
ARC
  5
7957
  8
0
 10
3925.1077824628009694
 20
69.9036709853763369
 30
0.0
 40
0.0299999998610128
 50
179.9999999029894866
 51
260.2988054972033751
  0
ARC
  5
7958
  8
0
 10
3925.0855560181121291
 20
69.7661805735725977
 30
0.0
 40
0.109276932792935
 50
56.723039082783842
 51
80.959404295180093
  0
ARC
  5
7959
  8
0
 10
3925.1047363000598125
 20
69.791490178087173
 30
0.0
 40
0.0776231592524488
 50
32.5842651238443466
 51
58.3088947867664871
  0
ARC
  5
795A
  8
0
 10
3925.064953662138123
 20
69.7602622279291609
 30
0.0
 40
0.1280548351438302
 50
16.7750690802660891
 51
34.7719151070728785
  0
ARC
  5
795B
  8
0
 10
3925.2161762189198271
 20
69.80622430786282
 30
0.0
 40
0.0299999999356898
 50
197.4646230499160993
 51
270.000000040228997
  0
ARC
  5
795C
  8
0
 10
3925.7947884260652245
 20
72.6064113943202187
 30
0.0
 40
0.2846839719395422
 50
184.8823815989968864
 51
221.5565433608576882
  0
ARC
  5
795D
  8
0
 10
3925.7778928491070474
 20
72.6022828583531066
 30
0.0
 40
0.2694246288463417
 50
223.2832705295739117
 51
247.1805523510516878
  0
ARC
  5
795E
  8
0
 10
3925.468512770495181
 20
72.352366255831285
 30
0.0
 40
0.224636642801535
 50
320.1821077155743751
 51
352.3706796714507163
  0
ARC
  5
795F
  8
0
 10
3925.5401604745770783
 20
72.2909730072783532
 30
0.0
 40
0.1302983192460224
 50
286.7823767184353869
 51
320.7430197803465148
  0
ARC
  5
7960
  8
0
 10
3925.5772110560901638
 20
72.1154691550586477
 30
0.0
 40
0.0507583692539793
 50
16.4170985267190908
 51
89.3549853056728551
  0
ARC
  5
7961
  8
0
 10
3925.5782164025499696
 20
72.1160179147107669
 30
0.0
 40
0.049639507508253
 50
292.9885035232491077
 51
16.1374859798281385
  0
ARC
  5
7962
  8
0
 10
3925.6094952172898047
 20
72.0427784013710237
 30
0.0
 40
0.0299999998599943
 50
113.3539055172329029
 51
184.0000002706007081
  0
LINE
  5
7963
  8
0
 10
3925.5795682959319493
 20
72.0406857070271229
 30
0.0
 11
3925.6861937219400716
 21
70.5158710752271247
 31
0.0
  0
ARC
  5
7964
  8
0
 10
3925.7161206433579537
 20
70.517963769359568
 30
0.0
 40
0.0299999999042245
 50
183.9999998598511013
 51
249.2539076015586943
  0
ARC
  5
7965
  8
0
 10
3925.6877824632269949
 20
70.4431510197955362
 30
0.0
 40
0.0499999997861914
 50
329.9999997680228034
 51
69.2539083333164598
  0
ARC
  5
7966
  8
0
 10
3925.7570644955208081
 20
70.4031510197947625
 30
0.0
 40
0.0300000002067316
 50
150.0000003771216086
 51
237.7957721666847135
  0
ARC
  5
7967
  8
0
 10
3925.687782463332951
 20
70.2931510198613836
 30
0.0
 40
0.09999999967608
 50
9.7204854208770914
 51
57.795772629832129
  0
ARC
  5
7968
  8
0
 10
3925.6877824630241776
 20
70.293151019738346
 30
0.0
 40
0.1
 50
329.5462953495866145
 51
9.7204854606034701
  0
ARC
  5
7969
  8
0
 10
3925.6850004680350139
 20
70.2952912013956848
 30
0.0
 40
0.1034838358533707
 50
301.1040059231689838
 51
329.305510629885589
  0
ARC
  5
796A
  8
0
 10
3925.7570644953289047
 20
70.1831510197404498
 30
0.0
 40
0.0300000000000001
 50
128.3282623472321973
 51
210.0000000016414106
  0
ARC
  5
796B
  8
0
 10
3925.6877824630369105
 20
70.1431510197357397
 30
0.0
 40
0.0499999999919068
 50
324.3485569763259946
 51
30.0000000106010916
  0
ARC
  5
796C
  8
0
 10
3925.6877824630291798
 20
70.1431510197383403
 30
0.0
 40
0.0499999999999991
 50
286.20058610343699
 51
324.3485569792978822
  0
ARC
  5
796D
  8
0
 10
3925.7101025371548531
 20
70.0663277533919313
 30
0.0
 40
0.0299999996938037
 50
106.2005859017880027
 51
158.8622382561088955
  0
ARC
  5
796E
  8
0
 10
3925.4434997747948728
 20
70.1674752456303423
 30
0.0
 40
0.2551459774271722
 50
320.3395126740890078
 51
339.2660376972575023
  0
ARC
  5
796F
  8
0
 10
3925.4821706504221765
 20
70.1353141672422851
 30
0.0
 40
0.204849217429859
 50
296.7908454936145972
 51
320.361243636889526
  0
ARC
  5
7970
  8
0
 10
3925.5877824631238582
 20
69.9255528824295709
 30
0.0
 40
0.0300000001826773
 50
116.2722680371518038
 51
179.9999996226906944
  0
LINE
  5
7971
  8
0
 10
3925.5577824629408497
 20
69.9255528826271302
 30
0.0
 11
3925.5577824630368013
 21
69.9036709854344025
 31
0.0
  0
ARC
  5
7972
  8
0
 10
3925.5277824631762087
 20
69.9036709853827034
 30
0.0
 40
0.0299999998610147
 50
279.7011945045409789
 51
0.0000000987439586
  0
ARC
  5
7973
  8
0
 10
3925.5500089078700512
 20
69.7661805735796321
 30
0.0
 40
0.109276932792935
 50
99.0405957065610494
 51
123.276960918958693
  0
ARC
  5
7974
  8
0
 10
3925.5308286259200941
 20
69.7914901780936248
 30
0.0
 40
0.0776231592524488
 50
121.6911052149767016
 51
147.4157348778940104
  0
ARC
  5
7975
  8
0
 10
3925.5706112637822116
 20
69.7602622279727882
 30
0.0
 40
0.1280548350726997
 50
145.2280848921544987
 51
163.2249309305234988
  0
ARC
  5
7976
  8
0
 10
3925.41938870705917
 20
69.8062243078705222
 30
0.0
 40
0.0299999999403191
 50
269.999999964408687
 51
342.535376937428623
  0
LINE
  5
7977
  8
0
 10
3924.9621656679000807
 20
72.3539456733271322
 30
0.0
 11
3925.673402308140794
 21
72.3539456733271322
 31
0.0
  0
LINE
  5
7978
  8
0
 10
3925.0577824629399402
 20
72.1662243079271377
 30
0.0
 11
3925.5777824636647892
 21
72.1662243079271377
 31
0.0
  0
LINE
  5
7979
  8
0
 10
3925.0379619914228897
 20
72.0703206162582575
 30
0.0
 11
3925.5976029344778908
 21
72.0703206162623076
 31
0.0
  0
LINE
  5
797A
  8
0
 10
3924.9493712040498394
 20
70.5158710752271247
 30
0.0
 11
3925.6861937219400716
 21
70.5158710752271247
 31
0.0
  0
LINE
  5
797B
  8
0
 10
3925.2161823190399446
 20
69.7762243079271229
 30
0.0
 11
3925.41938870705917
 21
69.7762243079271229
 31
0.0
  0
LINE
  5
797C
  8
0
 10
3925.077782462939922
 20
69.9036709854271265
 30
0.0
 11
3925.5577824630368013
 21
69.9036709853797333
 31
0.0
  0
LINE
  5
797D
  8
0
 10
3924.9534438707000845
 20
70.0771461015128239
 30
0.0
 11
3925.6821210553330275
 21
70.077146101543093
 31
0.0
  0
LINE
  5
797E
  8
0
 10
3924.8971054098151399
 20
70.2066851385741728
 30
0.0
 11
3925.7384595134130905
 21
70.2066851364216404
 31
0.0
  0
LINE
  5
797F
  8
0
 10
3924.9044811927401497
 20
70.4181510197271336
 30
0.0
 11
3925.7310837331410767
 21
70.4181510197271336
 31
0.0
  0
ARC
  5
7980
  8
0
 10
3924.9706706155361644
 20
72.3275507350304565
 30
0.0
 40
0.027731334298478
 50
107.8599209419883067
 51
148.9123703313541967
  0
ARC
  5
7981
  8
0
 10
3925.6661435277260352
 20
72.3291180174571622
 30
0.0
 40
0.025867013518057
 50
345.2739524576580266
 51
73.7028366753477542
  0
LINE
  5
7982
  8
0
 10
3925.6476073231001465
 20
73.4170467378071407
 30
0.0
 11
3925.6476057117001801
 21
72.7334132230271138
 31
0.0
  0
LINE
  5
7983
  8
0
 10
3924.7351759895000214
 20
73.3825892321271311
 30
0.0
 11
3924.7351759895000214
 21
72.7678593837271279
 31
0.0
  0
ARC
  5
7984
  8
0
 10
3924.7651759894210954
 20
72.7678593837037511
 30
0.0
 40
0.0299999999210687
 50
179.9999999553375005
 51
246.0085662445457899
  0
ARC
  5
7985
  8
0
 10
3924.8378953738620112
 20
72.769100273347334
 30
0.0
 40
0.029999999901032
 50
295.9466439833698246
 51
343.9747999554290914
  0
LINE
  5
7986
  8
0
 10
3924.8667295849008951
 20
72.7608184699286653
 30
0.0
 11
3924.8667295849008951
 21
73.3896301459271285
 31
0.0
  0
ARC
  5
7987
  8
0
 10
3924.8378953739711505
 20
73.3813483425651043
 30
0.0
 40
0.029999999779948
 50
16.0251999983798115
 51
64.0533561024570446
  0
ARC
  5
7988
  8
0
 10
3924.7651759895379655
 20
73.3825892321158335
 30
0.0
 40
0.0300000000381425
 50
113.9914339327870039
 51
179.9999999784207034
  0
ARC
  5
7989
  8
0
 10
3924.715490950702133
 20
73.3725205435119108
 30
0.0
 40
0.0196850387979541
 50
316.6660002129042937
 51
0.000000335333259
  0
ARC
  5
798A
  8
0
 10
3925.0305992176440668
 20
73.0752243079891031
 30
0.0
 40
0.4135334644439662
 50
136.6660011497708069
 51
223.3339944138930093
  0
ARC
  5
798B
  8
0
 10
3924.7154909501000475
 20
72.777928072227084
 30
0.0
 40
0.0196850394002068
 50
0.0000000001213191
 51
43.3340919708532866
  0
ARC
  5
798C
  8
0
 10
3924.9038723029589164
 20
72.7501034027761193
 30
0.0
 40
0.0386573947505385
 50
146.5279162205636112
 51
163.9080136902020968
  0
ARC
  5
798D
  8
0
 10
3924.9109767165859921
 20
72.7442591223009458
 30
0.0
 40
0.0478164463427328
 50
106.8004122706752952
 51
145.3814411424883986
  0
ARC
  5
798E
  8
0
 10
3924.9159649584757972
 20
72.7313993175106361
 30
0.0
 40
0.061578251973493
 50
79.9509397862162245
 51
107.7852073762478966
  0
ARC
  5
798F
  8
0
 10
3924.9158737241800736
 20
72.7300406317515353
 30
0.0
 40
0.0629321855848397
 50
61.9334844106743674
 51
80.0849965404235036
  0
ARC
  5
7990
  8
0
 10
3924.9081135804431142
 20
72.7199618960206067
 30
0.0
 40
0.075506164100125
 50
16.1270139288639207
 51
60.3355319340980429
  0
ARC
  5
7991
  8
0
 10
3924.8601024793310899
 20
72.7017792955481781
 30
0.0
 40
0.1267458275724805
 50
6.910526054235361
 51
17.9948441874407905
  0
ARC
  5
7992
  8
0
 10
3925.01100773522694
 20
72.7164897098556651
 30
0.0
 40
0.0250860074096331
 50
178.7675987114575946
 51
265.8345854397102244
  0
ARC
  5
7993
  8
0
 10
3924.9526759380578369
 20
72.4507553537818723
 30
0.0
 40
0.2472587006944447
 50
58.4865622518798887
 51
76.7885974807023644
  0
ARC
  5
7994
  8
0
 10
3925.0479053161288903
 20
72.5922549240041945
 30
0.0
 40
0.0771902670114379
 50
352.3664420403385975
 51
63.8558889211088783
  0
ARC
  5
7995
  8
0
 10
3924.9038723031280824
 20
73.400345213171093
 30
0.0
 40
0.0386573949388106
 50
196.0919863730653958
 51
213.4720837574847963
  0
ARC
  5
7996
  8
0
 10
3924.9109767165909943
 20
73.4061894935542938
 30
0.0
 40
0.0478164463427402
 50
214.6185588567770992
 51
253.199572672126294
  0
ARC
  5
7997
  8
0
 10
3924.9159649582798011
 20
73.4190493020448258
 30
0.0
 40
0.0615782556518851
 50
252.2147821618239902
 51
280.0490597953283896
  0
ARC
  5
7998
  8
0
 10
3924.9158737241841663
 20
73.420407984103619
 30
0.0
 40
0.0629321855848397
 50
279.9150034588359972
 51
298.0665155885870945
  0
ARC
  5
7999
  8
0
 10
3924.9081135804472069
 20
73.4304867198346329
 30
0.0
 40
0.075506164100125
 50
299.6644680651547787
 51
343.8729860703957115
  0
ARC
  5
799A
  8
0
 10
3924.8601024793351826
 20
73.448669320307701
 30
0.0
 40
0.1267458275724805
 50
342.0051558118179855
 51
353.0894739450264979
  0
ARC
  5
799B
  8
0
 10
3925.0110077352310327
 20
73.4339589059982529
 30
0.0
 40
0.0250860074096274
 50
94.1654281932352859
 51
181.232401287811399
  0
ARC
  5
799C
  8
0
 10
3924.9336599718558318
 20
73.7589676079285397
 30
0.0
 40
0.3093501139065368
 50
284.1311820788130262
 51
300.4275864934616038
  0
LINE
  5
799D
  8
0
 10
3924.9859161442000186
 20
73.4333257046837815
 30
0.0
 11
3924.9859161442000186
 21
72.7171229111326056
 31
0.0
  0
ARC
  5
799E
  8
0
 10
3925.317872771382099
 20
73.0750023116162168
 30
0.0
 40
0.475236674316998
 50
90.0105170226025564
 51
118.6069789852075047
  0
ARC
  5
799F
  8
0
 10
3925.3177295803648121
 20
73.0751381209442314
 30
0.0
 40
0.4751008602783133
 50
46.0259878337355275
 51
89.9932516094583832
  0
LINE
  5
79A0
  8
0
 10
3925.9409713002000899
 20
73.3837544915221969
 30
0.0
 11
3925.9409713002000899
 21
72.7667063893320716
 31
0.0
  0
ARC
  5
79A1
  8
0
 10
3925.6892690253998808
 20
73.4602243079271204
 30
0.0
 40
0.0599999999999966
 50
226.0236248115317892
 51
270.0
  0
LINE
  5
79A2
  8
0
 10
3925.6892690253998808
 20
73.4002243079271324
 30
0.0
 11
3925.9141956745002062
 21
73.4002243079271324
 31
0.0
  0
ARC
  5
79A3
  8
0
 10
3925.9141956745038442
 20
73.3702243079416121
 30
0.0
 40
0.0299999999855243
 50
26.8082538789520086
 51
90.0000000078165243
  0
ARC
  5
79A4
  8
0
 10
3925.9945225514002232
 20
73.4108148591271288
 30
0.0
 40
0.0599999999999973
 50
206.8082543397729012
 51
270.0
  0
LINE
  5
79A5
  8
0
 10
3925.9945225514002232
 20
73.3508148591271265
 30
0.0
 11
3926.0264791391000472
 21
73.3508148591271265
 31
0.0
  0
ARC
  5
79A6
  8
0
 10
3926.026479002790893
 20
73.3311294906475695
 30
0.0
 40
0.0196853684800321
 50
0.0009578112774019
 51
89.9996032615376578
  0
ARC
  5
79A7
  8
0
 10
3926.0865936812779182
 20
73.7834468974041044
 30
0.0
 40
0.0404318842588883
 50
91.5014750801857133
 51
179.3781275269672904
  0
LINE
  5
79A8
  8
0
 10
3926.0855342571999245
 20
73.8238648994045832
 30
0.0
 11
3926.117030320199774
 21
73.8238648994045832
 31
0.0
  0
ARC
  5
79A9
  8
0
 10
3926.1180572592597855
 20
73.8818855500405505
 30
0.0
 40
0.0580297381008662
 50
268.9859967059358041
 51
0.4199957530043234
  0
ARC
  5
79AA
  8
0
 10
3926.2154555171000538
 20
74.0004211583271285
 30
0.0
 40
0.0393700786999975
 50
90.0
 51
180.0000000000011937
  0
LINE
  5
79AB
  8
0
 10
3926.2154555171000538
 20
74.0397912370271314
 30
0.0
 11
3926.8979571513000337
 21
74.0397912370271314
 31
0.0
  0
ARC
  5
79AC
  8
0
 10
3926.8979571512832081
 20
74.0097912369753317
 30
0.0
 40
0.0300000000518035
 50
17.0466354570129113
 51
90.0000073609055846
  0
LINE
  5
79AD
  8
0
 10
3926.9266391452979406
 20
74.01858573653017
 30
0.0
 11
3926.9898949712178364
 21
73.8241682402180572
 31
0.0
  0
ARC
  5
79AE
  8
0
 10
3932.6628524449538418
 20
75.7774145734724414
 30
0.0
 40
5.9998014748148192
 50
198.9990106197899991
 51
202.9176886953032977
  0
ARC
  5
79AF
  8
0
 10
3932.6630379442981393
 20
75.7774856253262641
 30
0.0
 40
5.9999999999978861
 50
202.917623840331288
 51
205.5192176975961047
  0
ARC
  5
79B0
  8
0
 10
3926.7154555186662037
 20
72.9381849825022641
 30
0.0
 40
0.5905511795336232
 50
359.9999999830080242
 51
25.5192365280898699
  0
LINE
  5
79B1
  8
0
 10
3927.3060066981997807
 20
72.9381849823271295
 30
0.0
 11
3927.3060066981997807
 21
72.1406573788271146
 31
0.0
  0
ARC
  5
79B2
  8
0
 10
3927.2760066982000353
 20
72.1406573788271146
 30
0.0
 40
0.0299999999999987
 50
270.0
 51
359.9999842109596102
  0
LINE
  5
79B3
  8
0
 10
3927.2760066982000353
 20
72.1106573788271135
 30
0.0
 11
3926.8434082730009322
 21
72.1106573788271135
 31
0.0
  0
ARC
  5
79B4
  8
0
 10
3926.6642744146997757
 20
71.1628182802514573
 30
0.0
 40
0.9646180052114948
 50
79.2977937380501459
 51
100.7022062619497973
  0
LINE
  5
79B5
  8
0
 10
3926.2154555171000538
 20
72.1106573788271135
 30
0.0
 11
3926.4851405563999833
 21
72.1106573788271135
 31
0.0
  0
LINE
  5
79B6
  8
0
 10
3925.6892690279341878
 20
72.7502243079276525
 30
0.0
 11
3925.9141956745002062
 21
72.7502365729271219
 31
0.0
  0
ARC
  5
79B7
  8
0
 10
3925.9141956745038442
 20
72.7802365729126564
 30
0.0
 40
0.0299999999855243
 50
269.9999999921835183
 51
333.1917461210480269
  0
ARC
  5
79B8
  8
0
 10
3925.9944909253531478
 20
72.7396751096772221
 30
0.0
 40
0.0599586553907061
 50
89.9697785237304402
 51
153.2029213551791997
  0
LINE
  5
79B9
  8
0
 10
3925.9945225514002232
 20
72.7996337567271325
 30
0.0
 11
3926.0264791391000472
 21
72.7996337567271325
 31
0.0
  0
ARC
  5
79BA
  8
0
 10
3926.02645812148603
 20
72.8193398949969293
 30
0.0
 40
0.0197061494779844
 50
270.061108883713473
 51
359.9743154554379885
  0
ARC
  5
79BB
  8
0
 10
3926.0855552029070168
 20
72.3665838316195362
 30
0.0
 40
0.0393910253611328
 50
180.0126080213148043
 51
269.9695339014705269
  0
LINE
  5
79BC
  8
0
 10
3926.0855342571999245
 20
72.3271928118271319
 30
0.0
 11
3926.117030320199774
 21
72.3271928118271319
 31
0.0
  0
ARC
  5
79BD
  8
0
 10
3926.1170512525500271
 20
72.2681586290581208
 30
0.0
 40
0.0590341864801041
 50
359.9915849882171983
 51
90.0203159460558737
  0
ARC
  5
79BE
  8
0
 10
3926.2154555171000538
 20
72.1500397225271257
 30
0.0
 40
0.0393700786999975
 50
179.9999999999988063
 51
270.0
  0
ARC
  5
79BF
  8
0
 10
3925.5905479039997772
 20
72.5918759055271323
 30
0.0
 40
0.0800000000000007
 50
119.436836247503706
 51
186.9600057778008875
  0
ARC
  5
79C0
  8
0
 10
3925.3181007948019214
 20
73.0747401444379534
 30
0.0
 40
0.4744233948068892
 50
299.4324125273579966
 51
313.9903865358804183
  0
ARC
  5
79C1
  8
0
 10
3925.6892814401530813
 20
72.6901604043947316
 30
0.0
 40
0.0600639048154128
 50
90.0118401841566538
 51
133.9361618664489981
  0
LINE
  5
79C2
  8
0
 10
3926.0461641785000211
 20
73.7838857252271225
 30
0.0
 11
3926.0461641785000211
 21
72.3665751635660115
 31
0.0
  0
LINE
  5
79C3
  8
0
 10
3926.176085438300106
 20
74.0004211583271285
 30
0.0
 11
3926.1760854384001505
 21
72.1500397225271257
 31
0.0
  0
ARC
  5
79C4
  8
0
 10
3927.2906802583429453
 20
73.0752243087897
 30
0.0
 40
0.8070866133037014
 50
90.7223628818582881
 51
111.8810140439793059
  0
ARC
  5
79C5
  8
0
 10
3927.2795123953351322
 20
73.9609806785259707
 30
0.0
 40
0.0787401573984194
 50
270.7224008920848064
 51
344.9999886626372927
  0
LINE
  5
79C6
  8
0
 10
3927.355569542899957
 20
73.9406012109678414
 30
0.0
 11
3927.3729634139531299
 21
74.0055160214308785
 31
0.0
  0
ARC
  5
79C7
  8
0
 10
3927.3919757518337974
 20
74.0004269030330306
 30
0.0
 40
0.0196792947907164
 50
89.9943224323925506
 51
165.0405609795184034
  0
LINE
  5
79C8
  8
0
 10
3927.3919757518337974
 20
74.0201061978237362
 30
0.0
 11
3927.4162429185998917
 21
74.0201061977271308
 31
0.0
  0
ARC
  5
79C9
  8
0
 10
3927.2795123952651011
 20
72.1894679371944932
 30
0.0
 40
0.0787401575426372
 50
15.0000115300277006
 51
70.3249191251398145
  0
LINE
  5
79CA
  8
0
 10
3927.355569542899957
 20
72.2098474048864176
 30
0.0
 11
3927.3729634139531299
 21
72.1449325944233806
 31
0.0
  0
ARC
  5
79CB
  8
0
 10
3927.391977703079192
 20
72.150027459063196
 30
0.0
 40
0.0196850409360643
 50
195.000003440996494
 51
269.9999965693505146
  0
LINE
  5
79CC
  8
0
 10
3927.3919777019000321
 20
72.1303424181271282
 30
0.0
 11
3927.4162429185998917
 21
72.1303424181271282
 31
0.0
  0
LINE
  5
79CD
  8
0
 10
3927.4162429186999361
 20
72.1224684024271312
 30
0.0
 11
3927.4162429186999361
 21
74.0279802126594149
 31
0.0
  0
ARC
  5
79CE
  8
0
 10
3927.4280539422998118
 20
74.0279802134271279
 30
0.0
 40
0.0118110236
 50
90.0
 51
180.0000037242041913
  0
ARC
  5
79CF
  8
0
 10
3927.4280539422998118
 20
72.1224684024271312
 30
0.0
 40
0.0118110236000036
 50
179.9999962757999015
 51
269.9999999999739089
  0
LINE
  5
79D0
  8
0
 10
3927.4280539422998118
 20
74.0397912370271314
 30
0.0
 11
3928.4989200840000194
 21
74.0397912370271314
 31
0.0
  0
LINE
  5
79D1
  8
0
 10
3927.4280539422998118
 20
72.1106573788271135
 30
0.0
 11
3928.4989200840000194
 21
72.1106573788271135
 31
0.0
  0
ARC
  5
79D2
  8
0
 10
3928.8138807140148856
 20
70.7030303717736643
 30
0.0
 40
0.1181102363152071
 50
180.0000000225828103
 51
267.9999999454557837
  0
LINE
  5
79D3
  8
0
 10
3928.6957704777000799
 20
70.7030303717271238
 30
0.0
 11
3928.6957704777000799
 21
77.5340324174271274
 31
0.0
  0
ARC
  5
79D4
  8
0
 10
3928.8138807138379889
 20
77.5340324174524937
 30
0.0
 40
0.1181102361371664
 50
91.9999999703087923
 51
180.0000000123114035
  0
LINE
  5
79D5
  8
0
 10
3928.8097587260999717
 20
77.6520707040271247
 30
0.0
 11
3929.089471265100201
 21
77.6618384811271341
 31
0.0
  0
LINE
  5
79D6
  8
0
 10
3929.089471265100201
 20
77.6618384811271341
 30
0.0
 11
3929.089471265100201
 21
70.5752243079271295
 31
0.0
  0
LINE
  5
79D7
  8
0
 10
3929.089471265100201
 20
70.5752243079271295
 30
0.0
 11
3928.8097587260708679
 21
70.5849920850281052
 31
0.0
  0
ARC
  5
79D8
  8
0
 10
3928.5973452807888862
 20
70.749279426022639
 30
0.0
 40
0.0984251969115859
 50
0.0000000026124313
 51
84.7840913844449489
  0
ARC
  5
79D9
  8
0
 10
3928.617030320199774
 20
70.964918228227134
 30
0.0
 40
0.1181102361999999
 50
180.0
 51
264.7840914487023269
  0
LINE
  5
79DA
  8
0
 10
3928.4989200840000194
 20
70.964918228227134
 30
0.0
 11
3928.4989200840000194
 21
77.2721445609271314
 31
0.0
  0
ARC
  5
79DB
  8
0
 10
3928.617030320199774
 20
77.2721445609271314
 30
0.0
 40
0.1181102361999997
 50
95.2159090715839227
 51
180.0000000000019895
  0
ARC
  5
79DC
  8
0
 10
3928.5973452809789705
 20
77.4877833629577566
 30
0.0
 40
0.098425196721132
 50
275.2159078899645124
 51
0.00000004038134
  0
LINE
  5
79DD
  8
0
 10
3927.6721484303998295
 20
76.0968778512271342
 30
0.0
 11
3927.6918334697998034
 21
76.1165628906271365
 31
0.0
  0
LINE
  5
79DE
  8
0
 10
3927.6918334697998034
 20
76.1165628906271365
 30
0.0
 11
3928.4989200840000194
 21
76.1165628906271365
 31
0.0
  0
LINE
  5
79DF
  8
0
 10
3928.4989200840000194
 20
75.1519959614271329
 30
0.0
 11
3927.6918334697998034
 21
75.1519959614271329
 31
0.0
  0
LINE
  5
79E0
  8
0
 10
3927.6918334697998034
 20
75.1519959614271329
 30
0.0
 11
3927.6721484303998295
 21
75.1716810008271352
 31
0.0
  0
LINE
  5
79E1
  8
0
 10
3927.6721484303998295
 20
75.1716810008271352
 30
0.0
 11
3927.6721484303998295
 21
76.0968778512271342
 31
0.0
  0
LINE
  5
79E2
  8
0
 10
3927.5810973251000178
 20
76.0279802134271279
 30
0.0
 11
3927.6721484303998295
 21
76.0279802134271279
 31
0.0
  0
LINE
  5
79E3
  8
0
 10
3927.6721484303998295
 20
75.2405786386271132
 30
0.0
 11
3927.5810973251000178
 21
75.2405786386271132
 31
0.0
  0
LINE
  5
79E4
  8
0
 10
3927.5783236677061723
 20
76.1074073688947266
 30
0.0
 11
3927.5810973251000178
 21
76.0279802134271279
 31
0.0
  0
LINE
  5
79E5
  8
0
 10
3927.5810973251000178
 20
76.0279802134271279
 30
0.0
 11
3927.5810973251000178
 21
75.2405786386271132
 31
0.0
  0
LINE
  5
79E6
  8
0
 10
3927.5810973251000178
 20
75.2405786386271132
 30
0.0
 11
3927.5783236676998058
 21
75.1611514829914569
 31
0.0
  0
ARC
  5
79E7
  8
0
 10
3927.5586506199001633
 20
75.1618384811271341
 30
0.0
 40
0.0196850394000059
 50
270.0
 51
357.9999995105845869
  0
ARC
  5
79E8
  8
0
 10
3927.5586506210697735
 20
76.1067203721384971
 30
0.0
 40
0.0196850381886343
 50
1.9999965950454299
 51
90.0000034048549367
  0
LINE
  5
79E9
  8
0
 10
3927.5586506200761505
 20
75.1421534417271317
 30
0.0
 11
3927.0840469831041446
 21
75.1421534417271317
 31
0.0
  0
ARC
  5
79EA
  8
0
 10
3933.2075815012999556
 20
75.6342794260271347
 30
0.0
 40
6.1614173228000961
 50
181.1779275921741998
 51
184.4117257791708084
  0
ARC
  5
79EB
  8
0
 10
3933.2075815013067768
 20
75.6342794260270637
 30
0.0
 40
6.1614173228058986
 50
177.6684334724683083
 51
181.1779275921722103
  0
ARC
  5
79EC
  8
0
 10
3933.207581501311779
 20
75.6342794260263531
 30
0.0
 40
6.1614173228121141
 50
175.5882742208306979
 51
177.6684334724639029
  0
ARC
  5
79ED
  8
0
 10
3927.0840469831000519
 20
76.1067203709271354
 30
0.0
 40
0.0196850393999994
 50
90.0
 51
175.5882763280037864
  0
LINE
  5
79EE
  8
0
 10
3927.0840469831000519
 20
76.1264054103271235
 30
0.0
 11
3927.5586506199001633
 21
76.1264054103271235
 31
0.0
  0
ARC
  5
79EF
  8
0
 10
3927.0840469830991424
 20
75.1618384811271198
 30
0.0
 40
0.0196850393999956
 50
184.411726887907804
 51
270.000000012089572
  0
LINE
  5
79F0
  8
0
 10
3927.2333134101008909
 20
76.0628499824271245
 30
0.0
 11
3927.4101960490997953
 21
76.0628502267271358
 31
0.0
  0
LINE
  5
79F1
  8
0
 10
3927.410196048122998
 20
75.205708869588193
 30
0.0
 11
3927.2333134106997932
 21
75.2057088696271308
 31
0.0
  0
ARC
  5
79F2
  8
0
 10
3927.2343440988420298
 20
76.0595688058584329
 30
0.0
 40
0.0034392495866516
 50
107.4386256138859039
 51
161.7812342366065081
  0
LINE
  5
79F3
  8
0
 10
3927.231077259857102
 20
76.0606440736248146
 30
0.0
 11
3927.2270783484959793
 21
76.0523386655457045
 31
0.0
  0
ARC
  5
79F4
  8
0
 10
3927.2239884898472155
 20
76.0541196934571815
 30
0.0
 40
0.0035664109360168
 50
260.0543288740449839
 51
330.0403884481115142
  0
ARC
  5
79F5
  8
0
 10
3927.22287615722189
 20
76.0453705118987244
 30
0.0
 40
0.0052598395970453
 50
84.5850337744380454
 51
137.878789037253199
  0
ARC
  5
79F6
  8
0
 10
3927.2633340017241608
 20
76.0141353756332592
 30
0.0
 40
0.0563577871191698
 50
141.9153194159030988
 51
157.6756550219404005
  0
ARC
  5
79F7
  8
0
 10
3913.7669489787181192
 20
81.6964922497156607
 30
0.0
 40
14.5874690894920302
 50
336.8166530045078275
 51
337.1655784532831035
  0
ARC
  5
79F8
  8
0
 10
3927.4015865122919422
 20
75.853330366105979
 30
0.0
 40
0.2465019677688234
 50
155.9536073730835142
 51
163.8212166286826061
  0
ARC
  5
79F9
  8
0
 10
3927.3004453812709471
 20
75.8831211858881574
 30
0.0
 40
0.1410662101968987
 50
163.9956649367555883
 51
170.4606113211324043
  0
ARC
  5
79FA
  8
0
 10
3927.2343440988420298
 20
75.2089900461958223
 30
0.0
 40
0.0034392495866516
 50
198.2187657633934066
 51
252.5613743861140961
  0
LINE
  5
79FB
  8
0
 10
3927.231077259857102
 20
75.2079147784294406
 30
0.0
 11
3927.2270783484959793
 21
75.2162201865085365
 31
0.0
  0
ARC
  5
79FC
  8
0
 10
3927.2239884898472155
 20
75.2144391585970737
 30
0.0
 40
0.0035664109360168
 50
29.9596115518881909
 51
99.9456711259550445
  0
ARC
  5
79FD
  8
0
 10
3927.22287615722189
 20
75.2231883401555308
 30
0.0
 40
0.0052598395970453
 50
222.121210962746801
 51
275.4149662255620115
  0
ARC
  5
79FE
  8
0
 10
3927.263315851148036
 20
75.2544111669426599
 30
0.0
 40
0.0563359080220539
 50
202.3197913559367009
 51
218.0862132069983943
  0
ARC
  5
79FF
  8
0
 10
3913.7669489787181192
 20
69.5720666023385945
 30
0.0
 40
14.5874690894920302
 50
22.8344215467165199
 51
23.1833469954922009
  0
ARC
  5
7A00
  8
0
 10
3927.4015865122919422
 20
75.4152284859482762
 30
0.0
 40
0.2465019677688234
 50
196.1787833713173939
 51
204.0463926269160879
  0
ARC
  5
7A01
  8
0
 10
3927.3004555042361972
 20
75.3854402630604739
 30
0.0
 40
0.1410766567944222
 50
189.5397022958835862
 51
196.0042153506533111
  0
ARC
  5
7A02
  8
0
 10
3927.4091653603582017
 20
76.0595688058199499
 30
0.0
 40
0.0034392495866516
 50
18.2187657381704895
 51
72.5613743608806061
  0
LINE
  5
7A03
  8
0
 10
3927.4124321993431295
 20
76.0606440735848963
 30
0.0
 11
3927.4164311106987952
 21
76.0523386655040383
 31
0.0
  0
ARC
  5
7A04
  8
0
 10
3927.4195209693498327
 20
76.054119693414151
 30
0.0
 40
0.0035664109360168
 50
209.9596115266731999
 51
279.9456711007197214
  0
ARC
  5
7A05
  8
0
 10
3927.420633301970156
 20
76.0453705118551966
 30
0.0
 40
0.0052598395970453
 50
42.1212109375129131
 51
95.4149662003583074
  0
ARC
  5
7A06
  8
0
 10
3927.3801754574537881
 20
76.0141353756075517
 30
0.0
 40
0.0563577871191698
 50
22.3243449528361495
 51
38.0846805588777571
  0
ARC
  5
7A07
  8
0
 10
3940.8765604829618496
 20
81.6964922437492049
 30
0.0
 40
14.5874690894920302
 50
202.8344215215028044
 51
203.1833469702725097
  0
ARC
  5
7A08
  8
0
 10
3927.2419229468159756
 20
75.8533303661411225
 30
0.0
 40
0.2465019677688234
 50
16.1787833460954289
 51
24.0463926017007807
  0
ARC
  5
7A09
  8
0
 10
3927.3430640778487941
 20
75.883121185878764
 30
0.0
 40
0.1410662101968987
 50
9.5393886536450356
 51
16.0043350380233314
  0
ARC
  5
7A0A
  8
0
 10
3927.4091653599830352
 20
75.2089900461573535
 30
0.0
 40
0.0034392495866516
 50
287.4386255886773824
 51
341.781234211391677
  0
LINE
  5
7A0B
  8
0
 10
3927.4124321989670534
 20
75.2079147783895223
 30
0.0
 11
3927.4164311103309046
 21
75.2162201864668702
 31
0.0
  0
ARC
  5
7A0C
  8
0
 10
3927.4195209689801231
 20
75.2144391585540291
 30
0.0
 40
0.0035664109360168
 50
80.054328848835226
 51
150.0403884228963989
  0
ARC
  5
7A0D
  8
0
 10
3927.4206333016081771
 20
75.2231883401120029
 30
0.0
 40
0.0052598395970453
 50
264.5850337492083781
 51
317.8787890120365205
  0
ARC
  5
7A0E
  8
0
 10
3927.3801936076961283
 20
75.254411166916924
 30
0.0
 40
0.0563359080220539
 50
321.9137867677827103
 51
337.6802086188391172
  0
ARC
  5
7A0F
  8
0
 10
3940.8765604776249347
 20
69.5720665963721387
 30
0.0
 40
14.5874690894920302
 50
156.8166529792885058
 51
157.1655784280596038
  0
ARC
  5
7A10
  8
0
 10
3927.2419229466231627
 20
75.4152284859834197
 30
0.0
 40
0.2465019677688234
 50
335.9536073478574849
 51
343.8212166034600727
  0
ARC
  5
7A11
  8
0
 10
3927.3430539546661748
 20
75.3854402630510947
 30
0.0
 40
0.1410766567944222
 50
343.9957846241259745
 51
350.4602976788934825
  0
ARC
  5
7A12
  8
0
 10
3928.5343297533017903
 20
75.529126765823051
 30
0.0
 40
1.4239167448556369
 50
164.6315964464274089
 51
173.3175145394575907
  0
ARC
  5
7A13
  8
0
 10
3927.8776553756679277
 20
75.6342750061763525
 30
0.0
 40
0.7599844980952034
 50
175.4303340616569926
 51
193.5898144417718925
  0
ARC
  5
7A14
  8
0
 10
4187.9207697117399221
 20
137.7356222598542956
 30
0.0
 40
268.1155475491447078
 50
193.4317905379213016
 51
193.452365395508707
  0
ARC
  5
7A15
  8
0
 10
3926.1091797063268132
 20
75.529126765823051
 30
0.0
 40
1.4239167448556369
 50
6.6824854605423587
 51
15.3684035535725396
  0
ARC
  5
7A16
  8
0
 10
3926.76585408396204
 20
75.6342750061763525
 30
0.0
 40
0.7599844980952034
 50
346.4101855582276812
 51
4.5696659383430047
  0
ARC
  5
7A17
  8
0
 10
3666.7227397478882267
 20
137.7356222598542956
 30
0.0
 40
268.1155475491447078
 50
346.5476346044907814
 51
346.5682094620784142
  0
ARC
  5
7A19
  8
0
 10
3924.8002441085050123
 20
73.3036927658168338
 30
0.0
 40
0.1163390116836504
 50
90.0201203932910659
 51
113.971313330771693
  0
ARC
  5
7A1A
  8
0
 10
3924.7922963071227969
 20
73.269563390162304
 30
0.0
 40
0.15067598760079
 50
67.0614189954243614
 51
86.9919369320096649
  0
ARC
  5
7A1B
  8
0
 10
3924.8001267806139367
 20
72.8462036627346095
 30
0.0
 40
0.1157868424615125
 50
245.9707242673364931
 51
270.0378420087901077
  0
ARC
  5
7A1C
  8
0
 10
3924.7968519649498376
 20
72.8611105005708453
 30
0.0
 40
0.1307366154045686
 50
271.4688750885978834
 51
294.4777689841541246
  0
ENDSEC
  0
EOF
