  0
SECTION
  2
HEADER
  9
$ACADVER
  1
AC1009
  9
$INSBASE
 10
3944.6447396791058964
 20
55.8967831121314731
 30
0.0
  9
$EXTMIN
 10
3933.2987370147970978
 20
51.6705286570244269
 30
0.0
  9
$EXTMAX
 10
3949.8005063103478278
 20
62.2400449645974518
 30
0.0
  9
$LIMMIN
 10
0.0
 20
0.0
  9
$LIMMAX
 10
11.6929133858000007
 20
8.2677165353999982
  9
$ORTHOMODE
 70
     0
  9
$REGENMODE
 70
     1
  9
$FILLMODE
 70
     1
  9
$QTEXTMODE
 70
     0
  9
$MIRRTEXT
 70
     0
  9
$DRAGMODE
 70
     2
  9
$LTSCALE
 40
0.6431102362
  9
$OSMODE
 70
  4095
  9
$ATTMODE
 70
     1
  9
$TEXTSIZE
 40
0.2
  9
$TRACEWID
 40
0.05
  9
$TEXTSTYLE
  7
STANDARD
  9
$CLAYER
  8
0
  9
$CELTYPE
  6
BYLAYER
  9
$CECOLOR
 62
   256
  9
$DIMSCALE
 40
1.0
  9
$DIMASZ
 40
0.1875
  9
$DIMEXO
 40
0.0625
  9
$DIMDLI
 40
0.4443307087
  9
$DIMRND
 40
0.0
  9
$DIMDLE
 40
0.0
  9
$DIMEXE
 40
0.125
  9
$DIMTP
 40
0.01
  9
$DIMTM
 40
0.01
  9
$DIMTXT
 40
2.0
  9
$DIMCEN
 40
0.1052362205
  9
$DIMTSZ
 40
0.0
  9
$DIMTOL
 70
     1
  9
$DIMLIM
 70
     0
  9
$DIMTIH
 70
     1
  9
$DIMTOH
 70
     1
  9
$DIMSE1
 70
     0
  9
$DIMSE2
 70
     0
  9
$DIMTAD
 70
     0
  9
$DIMZIN
 70
     0
  9
$DIMBLK
  1

  9
$DIMASO
 70
     1
  9
$DIMSHO
 70
     1
  9
$DIMPOST
  1
\X
  9
$DIMAPOST
  1

  9
$DIMALT
 70
     1
  9
$DIMALTD
 70
     2
  9
$DIMALTF
 40
25.3999999999999986
  9
$DIMLFAC
 40
1.0
  9
$DIMTOFL
 70
     0
  9
$DIMTVP
 40
0.0
  9
$DIMTIX
 70
     0
  9
$DIMSOXD
 70
     0
  9
$DIMSAH
 70
     0
  9
$DIMBLK1
  1

  9
$DIMBLK2
  1

  9
$DIMSTYLE
  2
STANDARD
  9
$DIMCLRD
 70
     0
  9
$DIMCLRE
 70
     0
  9
$DIMCLRT
 70
     0
  9
$DIMTFAC
 40
1.0
  9
$DIMGAP
 40
0.09
  9
$LUNITS
 70
     2
  9
$LUPREC
 70
     4
  9
$SKETCHINC
 40
0.1
  9
$FILLETRAD
 40
0.0
  9
$AUNITS
 70
     0
  9
$AUPREC
 70
     0
  9
$MENU
  1
.
  9
$ELEVATION
 40
0.0
  9
$PELEVATION
 40
0.0
  9
$THICKNESS
 40
0.0
  9
$LIMCHECK
 70
     0
  9
$BLIPMODE
 70
     0
  9
$CHAMFERA
 40
0.0
  9
$CHAMFERB
 40
0.0
  9
$SKPOLY
 70
     0
  9
$TDCREATE
 40
2458060.468368056230247
  9
$TDUPDATE
 40
2459101.701851851772517
  9
$TDINDWG
 40
0.4123565972
  9
$TDUSRTIMER
 40
0.4123565972
  9
$USRTIMER
 70
     1
  9
$ANGBASE
 50
0.0
  9
$ANGDIR
 70
     0
  9
$PDMODE
 70
     0
  9
$PDSIZE
 40
0.3125
  9
$PLINEWID
 40
0.0
  9
$COORDS
 70
     1
  9
$SPLFRAME
 70
     0
  9
$SPLINETYPE
 70
     6
  9
$SPLINESEGS
 70
     8
  9
$ATTDIA
 70
     1
  9
$ATTREQ
 70
     1
  9
$HANDLING
 70
     1
  9
$HANDSEED
  5
75DE
  9
$SURFTAB1
 70
     6
  9
$SURFTAB2
 70
     6
  9
$SURFTYPE
 70
     6
  9
$SURFU
 70
     6
  9
$SURFV
 70
     6
  9
$UCSNAME
  2

  9
$UCSORG
 10
0.0
 20
0.0
 30
0.0
  9
$UCSXDIR
 10
1.0
 20
0.0
 30
0.0
  9
$UCSYDIR
 10
0.0
 20
1.0
 30
0.0
  9
$PUCSNAME
  2

  9
$PUCSORG
 10
0.0
 20
0.0
 30
0.0
  9
$PUCSXDIR
 10
1.0
 20
0.0
 30
0.0
  9
$PUCSYDIR
 10
0.0
 20
1.0
 30
0.0
  9
$USERI1
 70
     0
  9
$USERI2
 70
     0
  9
$USERI3
 70
     0
  9
$USERI4
 70
     0
  9
$USERI5
 70
     0
  9
$USERR1
 40
0.0
  9
$USERR2
 40
0.0
  9
$USERR3
 40
0.0
  9
$USERR4
 40
0.0
  9
$USERR5
 40
0.0
  9
$WORLDVIEW
 70
     1
  9
$SHADEDGE
 70
     3
  9
$SHADEDIF
 70
    70
  9
$TILEMODE
 70
     1
  9
$MAXACTVP
 70
    64
  9
$PLIMCHECK
 70
     0
  9
$PEXTMIN
 10
1.0000000000000000E+20
 20
1.0000000000000000E+20
 30
1.0000000000000000E+20
  9
$PEXTMAX
 10
-1.0000000000000000E+20
 20
-1.0000000000000000E+20
 30
-1.0000000000000000E+20
  9
$PLIMMIN
 10
0.0
 20
0.0
  9
$PLIMMAX
 10
12.0
 20
9.0
  9
$UNITMODE
 70
     0
  9
$VISRETAIN
 70
     1
  9
$PLINEGEN
 70
     0
  9
$PSLTSCALE
 70
     1
  0
ENDSEC
  0
SECTION
  2
TABLES
  0
TABLE
  2
VPORT
 70
     1
  0
VPORT
  2
*ACTIVE
 70
     0
 10
0.0
 20
0.0
 11
1.0
 21
1.0
 12
166.6903679450315963
 22
-70.6669415002750441
 13
0.0
 23
0.0
 14
1.0
 24
1.0
 15
0.0
 25
0.0
 16
0.0
 26
0.0
 36
5.1040778033513332
 17
3792.35791015625
 27
120.1806564331053977
 37
0.0
 40
46.2438694713779697
 41
2.005224660397074
 42
50.0
 43
0.0
 44
0.0
 50
0.0
 51
0.0
 71
     0
 72
   100
 73
     1
 74
     1
 75
     0
 76
     0
 77
     0
 78
     0
  0
ENDTAB
  0
TABLE
  2
LTYPE
 70
     2
  0
LTYPE
  2
CONTINUOUS
 70
     0
  3
Solid line
 72
    65
 73
     0
 40
0.0
  0
LTYPE
  2
PHANTOM2
 70
     0
  3
___ _ _ ___ _ _ ___ _ _ ___ _ _
 72
    65
 73
     6
 40
1.25
 49
0.625
 49
-0.125
 49
0.125
 49
-0.125
 49
0.125
 49
-0.125
  0
ENDTAB
  0
TABLE
  2
LAYER
 70
     2
  0
LAYER
  2
0
 70
     0
 62
   255
  6
CONTINUOUS
  0
LAYER
  2
DEFPOINTS
 70
     0
 62
     7
  6
CONTINUOUS
  0
ENDTAB
  0
TABLE
  2
STYLE
 70
     1
  0
STYLE
  2
STANDARD
 70
     0
 40
0.0
 41
0.8
 50
0.0
 71
     0
 42
0.2
  3
txt
  4

  0
ENDTAB
  0
TABLE
  2
VIEW
 70
     0
  0
ENDTAB
  0
TABLE
  2
UCS
 70
     0
  0
ENDTAB
  0
TABLE
  2
APPID
 70
     9
  0
APPID
  2
ACAD
 70
     0
  0
APPID
  2
ACAD_MLEADERVER
 70
     0
  0
APPID
  2
ACAD_EXEMPT_FROM_CAD_STANDARDS
 70
     0
  0
APPID
  2
ACAD_NAV_VCDISPLAY
 70
     0
  0
APPID
  2
ACAECLAYERSTANDARD
 70
     0
  0
APPID
  2
ACCMTRANSPARENCY
 70
     0
  0
APPID
  2
ACAD_DSTYLE_DIMJAG
 70
     0
  0
APPID
  2
ACAD_DSTYLE_DIMTALN
 70
     0
  0
APPID
  2
ACDBATTR
 70
     0
  0
ENDTAB
  0
TABLE
  2
DIMSTYLE
 70
     1
  0
DIMSTYLE
  2
STANDARD
 70
     0
  3

  4

  5

  6

  7

 40
1.0
 41
0.1875
 42
0.0625
 43
0.38
 44
0.125
 45
0.0
 46
0.0
 47
0.01
 48
0.01
140
0.15625
141
0.09
142
0.0
143
25.3999999999999986
144
1.0
145
0.0
146
1.0
147
0.09
 71
     1
 72
     0
 73
     1
 74
     1
 75
     0
 76
     0
 77
     0
 78
     4
170
     0
171
     2
172
     0
173
     0
174
     0
175
     0
176
     0
177
     0
178
     0
  0
ENDTAB
  0
ENDSEC
  0
SECTION
  2
BLOCKS
  0
BLOCK
  8
0
  2
$MODEL_SPACE
 70
     0
 10
0.0
 20
0.0
 30
0.0
  3
$MODEL_SPACE
  1

  0
ENDBLK
  5
21
  8
0
  0
BLOCK
 67
     1
  8
0
  2
$PAPER_SPACE
 70
     0
 10
0.0
 20
0.0
 30
0.0
  3
$PAPER_SPACE
  1

  0
ENDBLK
  5
1D
 67
     1
  8
0
  0
BLOCK
  8
0
  2
_FILLED
 70
     0
 10
0.0
 20
0.0
 30
0.0
  3
_FILLED
  1

  0
SOLID
  5
69B4
  8
0
  6
BYBLOCK
 62
     0
 10
0.0
 20
0.0
 30
0.0
 11
-1.0
 21
0.1666666667
 31
0.0
 12
-1.0
 22
-0.1666666667
 32
0.0
 13
-1.0
 23
-0.1666666667
 33
0.0
  0
ENDBLK
  5
69B5
  8
0
  6
BYBLOCK
 62
     0
  0
BLOCK
  8
0
  2
A$CDFAF6206
 70
     0
 10
0.0
 20
0.0
 30
0.0
  3
A$CDFAF6206
  1

  0
LINE
  5
6A0E
  8
0
 10
7.4646650085734834
 20
10.9287685970688493
 30
0.0
 11
7.4646650085734896
 21
10.8905784766688498
 31
0.0
  0
ARC
  5
6A0F
  8
0
 10
7.7269027075262349
 20
10.8926811525838598
 30
0.0
 40
0.2622461286616791
 50
180.4593995232625048
 51
217.0214027758331099
  0
LINE
  5
6A10
  8
0
 10
9.767814609867095
 20
10.9287685970688493
 30
0.0
 11
9.767814609867095
 21
10.8905433757650094
 31
0.0
  0
ARC
  5
6A11
  8
0
 10
9.5068669568548287
 20
10.8922438613003703
 30
0.0
 40
0.2609531936261092
 50
322.8847083717149076
 51
359.6266329125650145
  0
LINE
  5
6A12
  8
0
 10
7.517522606271406
 20
10.7347792678688396
 30
0.0
 11
9.7149570120691777
 21
10.7347792678688396
 31
0.0
  0
LINE
  5
6A13
  8
0
 10
7.4646650085734834
 20
10.9287685970688493
 30
0.0
 11
9.7678146123202936
 21
10.9287685970688493
 31
0.0
  0
ARC
  5
6A14
  8
0
 10
4.0826771419203629
 20
8.527951346868889
 30
0.0
 40
4.0826771653999172
 50
13.3117747050523896
 51
32.7200330051415591
  0
ARC
  5
6A15
  8
0
 10
4.0826771460567306
 20
8.5279513475907933
 30
0.0
 40
4.0826771612084691
 50
359.6656501984817851
 51
13.3117747085593798
  0
ARC
  5
6A16
  8
0
 10
13.1498041284835097
 20
8.5279508235212234
 30
0.0
 40
4.0826788382043553
 50
147.2799733478981068
 51
166.6882233021349862
  0
ARC
  5
6A17
  8
0
 10
13.1498064934207992
 20
8.5279506557033251
 30
0.0
 40
4.0826811782395342
 50
166.688228652086309
 51
180.3343397625230011
  0
LINE
  5
6A18
  8
0
 10
8.1652847935202928
 20
8.504127000268852
 30
0.0
 11
9.0671948248202892
 21
8.5041270002687881
 31
0.0
  0
LINE
  5
6A19
  8
0
 10
8.1652847935202786
 20
8.5041270002667204
 30
0.0
 11
8.1652847935202928
 21
8.3607006934688481
 31
0.0
  0
ARC
  5
6A1A
  8
0
 10
5.6196779630382627
 20
8.3631022096452732
 30
0.0
 40
2.545607963272567
 50
342.0511668832173768
 51
359.945947387132378
  0
LINE
  5
6A1B
  8
0
 10
9.0671948248202892
 20
8.5041270002687881
 30
0.0
 11
9.0671948248202892
 21
8.2885990108688503
 31
0.0
  0
ARC
  5
6A1C
  8
0
 10
9.4521885297801163
 20
7.9614488056228501
 30
0.0
 40
0.5052201595850959
 50
139.6436242991769916
 51
174.6757930071850069
  0
ARC
  5
6A1D
  8
0
 10
9.9238413395551746
 20
8.1492417579399508
 30
0.0
 40
0.9848265662939324
 50
188.2263441834095943
 51
209.5593615864376034
  0
ARC
  5
6A1E
  8
0
 10
8.0788764238271256
 20
7.5665710856463297
 30
0.0
 40
0.0393715937169877
 50
162.1669117288323037
 51
227.2023190037006088
  0
ARC
  5
6A1F
  8
0
 10
8.7223682141740682
 20
8.2079667397440517
 30
0.0
 40
0.947895137885075
 50
225.0018610752970858
 51
261.4598823366255829
  0
ARC
  5
6A20
  8
0
 10
8.6645157662702701
 20
8.1695128573935332
 30
0.0
 40
0.9027466462812931
 50
264.7303071214498118
 51
281.8608311947915013
  0
ARC
  5
6A21
  8
0
 10
8.6645157662698935
 20
8.1695128573999671
 30
0.0
 40
0.9027466462876658
 50
299.1741886792128753
 51
299.1743179154552195
  0
ARC
  5
6A22
  8
0
 10
9.0843330931590316
 20
7.4150554710086141
 30
0.0
 40
0.0393703053609601
 50
251.9700352025496954
 51
252.4698971938937859
  0
ARC
  5
6A23
  8
0
 10
9.0843330931590316
 20
7.4150554710086141
 30
0.0
 40
0.0393703053609601
 50
297.2453716727138726
 51
6.8376113572703074
  0
LINE
  5
6A24
  8
0
 10
9.0671948248202892
 20
7.663402160468852
 30
0.0
 11
9.1234233799329516
 21
7.419742732911689
 31
0.0
  0
ARC
  5
6A25
  8
0
 10
8.8843741880892395
 20
9.8961379890094676
 30
0.0
 40
2.5255097382132701
 50
263.792800240752797
 51
274.9514951129821156
  0
ARC
  5
6A26
  8
0
 10
8.8258167405968848
 20
9.2763025889666508
 30
0.0
 40
1.9029970832759311
 50
246.0108363320686067
 51
263.5276935074397215
  0
ARC
  5
6A27
  8
0
 10
8.607491361665744
 20
8.3225444804829642
 30
0.0
 40
1.064510137163637
 50
283.1717405874071005
 51
297.7022170607311864
  0
LINE
  5
6A28
  8
0
 10
9.0671948248202892
 20
8.2885990108688503
 30
0.0
 11
26.2014378595979593
 21
8.2885990108689942
 31
0.0
  0
LINE
  5
6A29
  8
0
 10
26.2014378595979913
 20
7.6634021604689053
 30
0.0
 11
9.0671948248202892
 21
7.6634021604688618
 31
0.0
  0
LINE
  5
6A2A
  8
0
 10
27.8039676758446994
 20
10.9287685970690802
 30
0.0
 11
27.8039676758446888
 21
10.8905784766690807
 31
0.0
  0
ARC
  5
6A2B
  8
0
 10
27.5417299768919399
 20
10.8926811525840801
 30
0.0
 40
0.2622461286616791
 50
322.9785972241680838
 51
359.5406004767386889
  0
LINE
  5
6A2C
  8
0
 10
25.5008180745510913
 20
10.9287685970690305
 30
0.0
 11
25.5008180745510913
 21
10.8905433757651799
 31
0.0
  0
ARC
  5
6A2D
  8
0
 10
25.7617657275633505
 20
10.8922438613005497
 30
0.0
 40
0.2609531936261092
 50
180.3733670874362929
 51
217.1152916282862861
  0
LINE
  5
6A2E
  8
0
 10
27.7511100781467803
 20
10.7347792678690706
 30
0.0
 11
25.5536756723490015
 21
10.7347792678690208
 31
0.0
  0
LINE
  5
6A2F
  8
0
 10
27.8039676758446888
 20
10.9287685970686006
 30
0.0
 11
25.5008180745510806
 21
10.9287685970686006
 31
0.0
  0
ARC
  5
6A30
  8
0
 10
31.1859555424978616
 20
8.5279513468691981
 30
0.0
 40
4.0826771653999172
 50
147.2799669948597057
 51
166.6882252949490066
  0
ARC
  5
6A31
  8
0
 10
31.185955538361501
 20
8.5279513475911024
 30
0.0
 40
4.0826771612084691
 50
166.6882252914419098
 51
180.3343498015194086
  0
ARC
  5
6A32
  8
0
 10
22.1188285559344706
 20
8.5279508235212251
 30
0.0
 40
4.0826788382046102
 50
13.3117766978667795
 51
32.7200266521023977
  0
ARC
  5
6A33
  8
0
 10
22.1188261909974315
 20
8.5279506557034264
 30
0.0
 40
4.0826811782395342
 50
359.665660237478221
 51
13.31177134791497
  0
LINE
  5
6A34
  8
0
 10
27.1033478908979397
 20
8.5041270002690652
 30
0.0
 11
26.2014378595979416
 21
8.5041270002689835
 31
0.0
  0
LINE
  5
6A35
  8
0
 10
27.1033478908979504
 20
8.5041270002669354
 30
0.0
 11
27.1033478908979397
 21
8.3607006934690649
 31
0.0
  0
ARC
  5
6A36
  8
0
 10
29.6489547213799689
 20
8.3631022096455467
 30
0.0
 40
2.545607963272567
 50
180.0540526128687873
 51
197.9488331167837032
  0
LINE
  5
6A37
  8
0
 10
26.2014378595979416
 20
8.5041270002689835
 30
0.0
 11
26.2014378595979487
 21
8.2885990108690457
 31
0.0
  0
ARC
  5
6A38
  8
0
 10
25.8164441546381305
 20
7.9614488056230366
 30
0.0
 40
0.5052201595850959
 50
5.324206992816312
 51
40.3563757008241879
  0
ARC
  5
6A39
  8
0
 10
25.3447913448601803
 20
8.149241757940846
 30
0.0
 40
0.9848265662968968
 50
330.4406384136033807
 51
351.7736558165743759
  0
ARC
  5
6A3A
  8
0
 10
27.1897562605911212
 20
7.5665710856465473
 30
0.0
 40
0.0393715937169877
 50
312.7976809963004143
 51
17.8330882711689185
  0
ARC
  5
6A3B
  8
0
 10
26.5462644702441715
 20
8.2079667397442542
 30
0.0
 40
0.947895137885075
 50
278.5401176633754972
 51
314.9981389247041079
  0
ARC
  5
6A3C
  8
0
 10
26.6041169181479695
 20
8.1695128573937392
 30
0.0
 40
0.9027466462812931
 50
258.139168805210204
 51
275.2696928785518935
  0
ARC
  5
6A3D
  8
0
 10
26.6041169181483497
 20
8.1695128574001732
 30
0.0
 40
0.9027466462876658
 50
240.8256820845460027
 51
240.8258113207880058
  0
ARC
  5
6A3E
  8
0
 10
26.1842995912592293
 20
7.4150554710088086
 30
0.0
 40
0.0393703053609601
 50
287.5301028061073794
 51
288.0299647974517825
  0
ARC
  5
6A3F
  8
0
 10
26.1842995912592293
 20
7.4150554710088086
 30
0.0
 40
0.0393703053609601
 50
173.1623886427310026
 51
242.7546283272870085
  0
LINE
  5
6A40
  8
0
 10
26.2014378595981192
 20
7.6634021604690448
 30
0.0
 11
26.1452093044853093
 21
7.4197427329118826
 31
0.0
  0
ARC
  5
6A41
  8
0
 10
26.384258496328961
 20
9.8961379890096666
 30
0.0
 40
2.5255097382132701
 50
265.0485048870193054
 51
276.2071997592482262
  0
ARC
  5
6A42
  8
0
 10
26.4428159438213299
 20
9.2763025889668516
 30
0.0
 40
1.9029970832759311
 50
276.4723064925619838
 51
293.9891636679327007
  0
ARC
  5
6A43
  8
0
 10
26.6611413227524885
 20
8.3225444804831703
 30
0.0
 40
1.064510137163637
 50
242.2977829392704052
 51
256.8282594125943774
  0
LINE
  5
6A44
  8
0
 62
     4
 10
17.9031473532159602
 20
10.9287685970686006
 30
0.0
 11
24.6329820359843588
 21
20.0952817181593808
 31
0.0
  0
LINE
  5
6A45
  8
0
 62
     4
 10
17.9031473532159602
 20
-0.0000000300842942
 30
0.0
 11
22.3963351323106608
 21
4.993614497796286
 31
0.0
  0
ENDBLK
  5
6A49
  8
0
  0
ENDSEC
  0
SECTION
  2
ENTITIES
  0
ATTDEF
  5
3930
  8
DEFPOINTS
 10
3944.6451472466219457
 20
55.8989112137050981
 30
0.0
 40
0.001
  1
K-72817T-4
  3

  2
MODELNUMBER
 70
     0
1001
ACDBATTR
1070
     0
1070
     1
  0
ATTDEF
  5
3931
  8
DEFPOINTS
 10
3944.6451472466219457
 20
55.89724454703844
 30
0.0
 40
0.001
  1
MODULO
  3

  2
TRADENAME
 70
     0
1001
ACDBATTR
1070
     0
1070
     1
  0
ATTDEF
  5
3932
  8
DEFPOINTS
 10
3944.6451472466219457
 20
55.8955778803717678
 30
0.0
 40
0.001
  1
VALVE TRIM
  3

  2
PRODUCT
 70
     0
1001
ACDBATTR
1070
     0
1070
     1
  0
LINE
  5
74F1
  8
0
 10
3941.1014296044081675
 20
55.8967831121314731
 30
0.0
 11
3948.1880497538049895
 21
55.8967831121314802
 31
0.0
  0
LINE
  5
74F2
  8
0
 10
3948.1880497538049895
 20
55.8967831121314802
 30
0.0
 11
3948.1782807876647894
 21
55.617070573231473
 31
0.0
  0
ARC
  5
74F3
  8
0
 10
3948.0602425008901264
 20
55.6211925611096021
 30
0.0
 40
0.118110236378147
 50
270.0000000851480877
 51
357.9999999650844984
  0
ARC
  5
74F4
  8
0
 10
3948.0139934464341422
 20
55.4046571281461908
 30
0.0
 40
0.098425196585275
 50
89.9999998651908868
 51
141.9321667499175987
  0
ARC
  5
74F5
  8
0
 10
3948.0139934466651539
 20
55.4046571279314577
 30
0.0
 40
0.0984251968999702
 50
141.9321667346198979
 51
174.7840908006463962
  0
ARC
  5
74F6
  8
0
 10
3947.7983546444997955
 20
55.4243421673808285
 30
0.0
 40
0.1181102362805954
 50
312.3920457220605158
 51
354.7840913603640161
  0
ARC
  5
74F7
  8
0
 10
3947.7983546441691942
 20
55.4243421679705506
 30
0.0
 40
0.1181102369390921
 50
270.0000002027347819
 51
312.3920456476574827
  0
LINE
  5
74F8
  8
0
 10
3947.7983546445661887
 20
55.3062319311314567
 30
0.0
 11
3941.4911284316431193
 21
55.3062319310314692
 31
0.0
  0
LINE
  5
74F9
  8
0
 10
3941.1014296044081675
 20
55.8967831121314731
 30
0.0
 11
3941.1112021686658409
 21
55.617070573231473
 31
0.0
  0
ARC
  5
74FA
  8
0
 10
3941.2292404554809764
 20
55.6211925605155315
 30
0.0
 40
0.1181102363624626
 50
181.999999747406406
 51
270.0000265319122832
  0
LINE
  5
74FB
  8
0
 10
3941.2292405101748045
 20
55.5030823242530786
 30
0.0
 11
3948.0602425010652041
 21
55.5030823247314729
 31
0.0
  0
ARC
  5
74FC
  8
0
 10
3941.2754895096600194
 20
55.4046571271803074
 30
0.0
 40
0.0984251970806122
 50
38.0678529073167766
 51
89.9999999584942145
  0
ARC
  5
74FD
  8
0
 10
3941.2754895112038867
 20
55.4046571281960709
 30
0.0
 40
0.0984251952394869
 50
5.2159084615007032
 51
38.0678529956393277
  0
ARC
  5
74FE
  8
0
 10
3941.4911283120982262
 20
55.4243421669876497
 30
0.0
 40
0.1181102365106005
 50
185.2159084379264016
 51
227.60795426675719
  0
ARC
  5
74FF
  8
0
 10
3941.4911283122419263
 20
55.4243421674369401
 30
0.0
 40
0.1181102369395396
 50
227.6079543620832908
 51
270.0000579115330765
  0
ARC
  5
7500
  8
0
 10
3943.799590842750149
 20
54.5594162828066231
 30
0.0
 40
0.020941616002517
 50
183.3284032436382063
 51
266.4260053346438895
  0
ARC
  5
7501
  8
0
 10
3943.788526609829205
 20
54.4814288680071002
 30
0.0
 40
0.0098424334107112
 50
89.9861790338109131
 51
180.5005084000854083
  0
ARC
  5
7502
  8
0
 10
3943.9833206483149297
 20
54.4794633086080466
 30
0.0
 40
0.0078709908492218
 50
89.9277663991743452
 51
180.0220645130887931
  0
ARC
  5
7503
  8
0
 10
3944.0148159953978393
 20
52.9655154846714495
 30
0.0
 40
0.0393663375020644
 50
179.9949508498301043
 51
260.7050905783069084
  0
ARC
  5
7504
  8
0
 10
3944.0745878875950439
 20
52.8567495442689932
 30
0.0
 40
0.0590431586905746
 50
6.8481953526301753
 51
81.8071984875155067
  0
ARC
  5
7505
  8
0
 10
3944.171836147499107
 20
52.868029066410557
 30
0.0
 40
0.0388582757307158
 50
186.2631799530130934
 51
263.6295856874696142
  0
ARC
  5
7506
  8
0
 10
3943.877538046599966
 20
52.778672886133883
 30
0.0
 40
0.059055107983435
 50
0.4999902018898047
 51
90.0000097661043554
  0
ARC
  5
7507
  8
0
 10
3943.9762667745430917
 20
52.7592988270617624
 30
0.0
 40
0.0396812674219233
 50
180.9451549243580075
 51
269.818912830299098
  0
ARC
  5
7508
  8
0
 10
3944.3306269182508004
 20
52.6800237376033635
 30
0.0
 40
0.1324985875494988
 50
48.4838702232944883
 51
85.5740092075529049
  0
ARC
  5
7509
  8
0
 10
3944.3306269183331096
 20
52.6800237377314318
 30
0.0
 40
0.1324985874001125
 50
17.4005177139356704
 51
48.48387021272044
  0
ARC
  5
750A
  8
0
 10
3944.3251876756248748
 20
52.6801000468527221
 30
0.0
 40
0.1376765860956243
 50
341.7139241609600049
 51
16.6932657857479683
  0
ARC
  5
750B
  8
0
 10
3944.3256121579711362
 20
52.683181750441868
 30
0.0
 40
0.1382743067239605
 50
315.1482448492470212
 51
340.4461722143444717
  0
ARC
  5
750C
  8
0
 10
3944.6448670348208907
 20
52.3612636325447696
 30
0.0
 40
0.3151118971580857
 50
134.5925298728105872
 51
179.268415265121007
  0
ARC
  5
750D
  8
0
 10
3944.6447557240999231
 20
52.3613884372244627
 30
0.0
 40
0.3149990261380037
 50
179.290855866780106
 51
269.9973087120329751
  0
LINE
  5
750E
  8
0
 10
3943.9754496580380874
 20
55.3062319310708617
 30
0.0
 11
3943.9754496580499108
 21
54.5582004350314591
 31
0.0
  0
LINE
  5
750F
  8
0
 10
3943.9754496580499108
 20
54.5582004350314591
 30
0.0
 11
3943.9951351553340828
 21
54.5385153956314568
 31
0.0
  0
LINE
  5
7510
  8
0
 10
3943.8671823994341139
 20
54.5385153956314568
 30
0.0
 11
3943.8671823994341139
 21
54.491271301131448
 31
0.0
  0
LINE
  5
7511
  8
0
 10
3944.0640327931341744
 20
54.5385153956314568
 30
0.0
 11
3944.0640327931341744
 21
54.487334293231477
 31
0.0
  0
LINE
  5
7512
  8
0
 10
3943.9754496580499108
 20
54.4794602775021417
 30
0.0
 11
3943.9754496580499108
 21
52.9655189538022029
 31
0.0
  0
LINE
  5
7513
  8
0
 10
3944.1675245976830411
 20
52.8294107271022
 30
0.0
 11
3944.3408536172100867
 21
52.812127033716969
 31
0.0
  0
LINE
  5
7514
  8
0
 10
3943.7786845519508461
 20
55.3062319310677282
 30
0.0
 11
3943.7786845519508461
 21
54.5582004350386498
 31
0.0
  0
ARC
  5
7515
  8
0
 10
3945.4901542835200416
 20
54.5591512701865113
 30
0.0
 40
0.02066241177791
 50
272.8940559492115767
 51
357.3624527311523025
  0
ARC
  5
7516
  8
0
 10
3945.500952594915816
 20
54.4814287159985682
 30
0.0
 40
0.0098425852980272
 50
359.5004509385331062
 51
89.9895042474037439
  0
ARC
  5
7517
  8
0
 10
3945.3061546076860395
 20
54.4794555031712591
 30
0.0
 40
0.0078786488449879
 50
0.0347202971661336
 51
90.049126440164045
  0
ARC
  5
7518
  8
0
 10
3945.2746567858889648
 20
52.9655247449737701
 30
0.0
 40
0.0393764696212982
 50
279.300314754683825
 51
359.9915734017366162
  0
ARC
  5
7519
  8
0
 10
3945.4574231554461221
 20
52.8770980736319913
 30
0.0
 40
0.0393700803853512
 50
269.9885597694096191
 51
359.4999988408471268
  0
ARC
  5
751A
  8
0
 10
3945.2148901804471279
 20
52.8567494203168877
 30
0.0
 40
0.0590431581418813
 50
98.1941057978315968
 51
173.1517923466275022
  0
ARC
  5
751B
  8
0
 10
3945.1176419235221147
 20
52.8680289633928595
 30
0.0
 40
0.0388582757306646
 50
276.3704628325947965
 51
353.7368075656398219
  0
ARC
  5
751C
  8
0
 10
3945.4120722995221513
 20
52.7783628122055504
 30
0.0
 40
0.0593653193830254
 50
90.123342521398925
 51
179.2033386949478029
  0
ARC
  5
751D
  8
0
 10
3945.3133437272072115
 20
52.7589882519603179
 30
0.0
 40
0.0393704941310214
 50
270.0005993311477255
 51
359.499400535493578
  0
ARC
  5
751E
  8
0
 10
3944.9588395590699292
 20
52.6800503715486315
 30
0.0
 40
0.1324710376918712
 50
94.4225872036035128
 51
134.0277157015426894
  0
ARC
  5
751F
  8
0
 10
3944.9293685820189239
 20
52.6961829889577231
 30
0.0
 40
0.1008837147965416
 50
128.3518436049913021
 51
166.5504766783076889
  0
ARC
  5
7520
  8
0
 10
3944.9814356053238953
 20
52.6822199332407308
 30
0.0
 40
0.1547774387619023
 50
166.0063294525029107
 51
195.6480234107615104
  0
ARC
  5
7521
  8
0
 10
3944.9588625561241315
 20
52.6800283223133903
 30
0.0
 40
0.1325096111886274
 50
197.3684049043015989
 51
225.4109131651941027
  0
ARC
  5
7522
  8
0
 10
3944.6445826406470587
 20
52.3612445110744531
 30
0.0
 40
0.3151453718716723
 50
0.7349712573421544
 51
45.4062362797816874
  0
ARC
  5
7523
  8
0
 10
3944.6447211383101603
 20
52.3613944084529379
 30
0.0
 40
0.3150049976406084
 50
270.0035995196220142
 51
0.708032028094515
  0
LINE
  5
7524
  8
0
 10
3945.3140332550728999
 20
55.3062319310920714
 30
0.0
 11
3945.3140332550851781
 21
54.5582002892323032
 31
0.0
  0
LINE
  5
7525
  8
0
 10
3945.3140332550851781
 20
54.5582002892323032
 30
0.0
 11
3945.2943477536341561
 21
54.5385152541205329
 31
0.0
  0
LINE
  5
7526
  8
0
 10
3945.422300509534125
 20
54.538515226247128
 30
0.0
 11
3945.4223004992418282
 21
54.4912711317471619
 31
0.0
  0
LINE
  5
7527
  8
0
 10
3945.225450115834974
 20
54.5385152691292419
 30
0.0
 11
3945.2254501046850237
 21
54.487334293231477
 31
0.0
  0
LINE
  5
7528
  8
0
 10
3945.3140332550851781
 20
54.4794602775021914
 30
0.0
 11
3945.3140332550851781
 21
52.9655189538021816
 31
0.0
  0
LINE
  5
7529
  8
0
 10
3945.1219535060417911
 20
52.8294106277356903
 30
0.0
 11
3944.948624441633001
 21
52.8121269675182603
 31
0.0
  0
LINE
  5
752A
  8
0
 10
3945.5107948061017851
 20
55.3062319310951906
 30
0.0
 11
3945.5107948061140632
 21
54.5582004350314804
 31
0.0
  0
LINE
  5
752B
  8
0
 10
3944.0084576964818552
 20
52.926666024402202
 30
0.0
 11
3944.0830018081119306
 21
52.9151901169021883
 31
0.0
  0
LINE
  5
752C
  8
0
 10
3944.1675245976830411
 20
52.8294107271022
 30
0.0
 11
3945.1219535060417911
 21
52.8294106277356903
 31
0.0
  0
LINE
  5
752D
  8
0
 10
3943.8320579764349532
 20
52.8377279941314768
 30
0.0
 11
3944.1477345804319157
 21
52.8377279940314821
 31
0.0
  0
LINE
  5
752E
  8
0
 10
3943.976141359434223
 20
52.7196177578314504
 30
0.0
 11
3944.4570620558752125
 21
52.7196473627243378
 31
0.0
  0
LINE
  5
752F
  8
0
 10
3943.7982853941589383
 20
54.5385153956314568
 30
0.0
 11
3945.491197514833857
 21
54.5385152112385398
 31
0.0
  0
LINE
  5
7530
  8
0
 10
3943.9754496580499108
 20
54.5582004350314591
 30
0.0
 11
3945.3140332550851781
 21
54.5582002892323032
 31
0.0
  0
LINE
  5
7531
  8
0
 10
3945.2064749296650916
 20
52.9151898008567301
 30
0.0
 11
3945.2810203873118553
 21
52.9266658857939802
 31
0.0
  0
LINE
  5
7532
  8
0
 10
3945.1419692096119434
 20
52.8377279940314821
 30
0.0
 11
3945.4574152944342131
 21
52.8377279940314608
 31
0.0
  0
LINE
  5
7533
  8
0
 10
3945.3133441390341432
 20
52.7196177578314504
 30
0.0
 11
3944.8312446084710245
 21
52.719621143038367
 31
0.0
  0
CIRCLE
  5
7534
  8
0
 10
3944.6447392170821331
 20
52.3613500412021793
 30
0.0
 40
0.1771653542999996
  0
LINE
  5
7535
  8
0
 10
3944.0084576964809457
 20
52.9266660244024081
 30
0.0
 11
3945.2810203873118553
 21
52.9266658857939731
 31
0.0
  0
LINE
  5
7536
  8
0
 10
3945.5107948061140632
 20
54.4813429017903417
 30
0.0
 11
3945.4967917367321206
 21
52.8767545084314676
 31
0.0
  0
ARC
  5
7537
  8
0
 10
3943.8320562010007961
 20
52.8770980728605196
 30
0.0
 40
0.0393700787690827
 50
180.5000000414885903
 51
270.0025838104285754
  0
LINE
  5
7538
  8
0
 10
3943.7786845519508461
 20
54.4813428903314474
 30
0.0
 11
3943.7926876213241485
 21
52.8767545084420618
 31
0.0
  0
LINE
  5
7539
  8
0
 10
3945.3527127186339385
 20
52.7791882225314666
 30
0.0
 11
3945.352712718634848
 21
52.7586442722170119
 31
0.0
  0
LINE
  5
753A
  8
0
 10
3943.9365909059961268
 20
52.7791882225314666
 30
0.0
 11
3943.9365909060361446
 21
52.7586442719675475
 31
0.0
  0
LINE
  5
753B
  8
0
 10
3943.7885289840342011
 20
54.4912713011314622
 30
0.0
 11
3944.0640327931341744
 21
54.491271301131448
 31
0.0
  0
LINE
  5
753C
  8
0
 10
3943.9833305713818845
 20
54.4873342932022027
 30
0.0
 11
3945.3061478523900405
 21
54.4873341491202012
 31
0.0
  0
LINE
  5
753D
  8
0
 10
3945.2254501055422224
 20
54.4912713011314693
 30
0.0
 11
3945.5009543979340378
 21
54.491271301131448
 31
0.0
  0
ARC
  5
753E
  8
0
 10
3944.3382675046891563
 20
52.2629310959828928
 30
0.0
 40
0.0354264599339099
 50
101.7145441841760061
 51
139.2297034486580003
  0
ARC
  5
753F
  8
0
 10
3944.3230803836231644
 20
52.3361676232985573
 30
0.0
 40
0.0393681761083989
 50
281.7162206649185805
 51
289.1592785217933965
  0
ARC
  5
7540
  8
0
 10
3944.2964204117620284
 20
52.2990826363158234
 30
0.0
 40
0.0198737911878179
 50
290.2874519889650173
 51
319.0813639400967077
  0
ARC
  5
7541
  8
0
 10
3944.3155157066321408
 20
52.2471768129314924
 30
0.0
 40
0.0354330708999968
 50
110.1474143917937027
 51
181.0000000733163859
  0
ARC
  5
7542
  8
0
 10
3944.3279544590391197
 20
51.7601465817188
 30
0.0
 40
0.0393700791079012
 50
181.0000001236338107
 51
225.4999997167905974
  0
ARC
  5
7543
  8
0
 10
3944.3590553965318577
 20
51.7295837751314806
 30
0.0
 40
0.0393700786999996
 50
225.5000002124733953
 51
270.0
  0
ARC
  5
7544
  8
0
 10
3944.3806803569250405
 20
51.6803711767263891
 30
0.0
 40
0.0098425197081204
 50
19.4712206491496005
 51
89.9999999683690959
  0
ARC
  5
7545
  8
0
 10
3944.4085192065481351
 20
51.6902136964436281
 30
0.0
 40
0.0196850394191942
 50
199.4712207447443859
 51
270.0015326886762068
  0
LINE
  5
7546
  8
0
 10
3944.3003596057169489
 20
51.7320658552482513
 30
0.0
 11
3944.3314605436157763
 21
51.7015030487473695
 31
0.0
  0
LINE
  5
7547
  8
0
 10
3944.2885903761848567
 20
51.7594594790314773
 30
0.0
 11
3944.2800880324321042
 21
52.2465584205314784
 31
0.0
  0
ARC
  5
7548
  8
0
 10
3944.3788643876391689
 20
52.7097567455250413
 30
0.0
 40
0.0098858945062719
 50
90.249472686734066
 51
178.8971919459289097
  0
ARC
  5
7549
  8
0
 10
3944.9106531168590664
 20
52.7097731346210381
 30
0.0
 40
0.0098474520094159
 50
1.011739891868481
 51
89.9715123069945406
  0
LINE
  5
754A
  8
0
 10
3944.365436431588023
 20
52.5069175320498189
 30
0.0
 11
3944.3689803243319147
 21
52.7099470137829584
 31
0.0
  0
LINE
  5
754B
  8
0
 10
3944.9204990336688752
 20
52.7099470137856869
 30
0.0
 11
3944.9240429264291379
 21
52.5069175321416211
 31
0.0
  0
LINE
  5
754C
  8
0
 10
3944.3033112561852249
 20
52.2804417179017307
 30
0.0
 11
3944.3403349378531857
 21
52.2804417179017307
 31
0.0
  0
ARC
  5
754D
  8
0
 10
3944.9512445811901671
 20
52.263015942264083
 30
0.0
 40
0.0353367391080819
 50
39.7578127723490269
 51
78.3094846279424104
  0
ARC
  5
754E
  8
0
 10
3944.9663994228349111
 20
52.3361694812789509
 30
0.0
 40
0.0393700864010852
 50
250.8444340248537969
 51
258.2836890324970796
  0
ARC
  5
754F
  8
0
 10
3944.9936455778911295
 20
52.2984562293829498
 30
0.0
 40
0.0199252491178453
 50
220.1247017332268001
 51
247.9408879958957073
  0
ARC
  5
7550
  8
0
 10
3944.9726940164368898
 20
52.2471624371574705
 30
0.0
 40
0.035482641387093
 50
359.0246140652957934
 51
67.6925493269372112
  0
ARC
  5
7551
  8
0
 10
3944.9603050895161687
 20
51.7601465820269482
 30
0.0
 40
0.0393700794748367
 50
314.500000484709517
 51
358.9999995941876136
  0
ARC
  5
7552
  8
0
 10
3944.9291260245699959
 20
51.7297004035402992
 30
0.0
 40
0.0395080330064034
 50
271.8826471951130088
 51
314.4622629662155191
  0
ARC
  5
7553
  8
0
 10
3944.9087990010289104
 20
51.6803711768057497
 30
0.0
 40
0.0098425196999976
 50
90.0000000161020495
 51
160.5287793816387989
  0
ARC
  5
7554
  8
0
 10
3944.8809601514108181
 20
51.6902136965100709
 30
0.0
 40
0.0196850394191942
 50
269.9984673274258853
 51
340.5287792713691033
  0
LINE
  5
7555
  8
0
 10
3944.9878999431939519
 20
51.7320658553917312
 30
0.0
 11
3944.9567990052669302
 21
51.7015030487657086
 31
0.0
  0
LINE
  5
7556
  8
0
 10
3944.9996691727328653
 20
51.7594594791393519
 30
0.0
 11
3945.0081715163319132
 21
52.2465584206314801
 31
0.0
  0
LINE
  5
7557
  8
0
 10
3944.9861623921819955
 20
52.2799895706692581
 30
0.0
 11
3944.9491444199397847
 21
52.2804417179873369
 31
0.0
  0
LINE
  5
7558
  8
0
 10
3944.3590637857319052
 20
51.6902136964314707
 30
0.0
 11
3944.9304239614270955
 21
51.6902136965118331
 31
0.0
  0
LINE
  5
7559
  8
0
 10
3944.408519733131925
 20
51.6705286570314826
 30
0.0
 11
3944.8809596248320304
 21
51.6705286570314826
 31
0.0
  0
LINE
  5
755A
  8
0
 10
3944.288590376132106
 20
51.7594594790918023
 30
0.0
 11
3944.9996691727328653
 21
51.7594594791393519
 31
0.0
  0
ENDSEC
  0
EOF
