  0
SECTION
  2
HEADER
  9
$ACADVER
  1
AC1009
  9
$INSBASE
 10
568.256273872971633
 20
106.7634166686555943
 30
0.0
  9
$EXTMIN
 10
562.0467786867378663
 20
105.3854209274845033
 30
-0.0000000000000058
  9
$EXTMAX
 10
574.4922998468451851
 20
108.1486804916553979
 30
0.0000000000000104
  9
$LIMMIN
 10
0.0
 20
0.0
  9
$LIMMAX
 10
11.6929133858000007
 20
8.2677165353999982
  9
$ORTHOMODE
 70
     0
  9
$REGENMODE
 70
     1
  9
$FILLMODE
 70
     1
  9
$QTEXTMODE
 70
     0
  9
$MIRRTEXT
 70
     0
  9
$DRAGMODE
 70
     2
  9
$LTSCALE
 40
0.6431102362
  9
$OSMODE
 70
  4095
  9
$ATTMODE
 70
     1
  9
$TEXTSIZE
 40
0.2
  9
$TRACEWID
 40
0.05
  9
$TEXTSTYLE
  7
STANDARD
  9
$CLAYER
  8
0
  9
$CELTYPE
  6
BYLAYER
  9
$CECOLOR
 62
   256
  9
$DIMSCALE
 40
1.0
  9
$DIMASZ
 40
0.1875
  9
$DIMEXO
 40
0.0625
  9
$DIMDLI
 40
0.4443307087
  9
$DIMRND
 40
0.0
  9
$DIMDLE
 40
0.0
  9
$DIMEXE
 40
0.125
  9
$DIMTP
 40
0.01
  9
$DIMTM
 40
0.01
  9
$DIMTXT
 40
1.0
  9
$DIMCEN
 40
0.1052362205
  9
$DIMTSZ
 40
0.0
  9
$DIMTOL
 70
     1
  9
$DIMLIM
 70
     0
  9
$DIMTIH
 70
     0
  9
$DIMTOH
 70
     1
  9
$DIMSE1
 70
     0
  9
$DIMSE2
 70
     0
  9
$DIMTAD
 70
     0
  9
$DIMZIN
 70
     0
  9
$DIMBLK
  1

  9
$DIMASO
 70
     1
  9
$DIMSHO
 70
     1
  9
$DIMPOST
  1
\X
  9
$DIMAPOST
  1

  9
$DIMALT
 70
     1
  9
$DIMALTD
 70
     2
  9
$DIMALTF
 40
25.3999999999999986
  9
$DIMLFAC
 40
1.0
  9
$DIMTOFL
 70
     0
  9
$DIMTVP
 40
0.0
  9
$DIMTIX
 70
     0
  9
$DIMSOXD
 70
     0
  9
$DIMSAH
 70
     0
  9
$DIMBLK1
  1

  9
$DIMBLK2
  1

  9
$DIMSTYLE
  2
STANDARD
  9
$DIMCLRD
 70
     0
  9
$DIMCLRE
 70
     0
  9
$DIMCLRT
 70
     0
  9
$DIMTFAC
 40
1.0
  9
$DIMGAP
 40
0.09
  9
$LUNITS
 70
     2
  9
$LUPREC
 70
     4
  9
$SKETCHINC
 40
0.1
  9
$FILLETRAD
 40
0.0
  9
$AUNITS
 70
     0
  9
$AUPREC
 70
     0
  9
$MENU
  1
.
  9
$ELEVATION
 40
0.0
  9
$PELEVATION
 40
0.0
  9
$THICKNESS
 40
0.0
  9
$LIMCHECK
 70
     0
  9
$BLIPMODE
 70
     0
  9
$CHAMFERA
 40
0.0
  9
$CHAMFERB
 40
0.0
  9
$SKPOLY
 70
     0
  9
$TDCREATE
 40
2458172.5207638889551163
  9
$TDUPDATE
 40
2459093.5408449079841375
  9
$TDINDWG
 40
0.3544567361
  9
$TDUSRTIMER
 40
0.3544567361
  9
$USRTIMER
 70
     1
  9
$ANGBASE
 50
0.0
  9
$ANGDIR
 70
     0
  9
$PDMODE
 70
     0
  9
$PDSIZE
 40
0.3125
  9
$PLINEWID
 40
0.0
  9
$COORDS
 70
     1
  9
$SPLFRAME
 70
     0
  9
$SPLINETYPE
 70
     6
  9
$SPLINESEGS
 70
     8
  9
$ATTDIA
 70
     1
  9
$ATTREQ
 70
     1
  9
$HANDLING
 70
     1
  9
$HANDSEED
  5
99B3
  9
$SURFTAB1
 70
     6
  9
$SURFTAB2
 70
     6
  9
$SURFTYPE
 70
     6
  9
$SURFU
 70
     6
  9
$SURFV
 70
     6
  9
$UCSNAME
  2

  9
$UCSORG
 10
0.0
 20
0.0
 30
0.0
  9
$UCSXDIR
 10
1.0
 20
0.0
 30
0.0
  9
$UCSYDIR
 10
0.0
 20
1.0
 30
0.0
  9
$PUCSNAME
  2

  9
$PUCSORG
 10
0.0
 20
0.0
 30
0.0
  9
$PUCSXDIR
 10
1.0
 20
0.0
 30
0.0
  9
$PUCSYDIR
 10
0.0
 20
1.0
 30
0.0
  9
$USERI1
 70
     0
  9
$USERI2
 70
     0
  9
$USERI3
 70
     0
  9
$USERI4
 70
     0
  9
$USERI5
 70
     0
  9
$USERR1
 40
0.0
  9
$USERR2
 40
0.0
  9
$USERR3
 40
0.0
  9
$USERR4
 40
0.0
  9
$USERR5
 40
0.0
  9
$WORLDVIEW
 70
     1
  9
$SHADEDGE
 70
     3
  9
$SHADEDIF
 70
    70
  9
$TILEMODE
 70
     1
  9
$MAXACTVP
 70
    64
  9
$PLIMCHECK
 70
     0
  9
$PEXTMIN
 10
1.0000000000000000E+20
 20
1.0000000000000000E+20
 30
1.0000000000000000E+20
  9
$PEXTMAX
 10
-1.0000000000000000E+20
 20
-1.0000000000000000E+20
 30
-1.0000000000000000E+20
  9
$PLIMMIN
 10
0.0
 20
0.0
  9
$PLIMMAX
 10
12.0
 20
9.0
  9
$UNITMODE
 70
     0
  9
$VISRETAIN
 70
     1
  9
$PLINEGEN
 70
     0
  9
$PSLTSCALE
 70
     1
  0
ENDSEC
  0
SECTION
  2
TABLES
  0
TABLE
  2
VPORT
 70
     1
  0
VPORT
  2
*ACTIVE
 70
     0
 10
0.0
 20
0.0
 11
1.0
 21
1.0
 12
101.5273375589615057
 22
17.6339035896402301
 13
0.0
 23
0.0
 14
1.0
 24
1.0
 15
0.0
 25
0.0
 16
0.0
 26
0.0
 36
24.1179433675886514
 17
466.74220170783002
 27
89.133147119929788
 37
0.0
 40
4.712246824190383
 41
2.6528599605522678
 42
50.0
 43
0.0
 44
0.0
 50
0.0
 51
0.0
 71
     0
 72
   100
 73
     1
 74
     1
 75
     0
 76
     0
 77
     0
 78
     0
  0
ENDTAB
  0
TABLE
  2
LTYPE
 70
     2
  0
LTYPE
  2
CONTINUOUS
 70
     0
  3
Solid line
 72
    65
 73
     0
 40
0.0
  0
LTYPE
  2
PHANTOM2
 70
     0
  3
___ _ _ ___ _ _ ___ _ _ ___ _ _
 72
    65
 73
     6
 40
1.25
 49
0.625
 49
-0.125
 49
0.125
 49
-0.125
 49
0.125
 49
-0.125
  0
ENDTAB
  0
TABLE
  2
LAYER
 70
     2
  0
LAYER
  2
0
 70
     0
 62
   255
  6
CONTINUOUS
  0
LAYER
  2
DEFPOINTS
 70
     0
 62
     7
  6
CONTINUOUS
  0
ENDTAB
  0
TABLE
  2
STYLE
 70
     1
  0
STYLE
  2
STANDARD
 70
     0
 40
0.0
 41
0.8
 50
0.0
 71
     0
 42
0.2
  3
txt
  4

  0
ENDTAB
  0
TABLE
  2
VIEW
 70
     0
  0
ENDTAB
  0
TABLE
  2
UCS
 70
     0
  0
ENDTAB
  0
TABLE
  2
APPID
 70
    11
  0
APPID
  2
ACAD
 70
     0
  0
APPID
  2
ACAD_MLEADERVER
 70
     0
  0
APPID
  2
ACAD_EXEMPT_FROM_CAD_STANDARDS
 70
     0
  0
APPID
  2
ACAD_DSTYLE_DIMJAG
 70
     0
  0
APPID
  2
ACAD_DSTYLE_DIMTALN
 70
     0
  0
APPID
  2
ACAD_NAV_VCDISPLAY
 70
     0
  0
APPID
  2
ACAECLAYERSTANDARD
 70
     0
  0
APPID
  2
ACCMTRANSPARENCY
 70
     0
  0
APPID
  2
DCO15
 70
     0
  0
APPID
  2
ACDBATTR
 70
     0
  0
APPID
  2
ACADANNOTATIVE
 70
     0
  0
ENDTAB
  0
TABLE
  2
DIMSTYLE
 70
     1
  0
DIMSTYLE
  2
STANDARD
 70
     0
  3

  4

  5

  6

  7

 40
1.0
 41
0.1875
 42
0.0625
 43
0.38
 44
0.125
 45
0.0
 46
0.0
 47
0.01
 48
0.01
140
0.15625
141
0.09
142
0.0
143
25.3999999999999986
144
1.0
145
0.0
146
1.0
147
0.09
 71
     1
 72
     0
 73
     1
 74
     1
 75
     0
 76
     0
 77
     0
 78
     4
170
     0
171
     2
172
     0
173
     0
174
     0
175
     0
176
     0
177
     0
178
     0
  0
ENDTAB
  0
ENDSEC
  0
SECTION
  2
BLOCKS
  0
BLOCK
  8
0
  2
$MODEL_SPACE
 70
     0
 10
0.0
 20
0.0
 30
0.0
  3
$MODEL_SPACE
  1

  0
ENDBLK
  5
21
  8
0
  0
BLOCK
 67
     1
  8
0
  2
$PAPER_SPACE
 70
     0
 10
0.0
 20
0.0
 30
0.0
  3
$PAPER_SPACE
  1

  0
ENDBLK
  5
1D
 67
     1
  8
0
  0
ENDSEC
  0
SECTION
  2
ENTITIES
  0
ATTDEF
  5
829
  8
DEFPOINTS
 10
568.2527129190217465
 20
106.7680575769359024
 30
0.0
 40
0.001
  1
K-72830T-L
  3

  2
MODELNUMBER
 70
     0
1001
ACDBATTR
1070
     0
1070
     1
  0
ATTDEF
  5
82A
  8
DEFPOINTS
 10
568.2527129190217465
 20
106.7663909102691946
 30
0.0
 40
0.001
  1
BEITOU
  3

  2
TRADENAME
 70
     0
1001
ACDBATTR
1070
     0
1070
     1
  0
ATTDEF
  5
82B
  8
DEFPOINTS
 10
568.2527129190217465
 20
106.764724243602501
 30
0.0
 40
0.001
  1
SHOWERHEAD
  3

  2
PRODUCT
 70
     0
1001
ACDBATTR
1070
     0
1070
     1
  0
LINE
  5
9820
  8
0
 10
562.0554864714215455
 20
108.1216694245556056
 30
0.0
 11
562.0554864714215455
 21
105.4051639127555973
 31
0.0
  0
ARC
  5
9821
  8
0
 10
562.0751864714216026
 20
108.1216694245556056
 30
0.0
 40
0.0197
 50
90.0
 51
180.0
  0
LINE
  5
9822
  8
0
 10
562.7281001631215531
 20
107.0062423469556023
 30
0.0
 11
562.7281001631215531
 21
106.5717720926556069
 31
0.0
  0
LINE
  5
9823
  8
0
 10
562.7405339458216531
 20
106.9938085642556018
 30
0.0
 11
562.7405339458216531
 21
106.584205875455595
 31
0.0
  0
ARC
  5
9824
  8
0
 10
562.7601339458216216
 20
106.584205875455595
 30
0.0
 40
0.0196
 50
180.0
 51
270.0
  0
LINE
  5
9825
  8
0
 10
562.7444628493216214
 20
106.6079048576555977
 30
0.0
 11
562.7444628493216214
 21
107.001605645055605
 31
0.0
  0
LINE
  5
9826
  8
0
 10
563.4889455595216532
 20
106.4976686371555985
 30
0.0
 11
563.4852316224216793
 21
106.568534778855593
 31
0.0
  0
LINE
  5
9827
  8
0
 10
563.6173749787217275
 20
106.4976686371555985
 30
0.0
 11
563.6136610416216399
 21
106.568534778855593
 31
0.0
  0
LINE
  5
9828
  8
0
 10
563.5351867773216554
 20
107.7739588824556023
 30
0.0
 11
563.5351867773216554
 21
107.0455004086555988
 31
0.0
  0
LINE
  5
9829
  8
0
 10
563.5476205600216417
 20
107.0386979831541936
 30
0.0
 11
563.5476205600216417
 21
107.7615250996556
 31
0.0
  0
LINE
  5
982A
  8
0
 10
563.5515494635217237
 20
107.7378261174555973
 30
0.0
 11
563.5515494635217237
 21
107.0513929431324982
 31
0.0
  0
LINE
  5
982B
  8
0
 10
563.6070557957216351
 20
106.4976686371555985
 30
0.0
 11
563.6107697328217228
 21
106.568534778855593
 31
0.0
  0
LINE
  5
982C
  8
0
 10
563.8707305974215842
 20
106.4976686371555985
 30
0.0
 11
563.867016660321724
 21
106.568534778855593
 31
0.0
  0
LINE
  5
982D
  8
0
 10
563.7354852149217095
 20
106.4976686371555985
 30
0.0
 11
563.7391991521217278
 21
106.568534778855593
 31
0.0
  0
LINE
  5
982E
  8
0
 10
563.9888408336216798
 20
106.4976686371555985
 30
0.0
 11
563.9925547707216538
 21
106.568534778855593
 31
0.0
  0
LINE
  5
982F
  8
0
 10
564.1027305658217301
 20
106.4976686371555985
 30
0.0
 11
564.0990166287216425
 21
106.568534778855593
 31
0.0
  0
LINE
  5
9830
  8
0
 10
564.1814050083215761
 20
106.4976686371555985
 30
0.0
 11
564.1776910712216022
 21
106.568534778855593
 31
0.0
  0
LINE
  5
9831
  8
0
 10
564.2421015347216553
 20
106.4976686371555985
 30
0.0
 11
564.2383875976215677
 21
106.568534778855593
 31
0.0
  0
LINE
  5
9832
  8
0
 10
564.4144049209215837
 20
106.4976686371555985
 30
0.0
 11
564.4106909838217234
 21
106.568534778855593
 31
0.0
  0
LINE
  5
9833
  8
0
 10
564.3602117709216373
 20
106.4976686371555985
 30
0.0
 11
564.3639257080216112
 21
106.568534778855593
 31
0.0
  0
LINE
  5
9834
  8
0
 10
564.721357759521652
 20
106.4976686371555985
 30
0.0
 11
564.7176438224215644
 21
106.568534778855593
 31
0.0
  0
LINE
  5
9835
  8
0
 10
564.5325151571215656
 20
106.4976686371555985
 30
0.0
 11
564.5362290942216532
 21
106.568534778855593
 31
0.0
  0
LINE
  5
9836
  8
0
 10
564.839467995721634
 20
106.4976686371555985
 30
0.0
 11
564.8431819328217216
 21
106.568534778855593
 31
0.0
  0
LINE
  5
9837
  8
0
 10
564.9577924022215711
 20
106.4976686371555985
 30
0.0
 11
564.9540784651215972
 21
106.568534778855593
 31
0.0
  0
LINE
  5
9838
  8
0
 10
565.2954264114215448
 20
106.4976686371555985
 30
0.0
 11
565.2917124743216846
 21
106.568534778855593
 31
0.0
  0
LINE
  5
9839
  8
0
 10
564.9108864840217166
 20
106.4976686371555985
 30
0.0
 11
564.9146004211216905
 21
106.568534778855593
 31
0.0
  0
LINE
  5
983A
  8
0
 10
565.0759026384215531
 20
106.4976686371555985
 30
0.0
 11
565.0796165755216407
 21
106.568534778855593
 31
0.0
  0
LINE
  5
983B
  8
0
 10
565.5013105196217111
 20
106.4976686371555985
 30
0.0
 11
565.4975965825216235
 21
106.568534778855593
 31
0.0
  0
LINE
  5
983C
  8
0
 10
565.4135366476216404
 20
106.4976686371555985
 30
0.0
 11
565.4172505847216144
 21
106.568534778855593
 31
0.0
  0
LINE
  5
983D
  8
0
 10
565.4200886271215722
 20
106.4976686371555985
 30
0.0
 11
565.4238025642215462
 21
106.568534778855593
 31
0.0
  0
LINE
  5
983E
  8
0
 10
565.4640463060217144
 20
106.4976686371555985
 30
0.0
 11
565.467760243221619
 21
106.568534778855593
 31
0.0
  0
LINE
  5
983F
  8
0
 10
565.4806833217215853
 20
106.4976686371555985
 30
0.0
 11
565.4843972589217174
 21
106.568534778855593
 31
0.0
  0
LINE
  5
9840
  8
0
 10
565.6194207559216238
 20
106.4976686371555985
 30
0.0
 11
565.6231346930217114
 21
106.568534778855593
 31
0.0
  0
LINE
  5
9841
  8
0
 10
565.8997859231217262
 20
106.4976686371555985
 30
0.0
 11
565.8960719860216386
 21
106.568534778855593
 31
0.0
  0
LINE
  5
9842
  8
0
 10
565.9224429976217152
 20
106.4976686371555985
 30
0.0
 11
565.9187290605216276
 21
106.568534778855593
 31
0.0
  0
LINE
  5
9843
  8
0
 10
565.9486483940216885
 20
106.4976686371555985
 30
0.0
 11
565.9449344569217146
 21
106.568534778855593
 31
0.0
  0
LINE
  5
9844
  8
0
 10
566.0667586302215568
 20
106.4976686371555985
 30
0.0
 11
566.0704725673216444
 21
106.568534778855593
 31
0.0
  0
LINE
  5
9845
  8
0
 10
566.1662008350216411
 20
106.4976686371555985
 30
0.0
 11
566.1699147721217287
 21
106.568534778855593
 31
0.0
  0
LINE
  5
9846
  8
0
 10
566.4739091676216276
 20
106.4976686371555985
 30
0.0
 11
566.470195230421723
 21
106.568534778855593
 31
0.0
  0
LINE
  5
9847
  8
0
 10
566.5310558349216308
 20
106.4976686371555985
 30
0.0
 11
566.5273418978215432
 21
106.568534778855593
 31
0.0
  0
LINE
  5
9848
  8
0
 10
566.5871542217216756
 20
106.4976686371555985
 30
0.0
 11
566.5834402846217017
 21
106.568534778855593
 31
0.0
  0
LINE
  5
9849
  8
0
 10
566.6303259609215957
 20
106.4976686371555985
 30
0.0
 11
566.6266120238216217
 21
106.568534778855593
 31
0.0
  0
LINE
  5
984A
  8
0
 10
566.6632055145216782
 20
106.4976686371555985
 30
0.0
 11
566.6594915774217043
 21
106.568534778855593
 31
0.0
  0
LINE
  5
984B
  8
0
 10
566.9231762440216471
 20
106.4976686371555985
 30
0.0
 11
566.9194623069215595
 21
106.568534778855593
 31
0.0
  0
LINE
  5
984C
  8
0
 10
566.8790985840216763
 20
106.5239918545490951
 30
0.0
 11
566.8785261726217186
 21
106.5567852817555945
 31
0.0
  0
LINE
  5
984D
  8
0
 10
566.7813157507215465
 20
106.4976686371555985
 30
0.0
 11
566.7850296878216341
 21
106.568534778855593
 31
0.0
  0
LINE
  5
984E
  8
0
 10
562.0751864714216026
 20
105.385463912755597
 30
0.0
 11
574.4373612745215496
 21
105.385463912755597
 31
0.0
  0
ARC
  5
984F
  8
0
 10
574.4373612745215496
 20
105.4051639127555973
 30
0.0
 40
0.0197
 50
270.0
 51
0.0
  0
ARC
  5
9850
  8
0
 10
562.0751864714216026
 20
105.4051639127555973
 30
0.0
 40
0.0197
 50
180.0
 51
270.0
  0
LINE
  5
9851
  8
0
 10
567.2410503351215993
 20
106.4976686371555985
 30
0.0
 11
567.2373363980216254
 21
106.568534778855593
 31
0.0
  0
LINE
  5
9852
  8
0
 10
567.3212650700215818
 20
106.4976686371555985
 30
0.0
 11
567.3175511329217215
 21
106.568534778855593
 31
0.0
  0
LINE
  5
9853
  8
0
 10
567.3680936187215593
 20
106.4976686371555985
 30
0.0
 11
567.3643796816215854
 21
106.568534778855593
 31
0.0
  0
LINE
  5
9854
  8
0
 10
567.3984237355216464
 20
106.4976686371555985
 30
0.0
 11
567.3947097984216725
 21
106.568534778855593
 31
0.0
  0
LINE
  5
9855
  8
0
 10
567.4196065173216539
 20
106.4976686371555985
 30
0.0
 11
567.4158925802215663
 21
106.568534778855593
 31
0.0
  0
LINE
  5
9856
  8
0
 10
567.0412864802216291
 20
106.4976686371555985
 30
0.0
 11
567.0450004173217167
 21
106.568534778855593
 31
0.0
  0
LINE
  5
9857
  8
0
 10
567.7105778188216618
 20
106.4976686371555985
 30
0.0
 11
567.7068638817216879
 21
106.568534778855593
 31
0.0
  0
LINE
  5
9858
  8
0
 10
567.5377167535216358
 20
106.4976686371555985
 30
0.0
 11
567.5414306906217234
 21
106.568534778855593
 31
0.0
  0
LINE
  5
9859
  8
0
 10
567.8286880550216438
 20
106.4976686371555985
 30
0.0
 11
567.8324019921217314
 21
106.568534778855593
 31
0.0
  0
LINE
  5
985A
  8
0
 10
569.1141140330215649
 20
106.2609310151556059
 30
0.0
 11
567.3976164612215598
 21
106.2609310151556059
 31
0.0
  0
LINE
  5
985B
  8
0
 10
568.1972187548216198
 20
106.4976686371555985
 30
0.0
 11
568.1935048177216458
 21
106.568534778855593
 31
0.0
  0
LINE
  5
985C
  8
0
 10
568.1628990633216745
 20
106.568534778855593
 30
0.0
 11
568.1601672268214998
 21
106.5566851381556006
 31
0.0
  0
LINE
  5
985D
  8
0
 10
566.8819346599148048
 20
106.5578078279634013
 30
0.0
 11
566.8785261726217186
 21
106.5567852817555945
 31
0.0
  0
LINE
  5
985E
  8
0
 10
568.1601672146216515
 20
106.5566514531555953
 30
0.0
 11
567.8317721998215575
 21
106.5565176244555943
 31
0.0
  0
LINE
  5
985F
  8
0
 10
563.4889455595216532
 20
106.4976686371555985
 30
0.0
 11
563.6070557957216351
 21
106.4976686371555985
 31
0.0
  0
LINE
  5
9860
  8
0
 10
563.6173749787217275
 20
106.4976686371555985
 30
0.0
 11
563.7354852149217095
 21
106.4976686371555985
 31
0.0
  0
LINE
  5
9861
  8
0
 10
563.8707305974215842
 20
106.4976686371555985
 30
0.0
 11
563.9888408336216798
 21
106.4976686371555985
 31
0.0
  0
LINE
  5
9862
  8
0
 10
564.1027305658217301
 20
106.4976686371555985
 30
0.0
 11
564.3602117709216373
 21
106.4976686371555985
 31
0.0
  0
LINE
  5
9863
  8
0
 10
564.4144049209215837
 20
106.4976686371555985
 30
0.0
 11
564.5325151571215656
 21
106.4976686371555985
 31
0.0
  0
LINE
  5
9864
  8
0
 10
564.7213589660216257
 20
106.4976686371555985
 30
0.0
 11
564.9108864840217166
 21
106.4976686371555985
 31
0.0
  0
LINE
  5
9865
  8
0
 10
564.9577924022215711
 20
106.4976686371555985
 30
0.0
 11
565.0759026384215531
 21
106.4976686371555985
 31
0.0
  0
LINE
  5
9866
  8
0
 10
565.2954270075216527
 20
106.4976686371555985
 30
0.0
 11
565.4806833217215853
 21
106.4976686371555985
 31
0.0
  0
LINE
  5
9867
  8
0
 10
565.5013105196217111
 20
106.4976686371555985
 30
0.0
 11
565.6194207559216238
 21
106.4976686371555985
 31
0.0
  0
LINE
  5
9868
  8
0
 10
565.8997877454216905
 20
106.4976686371555985
 30
0.0
 11
566.1662008350216411
 21
106.4976686371555985
 31
0.0
  0
LINE
  5
9869
  8
0
 10
566.4739091676216276
 20
106.4976686371555985
 30
0.0
 11
566.7813157507215465
 21
106.4976686371555985
 31
0.0
  0
LINE
  5
986A
  8
0
 10
566.9231762440216471
 20
106.4976686371555985
 30
0.0
 11
567.0412864802216291
 21
106.4976686371555985
 31
0.0
  0
LINE
  5
986B
  8
0
 10
567.2410504688216406
 20
106.4976686371555985
 30
0.0
 11
567.5377167535216358
 21
106.4976686371555985
 31
0.0
  0
LINE
  5
986C
  8
0
 10
567.7105778188216618
 20
106.4976686371555985
 30
0.0
 11
567.8286880550216438
 21
106.4976686371555985
 31
0.0
  0
LINE
  5
986D
  8
0
 10
568.1972187548216198
 20
106.4976686371555985
 30
0.0
 11
568.3153289911216461
 21
106.4976686371555985
 31
0.0
  0
LINE
  5
986E
  8
0
 10
566.8935814220217253
 20
106.5053493830556022
 30
0.0
 11
566.9227737132215452
 21
106.5053493830556022
 31
0.0
  0
LINE
  5
986F
  8
0
 10
567.0416890110216173
 20
106.5053493830556022
 30
0.0
 11
567.2406478043217248
 21
106.5053493830556022
 31
0.0
  0
LINE
  5
9870
  8
0
 10
567.538119284321624
 20
106.5053493830556022
 30
0.0
 11
567.7101752880216736
 21
106.5053493830556022
 31
0.0
  0
LINE
  5
9871
  8
0
 10
567.829090585821632
 20
106.5053493830556022
 30
0.0
 11
568.1968162240216316
 21
106.5053493830556022
 31
0.0
  0
LINE
  5
9872
  8
0
 10
562.7477001631216353
 20
106.5521720926555957
 30
0.0
 11
563.4860891544215065
 21
106.5521720926555957
 31
0.0
  0
ARC
  5
9873
  8
0
 10
562.7477001631216353
 20
106.5717720926556069
 30
0.0
 40
0.0196
 50
180.0
 51
270.0
  0
LINE
  5
9874
  8
0
 10
563.6099122008215545
 20
106.5521720926555957
 30
0.0
 11
563.6145185737216252
 21
106.5521720926555957
 31
0.0
  0
LINE
  5
9875
  8
0
 10
563.7383416200216288
 20
106.5521720926555957
 30
0.0
 11
563.8678741923215512
 21
106.5521720926555957
 31
0.0
  0
LINE
  5
9876
  8
0
 10
563.9916972387217129
 20
106.5521720926555957
 30
0.0
 11
564.0998741608216278
 21
106.5521720926555957
 31
0.0
  0
LINE
  5
9877
  8
0
 10
564.3630681760216703
 20
106.5521720926555957
 30
0.0
 11
564.4115485158215506
 21
106.5521720926555957
 31
0.0
  0
LINE
  5
9878
  8
0
 10
564.5353715622217123
 20
106.5521720926555957
 30
0.0
 11
564.7185013544215053
 21
106.5521720926555957
 31
0.0
  0
LINE
  5
9879
  8
0
 10
564.9137428890217052
 20
106.5521720926555957
 30
0.0
 11
564.9549359971216518
 21
106.5521720926555957
 31
0.0
  0
LINE
  5
987A
  8
0
 10
565.0787590435216998
 20
106.5521720926555957
 30
0.0
 11
565.2925700063216254
 21
106.5521720926555957
 31
0.0
  0
LINE
  5
987B
  8
0
 10
565.4835397268215047
 20
106.5521720926555957
 30
0.0
 11
565.4984541146217225
 21
106.5521720926555957
 31
0.0
  0
LINE
  5
987C
  8
0
 10
565.6222771609216124
 20
106.5521720926555957
 30
0.0
 11
565.8969295180216932
 21
106.5521720926555957
 31
0.0
  0
LINE
  5
987D
  8
0
 10
566.1690572400216297
 20
106.5521720926555957
 30
0.0
 11
566.4706117930217033
 21
106.5521720926555957
 31
0.0
  0
LINE
  5
987E
  8
0
 10
566.7841721558215795
 20
106.5521720926555957
 30
0.0
 11
566.8786066961215511
 21
106.5521720926555957
 31
0.0
  0
LINE
  5
987F
  8
0
 10
567.7074936741216789
 20
106.5565176244555943
 30
0.0
 11
567.5408008982215051
 21
106.5565176244555943
 31
0.0
  0
LINE
  5
9880
  8
0
 10
567.2379661904217301
 20
106.5565176244555943
 30
0.0
 11
567.044370624921612
 21
106.5565176244555943
 31
0.0
  0
LINE
  5
9881
  8
0
 10
568.1941205828215971
 20
106.5567852817555945
 30
0.0
 11
568.1601670516215563
 21
106.5567852817555945
 31
0.0
  0
LINE
  5
9882
  8
0
 10
566.8818846201603492
 20
106.5567852817555945
 30
0.0
 11
566.8785261726217186
 21
106.5567852817555945
 31
0.0
  0
LINE
  5
9883
  8
0
 10
562.7601339458216216
 20
106.564605875455598
 30
0.0
 11
563.4854375275216398
 21
106.564605875455598
 31
0.0
  0
LINE
  5
9884
  8
0
 10
563.6105638277216485
 20
106.564605875455598
 30
0.0
 11
563.6138669467217142
 21
106.564605875455598
 31
0.0
  0
LINE
  5
9885
  8
0
 10
563.7389932470216536
 20
106.564605875455598
 30
0.0
 11
563.8672225654215708
 21
106.564605875455598
 31
0.0
  0
LINE
  5
9886
  8
0
 10
563.9923488656216932
 20
106.564605875455598
 30
0.0
 11
564.0992225338217168
 21
106.564605875455598
 31
0.0
  0
LINE
  5
9887
  8
0
 10
564.3637198029216506
 20
106.564605875455598
 30
0.0
 11
564.4108968889215703
 21
106.564605875455598
 31
0.0
  0
LINE
  5
9888
  8
0
 10
564.536023189121579
 20
106.564605875455598
 30
0.0
 11
564.7178497275216387
 21
106.564605875455598
 31
0.0
  0
LINE
  5
9889
  8
0
 10
564.9143945160217299
 20
106.564605875455598
 30
0.0
 11
564.9542843702215578
 21
106.564605875455598
 31
0.0
  0
LINE
  5
988A
  8
0
 10
565.0794106704216802
 20
106.564605875455598
 30
0.0
 11
565.2919183794216451
 21
106.564605875455598
 31
0.0
  0
LINE
  5
988B
  8
0
 10
565.4841913538216431
 20
106.564605875455598
 30
0.0
 11
565.4978024876216978
 21
106.564605875455598
 31
0.0
  0
LINE
  5
988C
  8
0
 10
565.6229287879216372
 20
106.564605875455598
 30
0.0
 11
565.8962778911217129
 21
106.564605875455598
 31
0.0
  0
LINE
  5
988D
  8
0
 10
566.1697088670216544
 20
106.564605875455598
 30
0.0
 11
566.4699601660215649
 21
106.564605875455598
 31
0.0
  0
LINE
  5
988E
  8
0
 10
566.7848237827215598
 20
106.564605875455598
 30
0.0
 11
566.8848978051664744
 21
106.564605875455598
 31
0.0
  0
LINE
  5
988F
  8
0
 10
573.7287148179216274
 20
106.568534778855593
 30
0.0
 11
562.7838329280216385
 21
106.568534778855593
 31
0.0
  0
LINE
  5
9890
  8
0
 10
566.9200925100217319
 20
106.5565097872556066
 30
0.0
 11
566.8818846270216909
 21
106.5566514531555953
 31
0.0
  0
LINE
  5
9891
  8
0
 10
573.7680848966216445
 20
107.001605645055605
 30
0.0
 11
562.7444628493216214
 21
107.001605645055605
 31
0.0
  0
LINE
  5
9892
  8
0
 10
562.8940691485215666
 20
107.009479660755602
 30
0.0
 11
573.6184785974215856
 21
107.009479660755602
 31
0.0
  0
LINE
  5
9893
  8
0
 10
563.5014138364113023
 20
107.0134085642555988
 30
0.0
 11
562.7601339458216216
 21
107.0134085642555988
 31
0.0
  0
ARC
  5
9894
  8
0
 10
562.7601339458216216
 20
106.9938085642556018
 30
0.0
 40
0.0196
 50
90.0
 51
180.0
  0
LINE
  5
9895
  8
0
 10
563.5154180803681356
 20
107.0258423469555993
 30
0.0
 11
562.7477001631216353
 21
107.0258423469555993
 31
0.0
  0
ARC
  5
9896
  8
0
 10
562.7477001631216353
 20
107.0062423469556023
 30
0.0
 40
0.0196
 50
90.0
 51
180.0
  0
LINE
  5
9897
  8
0
 10
563.5909195422216271
 20
107.777196196255602
 30
0.0
 11
572.9216282037216388
 21
107.777196196255602
 31
0.0
  0
LINE
  5
9898
  8
0
 10
572.9453271859216557
 20
107.781125099655597
 30
0.0
 11
563.5672205600217239
 21
107.781125099655597
 31
0.0
  0
ARC
  5
9899
  8
0
 10
563.5672205600217239
 20
107.7615250996556
 30
0.0
 40
0.0196
 50
90.0
 51
180.0
  0
LINE
  5
989A
  8
0
 10
572.957760968621642
 20
107.7935588824555992
 30
0.0
 11
563.554786777321624
 21
107.7935588824555992
 31
0.0
  0
ARC
  5
989B
  8
0
 10
563.554786777321624
 20
107.7739588824556023
 30
0.0
 40
0.0196
 50
90.0
 51
180.0
  0
LINE
  5
989C
  8
0
 10
562.0751864714216026
 20
108.1413694245556059
 30
0.0
 11
574.4373612745215496
 21
108.1413694245556059
 31
0.0
  0
LINE
  5
989D
  8
0
 10
574.4570612745217204
 20
105.4051639127555973
 30
0.0
 11
574.4570612745217204
 21
108.1216694245556056
 31
0.0
  0
ARC
  5
989E
  8
0
 10
574.4373612745215496
 20
108.1216694245556056
 30
0.0
 40
0.0197
 50
0.0
 51
90.0
  0
ARC
  5
989F
  8
0
 10
563.5909195422216271
 20
107.7378261174555973
 30
0.0
 40
0.0393700787
 50
90.0
 51
180.0
  0
ARC
  5
98A0
  8
0
 10
562.8940691485215666
 20
106.9701095820555992
 30
0.0
 40
0.0393700787
 50
90.0
 51
126.862829484201697
  0
ARC
  5
98A1
  8
0
 10
562.7838329280216385
 20
106.6079048576555977
 30
0.0
 40
0.0393700787
 50
180.0
 51
270.0
  0
ARC
  5
98A2
  8
0
 10
563.515469582221499
 20
107.0455484263555945
 30
0.0
 40
0.0197061467
 50
269.8502577774763722
 51
359.8195553330997996
  0
ARC
  5
98A3
  8
0
 10
566.8987806252215478
 20
106.5243354058555951
 30
0.0
 40
0.0196850394
 50
180.9999999982630072
 51
254.6853587594976034
  0
ARC
  5
98A4
  8
0
 10
567.3997182046789476
 20
106.3639228099124949
 30
0.0
 40
0.1030132375610074
 50
239.8421156678130899
 51
268.8309329100591754
  0
ARC
  5
98A5
  8
0
 10
566.4802790624445379
 20
105.1677948185254934
 30
0.0
 40
1.4065768193954451
 50
51.9114631958205024
 51
63.1514152766749604
  0
ARC
  5
98A6
  8
0
 10
566.6205814122020001
 20
105.4322825868352993
 30
0.0
 40
1.1072494545254099
 50
63.4477384614140192
 51
75.7261387387186176
  0
ARC
  5
98A7
  8
0
 10
566.893712321415137
 20
106.5567189738450935
 30
0.0
 40
0.0118278871194051
 50
92.5899560426816066
 51
180.3270805268452932
  0
ARC
  5
98A8
  8
0
 10
563.5331137220307482
 20
107.050143085193497
 30
0.0
 40
0.0184780602115742
 50
309.9612455576248067
 51
3.8784538438129879
  0
ARC
  5
98A9
  8
0
 10
563.486735522479762
 20
107.0992022311132956
 30
0.0
 40
0.0859630886970967
 50
293.693255083354984
 51
312.6541179387485272
  0
ARC
  5
98AA
  8
0
 10
563.4675491178833227
 20
107.1398955640196959
 30
0.0
 40
0.1309418965430409
 50
275.1372878599264027
 51
294.2257691163285926
  0
LINE
  5
98AB
  8
0
 10
573.7844475828217128
 20
107.0062423469556023
 30
0.0
 11
573.7844475828217128
 21
106.5717720926556069
 31
0.0
  0
LINE
  5
98AC
  8
0
 10
573.7720138001217265
 20
106.9938085642556018
 30
0.0
 11
573.7720138001217265
 21
106.584205875455595
 31
0.0
  0
ARC
  5
98AD
  8
0
 10
573.7524138001216443
 20
106.584205875455595
 30
0.0
 40
0.0196
 50
270.0
 51
0.0
  0
LINE
  5
98AE
  8
0
 10
573.7680848966216445
 20
106.6079048576555977
 30
0.0
 11
573.7680848966216445
 21
107.001605645055605
 31
0.0
  0
LINE
  5
98AF
  8
0
 10
573.0236021864217264
 20
106.4976686371555985
 30
0.0
 11
573.0273161235215866
 21
106.568534778855593
 31
0.0
  0
LINE
  5
98B0
  8
0
 10
572.8951727672216521
 20
106.4976686371555985
 30
0.0
 11
572.8988867043217397
 21
106.568534778855593
 31
0.0
  0
LINE
  5
98B1
  8
0
 10
572.9773609686217242
 20
107.7739588824556023
 30
0.0
 11
572.9773609686217242
 21
107.0455004086555988
 31
0.0
  0
LINE
  5
98B2
  8
0
 10
572.9649271859217379
 20
107.0317432153868964
 30
0.0
 11
572.9649271859217379
 21
107.7615250996556
 31
0.0
  0
LINE
  5
98B3
  8
0
 10
572.9609982824216559
 20
107.7378261174555973
 30
0.0
 11
572.9609982824216559
 21
107.051392943133493
 31
0.0
  0
LINE
  5
98B4
  8
0
 10
572.9054919502216308
 20
106.4976686371555985
 30
0.0
 11
572.9017780131216568
 21
106.568534778855593
 31
0.0
  0
LINE
  5
98B5
  8
0
 10
572.641817148521568
 20
106.4976686371555985
 30
0.0
 11
572.6455310856216556
 21
106.568534778855593
 31
0.0
  0
LINE
  5
98B6
  8
0
 10
572.7770625310215564
 20
106.4976686371555985
 30
0.0
 11
572.7733485938216518
 21
106.568534778855593
 31
0.0
  0
LINE
  5
98B7
  8
0
 10
572.5237069123216997
 20
106.4976686371555985
 30
0.0
 11
572.5199929752217258
 21
106.568534778855593
 31
0.0
  0
LINE
  5
98B8
  8
0
 10
572.4098171801216495
 20
106.4976686371555985
 30
0.0
 11
572.4135311172217371
 21
106.568534778855593
 31
0.0
  0
LINE
  5
98B9
  8
0
 10
572.3311427376215761
 20
106.4976686371555985
 30
0.0
 11
572.33485667472155
 21
106.568534778855593
 31
0.0
  0
LINE
  5
98BA
  8
0
 10
572.2704462112217243
 20
106.4976686371555985
 30
0.0
 11
572.2741601483216982
 21
106.568534778855593
 31
0.0
  0
LINE
  5
98BB
  8
0
 10
572.0981428250215686
 20
106.4976686371555985
 30
0.0
 11
572.1018567621216562
 21
106.568534778855593
 31
0.0
  0
LINE
  5
98BC
  8
0
 10
572.1523359750216287
 20
106.4976686371555985
 30
0.0
 11
572.1486220379216547
 21
106.568534778855593
 31
0.0
  0
LINE
  5
98BD
  8
0
 10
571.7911899864217276
 20
106.4976686371555985
 30
0.0
 11
571.7949039235215878
 21
106.568534778855593
 31
0.0
  0
LINE
  5
98BE
  8
0
 10
571.9800325888217003
 20
106.4976686371555985
 30
0.0
 11
571.9763186517217264
 21
106.568534778855593
 31
0.0
  0
LINE
  5
98BF
  8
0
 10
571.6730797502216319
 20
106.4976686371555985
 30
0.0
 11
571.6693658131215443
 21
106.568534778855593
 31
0.0
  0
LINE
  5
98C0
  8
0
 10
571.5547553437215811
 20
106.4976686371555985
 30
0.0
 11
571.558469280821555
 21
106.568534778855593
 31
0.0
  0
LINE
  5
98C1
  8
0
 10
571.2171213345217211
 20
106.4976686371555985
 30
0.0
 11
571.2208352716215813
 21
106.568534778855593
 31
0.0
  0
LINE
  5
98C2
  8
0
 10
571.6016612619215493
 20
106.4976686371555985
 30
0.0
 11
571.5979473248216891
 21
106.568534778855593
 31
0.0
  0
LINE
  5
98C3
  8
0
 10
571.4366451075217128
 20
106.4976686371555985
 30
0.0
 11
571.4329311704217389
 21
106.568534778855593
 31
0.0
  0
LINE
  5
98C4
  8
0
 10
571.0112372263216685
 20
106.4976686371555985
 30
0.0
 11
571.0149511634216424
 21
106.568534778855593
 31
0.0
  0
LINE
  5
98C5
  8
0
 10
571.0990110983217392
 20
106.4976686371555985
 30
0.0
 11
571.0952971612216515
 21
106.568534778855593
 31
0.0
  0
LINE
  5
98C6
  8
0
 10
571.09245911882158
 20
106.4976686371555985
 30
0.0
 11
571.0887451817217197
 21
106.568534778855593
 31
0.0
  0
LINE
  5
98C7
  8
0
 10
571.0485014399216652
 20
106.4976686371555985
 30
0.0
 11
571.0447875027216469
 21
106.568534778855593
 31
0.0
  0
LINE
  5
98C8
  8
0
 10
571.0318644242215669
 20
106.4976686371555985
 30
0.0
 11
571.0281504870215485
 21
106.568534778855593
 31
0.0
  0
LINE
  5
98C9
  8
0
 10
570.8931269900216421
 20
106.4976686371555985
 30
0.0
 11
570.8894130529215545
 21
106.568534778855593
 31
0.0
  0
LINE
  5
98CA
  8
0
 10
570.6127618228216534
 20
106.4976686371555985
 30
0.0
 11
570.6164757599216273
 21
106.568534778855593
 31
0.0
  0
LINE
  5
98CB
  8
0
 10
570.5901047483215507
 20
106.4976686371555985
 30
0.0
 11
570.5938186854216383
 21
106.568534778855593
 31
0.0
  0
LINE
  5
98CC
  8
0
 10
570.5638993519215774
 20
106.4976686371555985
 30
0.0
 11
570.5676132890215513
 21
106.568534778855593
 31
0.0
  0
LINE
  5
98CD
  8
0
 10
570.4457891157217091
 20
106.4976686371555985
 30
0.0
 11
570.4420751786217352
 21
106.568534778855593
 31
0.0
  0
LINE
  5
98CE
  8
0
 10
570.3463469109217385
 20
106.4976686371555985
 30
0.0
 11
570.3426329738216509
 21
106.568534778855593
 31
0.0
  0
LINE
  5
98CF
  8
0
 10
570.0386385783216383
 20
106.4976686371555985
 30
0.0
 11
570.0423525155216566
 21
106.568534778855593
 31
0.0
  0
LINE
  5
98D0
  8
0
 10
569.9814919110216351
 20
106.4976686371555985
 30
0.0
 11
569.9852058481217227
 21
106.568534778855593
 31
0.0
  0
LINE
  5
98D1
  8
0
 10
569.925393524221704
 20
106.4976686371555985
 30
0.0
 11
569.9291074613215642
 21
106.568534778855593
 31
0.0
  0
LINE
  5
98D2
  8
0
 10
569.8822217850215566
 20
106.4976686371555985
 30
0.0
 11
569.8859357221216442
 21
106.568534778855593
 31
0.0
  0
LINE
  5
98D3
  8
0
 10
569.8493422314217014
 20
106.4976686371555985
 30
0.0
 11
569.8530561685215616
 21
106.568534778855593
 31
0.0
  0
LINE
  5
98D4
  8
0
 10
569.5893715019217325
 20
106.4976686371555985
 30
0.0
 11
569.5930854390215927
 21
106.568534778855593
 31
0.0
  0
LINE
  5
98D5
  8
0
 10
569.6334491619214759
 20
106.5239918545490951
 30
0.0
 11
569.6340215733215473
 21
106.5567852817555945
 31
0.0
  0
LINE
  5
98D6
  8
0
 10
569.7312319952216058
 20
106.4976686371555985
 30
0.0
 11
569.7275180581216318
 21
106.568534778855593
 31
0.0
  0
LINE
  5
98D7
  8
0
 10
569.2714974108215529
 20
106.4976686371555985
 30
0.0
 11
569.2752113479216405
 21
106.568534778855593
 31
0.0
  0
LINE
  5
98D8
  8
0
 10
569.1912826759215704
 20
106.4976686371555985
 30
0.0
 11
569.1949966130215444
 21
106.568534778855593
 31
0.0
  0
LINE
  5
98D9
  8
0
 10
569.1444541272215929
 20
106.4976686371555985
 30
0.0
 11
569.1481680643215668
 21
106.568534778855593
 31
0.0
  0
LINE
  5
98DA
  8
0
 10
569.1141240104217331
 20
106.4976686371555985
 30
0.0
 11
569.1178379475217071
 21
106.568534778855593
 31
0.0
  0
LINE
  5
98DB
  8
0
 10
569.0929412286217257
 20
106.4976686371555985
 30
0.0
 11
569.0966551657216996
 21
106.568534778855593
 31
0.0
  0
LINE
  5
98DC
  8
0
 10
569.4712612657216368
 20
106.4976686371555985
 30
0.0
 11
569.4675473286215492
 21
106.568534778855593
 31
0.0
  0
LINE
  5
98DD
  8
0
 10
568.8019699271217178
 20
106.4976686371555985
 30
0.0
 11
568.8056838642216917
 21
106.568534778855593
 31
0.0
  0
LINE
  5
98DE
  8
0
 10
568.9748309924216301
 20
106.4976686371555985
 30
0.0
 11
568.9711170553216562
 21
106.568534778855593
 31
0.0
  0
LINE
  5
98DF
  8
0
 10
568.6838596909217358
 20
106.4976686371555985
 30
0.0
 11
568.6801457538216482
 21
106.568534778855593
 31
0.0
  0
LINE
  5
98E0
  8
0
 10
568.3153289911216461
 20
106.4976686371555985
 30
0.0
 11
568.3190429282217337
 21
106.568534778855593
 31
0.0
  0
LINE
  5
98E1
  8
0
 10
568.3496486826217051
 20
106.568534778855593
 30
0.0
 11
568.3523805191216525
 21
106.5566851381556006
 31
0.0
  0
LINE
  5
98E2
  8
0
 10
569.6306130860285748
 20
106.5578078279634013
 30
0.0
 11
569.6340215733215473
 21
106.5567852817555945
 31
0.0
  0
LINE
  5
98E3
  8
0
 10
568.3523805313217281
 20
106.5566514531555953
 30
0.0
 11
568.6807755461217084
 21
106.5565176244555943
 31
0.0
  0
LINE
  5
98E4
  8
0
 10
573.0236021864217264
 20
106.4976686371555985
 30
0.0
 11
572.9054919502216308
 21
106.4976686371555985
 31
0.0
  0
LINE
  5
98E5
  8
0
 10
572.8951727672216521
 20
106.4976686371555985
 30
0.0
 11
572.7770625310215564
 21
106.4976686371555985
 31
0.0
  0
LINE
  5
98E6
  8
0
 10
572.641817148521568
 20
106.4976686371555985
 30
0.0
 11
572.5237069123216997
 21
106.4976686371555985
 31
0.0
  0
LINE
  5
98E7
  8
0
 10
572.4098171801216495
 20
106.4976686371555985
 30
0.0
 11
572.1523359750216287
 21
106.4976686371555985
 31
0.0
  0
LINE
  5
98E8
  8
0
 10
572.0981428250215686
 20
106.4976686371555985
 30
0.0
 11
571.9800325888217003
 21
106.4976686371555985
 31
0.0
  0
LINE
  5
98E9
  8
0
 10
571.7911887799216402
 20
106.4976686371555985
 30
0.0
 11
571.6016612619215493
 21
106.4976686371555985
 31
0.0
  0
LINE
  5
98EA
  8
0
 10
571.5547553437215811
 20
106.4976686371555985
 30
0.0
 11
571.4366451075217128
 21
106.4976686371555985
 31
0.0
  0
LINE
  5
98EB
  8
0
 10
571.2171207384217269
 20
106.4976686371555985
 30
0.0
 11
571.0318644242215669
 21
106.4976686371555985
 31
0.0
  0
LINE
  5
98EC
  8
0
 10
571.0112372263216685
 20
106.4976686371555985
 30
0.0
 11
570.8931269900216421
 21
106.4976686371555985
 31
0.0
  0
LINE
  5
98ED
  8
0
 10
570.6127600005215754
 20
106.4976686371555985
 30
0.0
 11
570.3463469109217385
 21
106.4976686371555985
 31
0.0
  0
LINE
  5
98EE
  8
0
 10
570.0386385783216383
 20
106.4976686371555985
 30
0.0
 11
569.7312319952216058
 21
106.4976686371555985
 31
0.0
  0
LINE
  5
98EF
  8
0
 10
569.5893715019217325
 20
106.4976686371555985
 30
0.0
 11
569.4712612657216368
 21
106.4976686371555985
 31
0.0
  0
LINE
  5
98F0
  8
0
 10
569.271497277121739
 20
106.4976686371555985
 30
0.0
 11
568.9748309924216301
 21
106.4976686371555985
 31
0.0
  0
LINE
  5
98F1
  8
0
 10
568.8019699271217178
 20
106.4976686371555985
 30
0.0
 11
568.6838596909217358
 21
106.4976686371555985
 31
0.0
  0
LINE
  5
98F2
  8
0
 10
569.6189663239216543
 20
106.5053493830556022
 30
0.0
 11
569.5897740327217207
 21
106.5053493830556022
 31
0.0
  0
LINE
  5
98F3
  8
0
 10
569.4708587349216486
 20
106.5053493830556022
 30
0.0
 11
569.2718999416216548
 21
106.5053493830556022
 31
0.0
  0
LINE
  5
98F4
  8
0
 10
568.9744284616216419
 20
106.5053493830556022
 30
0.0
 11
568.802372457921706
 21
106.5053493830556022
 31
0.0
  0
LINE
  5
98F5
  8
0
 10
568.6834571601216339
 20
106.5053493830556022
 30
0.0
 11
568.3157315219216343
 21
106.5053493830556022
 31
0.0
  0
LINE
  5
98F6
  8
0
 10
573.7648475828216306
 20
106.5521720926555957
 30
0.0
 11
573.0264585915216458
 21
106.5521720926555957
 31
0.0
  0
ARC
  5
98F7
  8
0
 10
573.7648475828216306
 20
106.5717720926556069
 30
0.0
 40
0.0196
 50
270.0
 51
0.0
  0
LINE
  5
98F8
  8
0
 10
572.9026355451217114
 20
106.5521720926555957
 30
0.0
 11
572.8980291722216407
 21
106.5521720926555957
 31
0.0
  0
LINE
  5
98F9
  8
0
 10
572.7742061259216371
 20
106.5521720926555957
 30
0.0
 11
572.6446735536216011
 21
106.5521720926555957
 31
0.0
  0
LINE
  5
98FA
  8
0
 10
572.520850507221553
 20
106.5521720926555957
 30
0.0
 11
572.4126735851216381
 21
106.5521720926555957
 31
0.0
  0
LINE
  5
98FB
  8
0
 10
572.1494795699217093
 20
106.5521720926555957
 30
0.0
 11
572.1009992301217153
 21
106.5521720926555957
 31
0.0
  0
LINE
  5
98FC
  8
0
 10
571.9771761837216673
 20
106.5521720926555957
 30
0.0
 11
571.7940463915216469
 21
106.5521720926555957
 31
0.0
  0
LINE
  5
98FD
  8
0
 10
571.5988048569215607
 20
106.5521720926555957
 30
0.0
 11
571.5576117488217278
 21
106.5521720926555957
 31
0.0
  0
LINE
  5
98FE
  8
0
 10
571.4337887024216798
 20
106.5521720926555957
 30
0.0
 11
571.2199777396216405
 21
106.5521720926555957
 31
0.0
  0
LINE
  5
98FF
  8
0
 10
571.0290080191216475
 20
106.5521720926555957
 30
0.0
 11
571.0140936313215434
 21
106.5521720926555957
 31
0.0
  0
LINE
  5
9900
  8
0
 10
570.8902705850216535
 20
106.5521720926555957
 30
0.0
 11
570.6156182279215727
 21
106.5521720926555957
 31
0.0
  0
LINE
  5
9901
  8
0
 10
570.3434905059216362
 20
106.5521720926555957
 30
0.0
 11
570.0419359529216763
 21
106.5521720926555957
 31
0.0
  0
LINE
  5
9902
  8
0
 10
569.7283755901215727
 20
106.5521720926555957
 30
0.0
 11
569.6339410498217148
 21
106.5521720926555957
 31
0.0
  0
LINE
  5
9903
  8
0
 10
568.8050540718217007
 20
106.5565176244555943
 30
0.0
 11
568.9717468477216471
 21
106.5565176244555943
 31
0.0
  0
LINE
  5
9904
  8
0
 10
569.2745815555216495
 20
106.5565176244555943
 30
0.0
 11
569.4681771210216539
 21
106.5565176244555943
 31
0.0
  0
LINE
  5
9905
  8
0
 10
568.3184271631215552
 20
106.5567852817555945
 30
0.0
 11
568.3523806943217096
 21
106.5567852817555945
 31
0.0
  0
LINE
  5
9906
  8
0
 10
569.630663125782803
 20
106.5567852817555945
 30
0.0
 11
569.6340215733215473
 21
106.5567852817555945
 31
0.0
  0
LINE
  5
9907
  8
0
 10
573.7524138001216443
 20
106.564605875455598
 30
0.0
 11
573.0271102184217398
 21
106.564605875455598
 31
0.0
  0
LINE
  5
9908
  8
0
 10
572.9019839182217311
 20
106.564605875455598
 30
0.0
 11
572.8986807992216654
 21
106.564605875455598
 31
0.0
  0
LINE
  5
9909
  8
0
 10
572.773554498921726
 20
106.564605875455598
 30
0.0
 11
572.6453251805215814
 21
106.564605875455598
 31
0.0
  0
LINE
  5
990A
  8
0
 10
572.5201988803216864
 20
106.564605875455598
 30
0.0
 11
572.4133252121215492
 21
106.564605875455598
 31
0.0
  0
LINE
  5
990B
  8
0
 10
572.148827943021729
 20
106.564605875455598
 30
0.0
 11
572.1016508570215819
 21
106.564605875455598
 31
0.0
  0
LINE
  5
990C
  8
0
 10
571.9765245568216869
 20
106.564605875455598
 30
0.0
 11
571.7946980184215136
 21
106.564605875455598
 31
0.0
  0
LINE
  5
990D
  8
0
 10
571.5981532299216497
 20
106.564605875455598
 30
0.0
 11
571.5582633757215945
 21
106.564605875455598
 31
0.0
  0
LINE
  5
990E
  8
0
 10
571.4331370755216994
 20
106.564605875455598
 30
0.0
 11
571.2206293665217345
 21
106.564605875455598
 31
0.0
  0
LINE
  5
990F
  8
0
 10
571.0283563921217365
 20
106.564605875455598
 30
0.0
 11
571.0147452583216818
 21
106.564605875455598
 31
0.0
  0
LINE
  5
9910
  8
0
 10
570.8896189580216287
 20
106.564605875455598
 30
0.0
 11
570.6162698548215531
 21
106.564605875455598
 31
0.0
  0
LINE
  5
9911
  8
0
 10
570.3428388789217252
 20
106.564605875455598
 30
0.0
 11
570.042587579921701
 21
106.564605875455598
 31
0.0
  0
LINE
  5
9912
  8
0
 10
569.7277239632215924
 20
106.564605875455598
 30
0.0
 11
569.6276499407765641
 21
106.564605875455598
 31
0.0
  0
LINE
  5
9913
  8
0
 10
569.5924552359216477
 20
106.5565097872556066
 30
0.0
 11
569.6306631189216887
 21
106.5566514531555953
 31
0.0
  0
LINE
  5
9914
  8
0
 10
573.0111339095318499
 20
107.0134085642555988
 30
0.0
 11
573.7524138001216443
 21
107.0134085642555988
 31
0.0
  0
ARC
  5
9915
  8
0
 10
573.7524138001216443
 20
106.9938085642556018
 30
0.0
 40
0.0196
 50
0.0
 51
90.0
  0
LINE
  5
9916
  8
0
 10
572.997129665575244
 20
107.0258423469555993
 30
0.0
 11
573.7648475828216306
 21
107.0258423469555993
 31
0.0
  0
ARC
  5
9917
  8
0
 10
573.7648475828216306
 20
107.0062423469556023
 30
0.0
 40
0.0196
 50
0.0
 51
90.0
  0
ARC
  5
9918
  8
0
 10
572.9453271859216557
 20
107.7615250996556
 30
0.0
 40
0.0196
 50
0.0
 51
90.0
  0
ARC
  5
9919
  8
0
 10
572.957760968621642
 20
107.7739588824556023
 30
0.0
 40
0.0196
 50
0.0
 51
90.0
  0
ARC
  5
991A
  8
0
 10
572.9216282037216388
 20
107.7378261174555973
 30
0.0
 40
0.0393700787
 50
0.0
 51
90.0
  0
ARC
  5
991B
  8
0
 10
573.6184785974215856
 20
106.9701095820555992
 30
0.0
 40
0.0393700787
 50
53.1371705157983101
 51
90.0
  0
ARC
  5
991C
  8
0
 10
573.7287148179216274
 20
106.6079048576555977
 30
0.0
 40
0.0393700787
 50
270.0
 51
0.0
  0
ARC
  5
991D
  8
0
 10
572.9970781637216533
 20
107.0455484263555945
 30
0.0
 40
0.0197061467
 50
180.1804446669002004
 51
270.1497422225236278
  0
ARC
  5
991E
  8
0
 10
569.6137671207217181
 20
106.5243354058555951
 30
0.0
 40
0.0196850394
 50
285.3146412405023966
 51
359.0000000017369075
  0
ARC
  5
991F
  8
0
 10
569.112829541264432
 20
106.3639228099124949
 30
0.0
 40
0.1030132375610074
 50
271.169067089940711
 51
300.1578843321868817
  0
ARC
  5
9920
  8
0
 10
570.0322686834988417
 20
105.1677948185254934
 30
0.0
 40
1.4065768193954451
 50
116.8485847233250041
 51
128.0885368041795118
  0
ARC
  5
9921
  8
0
 10
569.8919663337412658
 20
105.4322825868352993
 30
0.0
 40
1.1072494545254099
 50
104.2738612612813967
 51
116.5522615385858956
  0
ARC
  5
9922
  8
0
 10
569.6188354245281289
 20
106.5567189738450935
 30
0.0
 40
0.0118278871194051
 50
359.6729194731547068
 51
87.4100439573183934
  0
ARC
  5
9923
  8
0
 10
573.0018709824538519
 20
107.049347665564099
 30
0.0
 40
0.040923841073988
 50
177.1352979517697008
 51
205.6478354971631006
  0
ARC
  5
9924
  8
0
 10
572.9999592045921872
 20
107.0484297317855038
 30
0.0
 40
0.0388031107720399
 50
205.6478354971631006
 51
244.311720082223701
  0
ARC
  5
9925
  8
0
 10
573.0005278218619651
 20
107.0490094836845998
 30
0.0
 40
0.0395729059772759
 50
243.933667423781003
 51
267.3261854649912266
  0
LINE
  5
9926
  8
0
 10
574.4374059474216665
 20
108.1021140974555976
 30
0.0
 11
574.4374059474216665
 21
105.4247192398556052
 31
0.0
  0
LINE
  5
9927
  8
0
 10
562.0947417985216816
 20
105.4051192398555941
 30
0.0
 11
574.417805947421698
 21
105.4051192398555941
 31
0.0
  0
LINE
  5
9928
  8
0
 10
562.0947417985216816
 20
108.1217140974555946
 30
0.0
 11
574.417805947421698
 21
108.1217140974555946
 31
0.0
  0
LINE
  5
9929
  8
0
 10
562.0751417985217131
 20
105.4247192398556052
 30
0.0
 11
562.0751417985217131
 21
108.1021140974555976
 31
0.0
  0
ARC
  5
992A
  8
0
 10
562.0947417985216816
 20
105.4247192398556052
 30
0.0
 40
0.0196
 50
180.0000000000023874
 51
270.0
  0
ARC
  5
992B
  8
0
 10
562.0947417985216816
 20
108.1021140974555976
 30
0.0
 40
0.0196
 50
90.0
 51
180.0
  0
ARC
  5
992C
  8
0
 10
574.417805947421698
 20
108.1021140974555976
 30
0.0
 40
0.0196
 50
359.9999999999976126
 51
90.0000000000065086
  0
ARC
  5
992D
  8
0
 10
574.417805947421698
 20
105.4247192398556052
 30
0.0
 40
0.0196
 50
269.9999999999935199
 51
0.0
  0
ENDSEC
  0
EOF
