  0
SECTION
  2
HEADER
  9
$ACADVER
  1
AC1009
  9
$INSBASE
 10
474.9907804580279276
 20
68.4584799924678009
 30
0.0
  9
$EXTMIN
 10
458.9880860702975269
 20
58.0670688828944321
 30
0.0
  9
$EXTMAX
 10
485.4188785741401944
 20
76.3148302084906049
 30
0.0
  9
$LIMMIN
 10
0.0
 20
0.0
  9
$LIMMAX
 10
11.6929133858000007
 20
8.2677165353999982
  9
$ORTHOMODE
 70
     1
  9
$REGENMODE
 70
     1
  9
$FILLMODE
 70
     1
  9
$QTEXTMODE
 70
     0
  9
$MIRRTEXT
 70
     0
  9
$DRAGMODE
 70
     2
  9
$LTSCALE
 40
0.6431102362
  9
$OSMODE
 70
  4095
  9
$ATTMODE
 70
     1
  9
$TEXTSIZE
 40
0.2
  9
$TRACEWID
 40
0.05
  9
$TEXTSTYLE
  7
STANDARD
  9
$CLAYER
  8
0
  9
$CELTYPE
  6
BYLAYER
  9
$CECOLOR
 62
   256
  9
$DIMSCALE
 40
1.0
  9
$DIMASZ
 40
0.1875
  9
$DIMEXO
 40
0.0625
  9
$DIMDLI
 40
0.4443307087
  9
$DIMRND
 40
0.0
  9
$DIMDLE
 40
0.0
  9
$DIMEXE
 40
0.125
  9
$DIMTP
 40
0.01
  9
$DIMTM
 40
0.01
  9
$DIMTXT
 40
1.0
  9
$DIMCEN
 40
0.1052362205
  9
$DIMTSZ
 40
0.0
  9
$DIMTOL
 70
     1
  9
$DIMLIM
 70
     0
  9
$DIMTIH
 70
     0
  9
$DIMTOH
 70
     1
  9
$DIMSE1
 70
     0
  9
$DIMSE2
 70
     0
  9
$DIMTAD
 70
     0
  9
$DIMZIN
 70
     0
  9
$DIMBLK
  1

  9
$DIMASO
 70
     1
  9
$DIMSHO
 70
     1
  9
$DIMPOST
  1
\X
  9
$DIMAPOST
  1

  9
$DIMALT
 70
     1
  9
$DIMALTD
 70
     2
  9
$DIMALTF
 40
25.3999999999999986
  9
$DIMLFAC
 40
1.0
  9
$DIMTOFL
 70
     0
  9
$DIMTVP
 40
0.0
  9
$DIMTIX
 70
     0
  9
$DIMSOXD
 70
     0
  9
$DIMSAH
 70
     0
  9
$DIMBLK1
  1

  9
$DIMBLK2
  1

  9
$DIMSTYLE
  2
STANDARD
  9
$DIMCLRD
 70
     0
  9
$DIMCLRE
 70
     0
  9
$DIMCLRT
 70
     0
  9
$DIMTFAC
 40
1.0
  9
$DIMGAP
 40
0.09
  9
$LUNITS
 70
     2
  9
$LUPREC
 70
     4
  9
$SKETCHINC
 40
0.1
  9
$FILLETRAD
 40
0.0
  9
$AUNITS
 70
     0
  9
$AUPREC
 70
     0
  9
$MENU
  1
.
  9
$ELEVATION
 40
0.0
  9
$PELEVATION
 40
0.0
  9
$THICKNESS
 40
0.0
  9
$LIMCHECK
 70
     0
  9
$BLIPMODE
 70
     0
  9
$CHAMFERA
 40
0.0
  9
$CHAMFERB
 40
0.0
  9
$SKPOLY
 70
     0
  9
$TDCREATE
 40
2458172.5207638889551163
  9
$TDUPDATE
 40
2459033.5255439821630716
  9
$TDINDWG
 40
0.2463629398
  9
$TDUSRTIMER
 40
0.2463629398
  9
$USRTIMER
 70
     1
  9
$ANGBASE
 50
0.0
  9
$ANGDIR
 70
     0
  9
$PDMODE
 70
     0
  9
$PDSIZE
 40
0.3125
  9
$PLINEWID
 40
0.0
  9
$COORDS
 70
     1
  9
$SPLFRAME
 70
     0
  9
$SPLINETYPE
 70
     6
  9
$SPLINESEGS
 70
     8
  9
$ATTDIA
 70
     1
  9
$ATTREQ
 70
     1
  9
$HANDLING
 70
     1
  9
$HANDSEED
  5
8283
  9
$SURFTAB1
 70
     6
  9
$SURFTAB2
 70
     6
  9
$SURFTYPE
 70
     6
  9
$SURFU
 70
     6
  9
$SURFV
 70
     6
  9
$UCSNAME
  2

  9
$UCSORG
 10
0.0
 20
0.0
 30
0.0
  9
$UCSXDIR
 10
1.0
 20
0.0
 30
0.0
  9
$UCSYDIR
 10
0.0
 20
1.0
 30
0.0
  9
$PUCSNAME
  2

  9
$PUCSORG
 10
0.0
 20
0.0
 30
0.0
  9
$PUCSXDIR
 10
1.0
 20
0.0
 30
0.0
  9
$PUCSYDIR
 10
0.0
 20
1.0
 30
0.0
  9
$USERI1
 70
     0
  9
$USERI2
 70
     0
  9
$USERI3
 70
     0
  9
$USERI4
 70
     0
  9
$USERI5
 70
     0
  9
$USERR1
 40
0.0
  9
$USERR2
 40
0.0
  9
$USERR3
 40
0.0
  9
$USERR4
 40
0.0
  9
$USERR5
 40
0.0
  9
$WORLDVIEW
 70
     1
  9
$SHADEDGE
 70
     3
  9
$SHADEDIF
 70
    70
  9
$TILEMODE
 70
     1
  9
$MAXACTVP
 70
    64
  9
$PLIMCHECK
 70
     0
  9
$PEXTMIN
 10
1.0000000000000000E+20
 20
1.0000000000000000E+20
 30
1.0000000000000000E+20
  9
$PEXTMAX
 10
-1.0000000000000000E+20
 20
-1.0000000000000000E+20
 30
-1.0000000000000000E+20
  9
$PLIMMIN
 10
0.0
 20
0.0
  9
$PLIMMAX
 10
12.0
 20
9.0
  9
$UNITMODE
 70
     0
  9
$VISRETAIN
 70
     1
  9
$PLINEGEN
 70
     0
  9
$PSLTSCALE
 70
     1
  0
ENDSEC
  0
SECTION
  2
TABLES
  0
TABLE
  2
VPORT
 70
     1
  0
VPORT
  2
*ACTIVE
 70
     0
 10
0.0
 20
0.0
 11
1.0
 21
1.0
 12
39.7404246653676694
 22
2.3063603587121579
 13
0.0
 23
0.0
 14
1.0
 24
1.0
 15
0.0
 25
0.0
 16
0.0
 26
0.0
 36
14.6338572656650907
 17
429.6292891080536833
 27
69.7025415122186871
 37
0.0
 40
19.5205210664299784
 41
2.1123470522803109
 42
50.0
 43
0.0
 44
0.0
 50
0.0
 51
0.0
 71
     0
 72
   100
 73
     1
 74
     1
 75
     0
 76
     0
 77
     0
 78
     0
  0
ENDTAB
  0
TABLE
  2
LTYPE
 70
     2
  0
LTYPE
  2
CONTINUOUS
 70
     0
  3
Solid line
 72
    65
 73
     0
 40
0.0
  0
LTYPE
  2
PHANTOM2
 70
     0
  3
___ _ _ ___ _ _ ___ _ _ ___ _ _
 72
    65
 73
     6
 40
1.25
 49
0.625
 49
-0.125
 49
0.125
 49
-0.125
 49
0.125
 49
-0.125
  0
ENDTAB
  0
TABLE
  2
LAYER
 70
     2
  0
LAYER
  2
0
 70
     0
 62
   255
  6
CONTINUOUS
  0
LAYER
  2
DEFPOINTS
 70
     0
 62
     7
  6
CONTINUOUS
  0
ENDTAB
  0
TABLE
  2
STYLE
 70
     1
  0
STYLE
  2
STANDARD
 70
     0
 40
0.0
 41
0.8
 50
0.0
 71
     0
 42
0.2
  3
txt
  4

  0
ENDTAB
  0
TABLE
  2
VIEW
 70
     0
  0
ENDTAB
  0
TABLE
  2
UCS
 70
     0
  0
ENDTAB
  0
TABLE
  2
APPID
 70
    10
  0
APPID
  2
ACAD
 70
     0
  0
APPID
  2
ACAD_MLEADERVER
 70
     0
  0
APPID
  2
ACAD_EXEMPT_FROM_CAD_STANDARDS
 70
     0
  0
APPID
  2
ACAD_DSTYLE_DIMJAG
 70
     0
  0
APPID
  2
ACAD_DSTYLE_DIMTALN
 70
     0
  0
APPID
  2
ACAD_NAV_VCDISPLAY
 70
     0
  0
APPID
  2
ACAECLAYERSTANDARD
 70
     0
  0
APPID
  2
ACCMTRANSPARENCY
 70
     0
  0
APPID
  2
DCO15
 70
     0
  0
APPID
  2
ACDBATTR
 70
     0
  0
ENDTAB
  0
TABLE
  2
DIMSTYLE
 70
     1
  0
DIMSTYLE
  2
STANDARD
 70
     0
  3

  4

  5

  6

  7

 40
1.0
 41
0.1875
 42
0.0625
 43
0.38
 44
0.125
 45
0.0
 46
0.0
 47
0.01
 48
0.01
140
0.15625
141
0.09
142
0.0
143
25.3999999999999986
144
1.0
145
0.0
146
1.0
147
0.09
 71
     1
 72
     0
 73
     1
 74
     1
 75
     0
 76
     0
 77
     0
 78
     4
170
     0
171
     2
172
     0
173
     0
174
     0
175
     0
176
     0
177
     0
178
     0
  0
ENDTAB
  0
ENDSEC
  0
SECTION
  2
BLOCKS
  0
BLOCK
  8
0
  2
$MODEL_SPACE
 70
     0
 10
0.0
 20
0.0
 30
0.0
  3
$MODEL_SPACE
  1

  0
ENDBLK
  5
21
  8
0
  0
BLOCK
 67
     1
  8
0
  2
$PAPER_SPACE
 70
     0
 10
0.0
 20
0.0
 30
0.0
  3
$PAPER_SPACE
  1

  0
ENDBLK
  5
1D
 67
     1
  8
0
  0
BLOCK
  8
0
  2
_FILLED
 70
     0
 10
0.0
 20
0.0
 30
0.0
  3
_FILLED
  1

  0
SOLID
  5
81DA
  8
0
  6
BYBLOCK
 62
     0
 10
0.0
 20
0.0
 30
0.0
 11
-1.0
 21
0.1666666667
 31
0.0
 12
-1.0
 22
-0.1666666667
 32
0.0
 13
-1.0
 23
-0.1666666667
 33
0.0
  0
ENDBLK
  5
81DB
  8
0
  6
BYBLOCK
 62
     0
  0
ENDSEC
  0
SECTION
  2
ENTITIES
  0
LINE
  5
804C
  8
0
 10
463.9093470757002819
 20
68.6376646153906051
 30
0.0
 11
465.8778510127003756
 21
68.6376646153906051
 31
0.0
  0
LINE
  5
804D
  8
0
 10
458.9880872332003037
 20
72.6337276075906004
 30
0.0
 11
458.9880872332003037
 21
72.7124677649906062
 31
0.0
  0
LINE
  5
804E
  8
0
 10
459.4332027170004267
 20
72.2168285419906084
 30
0.0
 11
460.511475549565489
 21
71.9876345762308176
 31
0.0
  0
LINE
  5
804F
  8
0
 10
460.9172209838002914
 20
72.1809717019906003
 30
0.0
 11
463.5156462918002944
 21
72.1809717019906003
 31
0.0
  0
LINE
  5
8050
  8
0
 10
459.0471423513004083
 20
72.7715228831905989
 30
0.0
 11
466.09438644580041
 21
72.7715228831905989
 31
0.0
  0
LINE
  5
8051
  8
0
 10
463.9093470757002819
 20
68.6376646153906051
 30
0.0
 11
463.9093470757002819
 21
71.9026268475905965
 31
0.0
  0
LINE
  5
8052
  8
0
 10
464.0731908190002741
 20
71.9447146751905962
 30
0.0
 11
464.0731908189002866
 21
68.6376646153906051
 31
0.0
  0
LINE
  5
8053
  8
0
 10
464.824206036700275
 20
76.2832641731865664
 30
0.0
 11
464.824206036700275
 21
72.9591920575601733
 31
0.0
  0
LINE
  5
8054
  8
0
 10
465.2779526817004125
 20
72.9591920575601733
 30
0.0
 11
465.2779526817004125
 21
76.2832641731875043
 31
0.0
  0
LINE
  5
8055
  8
0
 10
465.7140071393004064
 20
68.6376646153906051
 30
0.0
 11
465.7140066186004219
 21
71.984121179590602
 31
0.0
  0
LINE
  5
8058
  8
0
 10
465.8778510127003756
 20
68.6376646153906051
 30
0.0
 11
465.8778510127003756
 21
71.9456450480905971
 31
0.0
  0
LINE
  5
8059
  8
0
 10
466.1534415639002873
 20
72.6282094572905947
 30
0.0
 11
466.1534415639002873
 21
72.7124677649906062
 31
0.0
  0
LINE
  5
805A
  8
0
 10
465.2463333363883748
 20
76.3148299697905941
 30
0.0
 11
464.8558253820120854
 21
76.3148299697905941
 31
0.0
  0
ARC
  5
805C
  8
0
 10
465.0510793592004006
 20
72.2597118594905936
 30
0.0
 40
0.7086614173000001
 50
110.8833993266649998
 51
133.7457990924993112
  0
ARC
  5
805D
  8
0
 10
464.7842060367004251
 20
72.9591920575601733
 30
0.0
 40
0.04
 50
290.8833993266683251
 51
0.0
  0
ARC
  5
805E
  8
0
 10
465.0510793592004006
 20
72.2597118594905936
 30
0.0
 40
0.7086614173000001
 50
46.2422397765002202
 51
69.1166006733352276
  0
ARC
  5
805F
  8
0
 10
465.3179526817003762
 20
72.9591920575601733
 30
0.0
 40
0.04
 50
180.0
 51
249.1166006733355118
  0
ARC
  5
8060
  8
0
 10
459.0471423513004083
 20
72.7124677649906062
 30
0.0
 40
0.0590551181
 50
90.0
 51
180.0
  0
ARC
  5
8061
  8
0
 10
466.09438644580041
 20
72.7124677649906062
 30
0.0
 40
0.0590551181
 50
0.0
 51
90.0
  0
ARC
  5
8062
  8
0
 10
465.2464559599002882
 20
76.2833334105906005
 30
0.0
 40
0.0314967979
 50
359.8740502387180982
 51
90.2230648169399672
  0
ARC
  5
8063
  8
0
 10
464.8557027585002857
 20
76.2833334105906005
 30
0.0
 40
0.0314967979
 50
89.7769351835062537
 51
180.1259497629843906
  0
ARC
  5
8064
  8
0
 10
471.5144303964847836
 20
71.97352386217473
 30
0.0
 40
5.800433458473921
 50
178.2580722636083976
 51
179.8953212886206927
  0
ARC
  5
8065
  8
0
 10
467.5575916925325828
 20
72.0938582311019758
 30
0.0
 40
1.8417653883473339
 50
171.218480306550191
 51
178.2580722636083976
  0
ARC
  5
8066
  8
0
 10
465.9537050777869922
 20
72.3416233048645836
 30
0.0
 40
0.2188544836034948
 50
125.5894909285018031
 51
171.218480306550191
  0
ARC
  5
8067
  8
0
 10
466.0233424985120791
 20
72.2152634675416323
 30
0.0
 40
0.3625329268171281
 50
97.5270560657219363
 51
122.9162605869243947
  0
ARC
  5
8068
  8
0
 10
461.2683249723306744
 20
71.9498310141648005
 30
0.0
 40
2.804870513050842
 50
359.8954867418581784
 51
6.162736848075073
  0
ARC
  5
8069
  8
0
 10
463.2061504374216838
 20
72.159071150210977
 30
0.0
 40
0.8557812468324325
 50
6.162736848075073
 51
22.9496416137271417
  0
ARC
  5
806A
  8
0
 10
468.1074552177275905
 20
72.0335764286825935
 30
0.0
 40
2.2313374551527598
 50
172.1173487512870963
 51
182.2584669477041075
  0
ARC
  5
806B
  8
0
 10
466.2601543565018005
 20
72.2945699099747117
 30
0.0
 40
0.3657345075982918
 50
147.1950171135212031
 51
172.928870030903397
  0
ARC
  5
806C
  8
0
 10
466.0846321780156813
 20
72.4077078408594446
 30
0.0
 40
0.156908679345662
 50
97.1865760437826793
 51
147.1950171135187873
  0
ARC
  5
806D
  8
0
 10
466.0943687924392975
 20
72.6282333021816839
 30
0.0
 40
0.0590727762736567
 50
283.378795909982216
 51
359.9768723979991023
  0
ARC
  5
806E
  8
0
 10
466.4158480952636978
 20
70.6466272957511308
 30
0.0
 40
1.948601583362001
 50
99.0887891688439879
 51
100.3726602550949991
  0
ARC
  5
806F
  8
0
 10
463.6658163177231131
 20
71.9107049390880491
 30
0.0
 40
0.2436646992143802
 50
358.1001541195959135
 51
44.1984327473713279
  0
ARC
  5
8070
  8
0
 10
463.5508239956847092
 20
71.7190147415628303
 30
0.0
 40
0.463294403309856
 50
51.2982009547166129
 51
94.3546299745665635
  0
ARC
  5
8071
  8
0
 10
460.9155963466117214
 20
71.6619554432984103
 30
0.0
 40
0.5190188014251853
 50
89.8206519572944302
 51
141.1348153162201129
  0
ARC
  5
8072
  8
0
 10
459.0379916013587263
 20
72.1775192874336966
 30
0.0
 40
0.3971612416928006
 50
5.680186478260687
 51
89.6354365518483434
  0
ARC
  5
8073
  8
0
 10
459.047143306050998
 20
72.6333569941760118
 30
0.0
 40
0.0590572357534492
 50
179.6404382359760916
 51
263.5593818782169819
  0
LINE
  5
8074
  8
0
 10
464.7985715474063113
 20
72.9218606752906027
 30
0.0
 11
465.30358717099449
 21
72.9218606752906027
 31
0.0
  0
LINE
  5
8075
  8
0
 10
459.0405186547645258
 20
72.5746724894906095
 30
0.0
 11
466.1192852978231826
 21
72.5746724894906095
 31
0.0
  0
ARC
  5
8076
  8
0
 10
463.851402913800996
 20
72.4157782535075825
 30
0.0
 40
0.1622207349373399
 50
28.3296214808368383
 51
78.3768702349394317
  0
LINE
  5
8078
  8
0
 10
459.6525472380004089
 20
71.9516499353906056
 30
0.0
 11
460.2032366353004136
 21
71.8345972905906081
 31
0.0
  0
LINE
  5
8079
  8
0
 10
459.6056191861003981
 20
72.062248875090603
 30
0.0
 11
460.2910921854003732
 21
71.9165470911906084
 31
0.0
  0
ARC
  5
807A
  8
0
 10
460.2349347591003834
 20
72.0898601296906065
 30
0.0
 40
0.6299212598000001
 50
171.8682138143340978
 51
182.5123416386994961
  0
ARC
  5
807B
  8
0
 10
459.7274143113003788
 20
72.197736930990601
 30
0.0
 40
0.6299212598000001
 50
333.4876583615995855
 51
344.131786195484608
  0
ARC
  5
807C
  8
0
 10
460.1119999079003833
 20
71.9629558086906087
 30
0.0
 40
0.157480315
 50
305.4050643642007117
 51
345.0301241748001075
  0
ARC
  5
807D
  8
0
 10
459.7881042487003924
 20
72.0318019563906091
 30
0.0
 40
0.157480315
 50
170.9698758251998072
 51
210.5949356357992031
  0
ENDSEC
  0
EOF
