  0
SECTION
  2
HEADER
  9
$ACADVER
  1
AC1009
  9
$INSBASE
 10
475.3120874506926157
 20
68.4658878075980653
 30
0.0
  9
$EXTMIN
 10
469.3802868845294256
 20
68.4656172104776033
 30
-0.0000000000000053
  9
$EXTMAX
 10
476.6000918407581253
 20
76.1463351006355822
 30
0.0000000000000099
  9
$LIMMIN
 10
0.0
 20
0.0
  9
$LIMMAX
 10
11.6929133858000007
 20
8.2677165353999982
  9
$ORTHOMODE
 70
     0
  9
$REGENMODE
 70
     1
  9
$FILLMODE
 70
     1
  9
$QTEXTMODE
 70
     0
  9
$MIRRTEXT
 70
     0
  9
$DRAGMODE
 70
     2
  9
$LTSCALE
 40
0.6431102362
  9
$OSMODE
 70
  4095
  9
$ATTMODE
 70
     1
  9
$TEXTSIZE
 40
0.2
  9
$TRACEWID
 40
0.05
  9
$TEXTSTYLE
  7
STANDARD
  9
$CLAYER
  8
0
  9
$CELTYPE
  6
BYLAYER
  9
$CECOLOR
 62
   256
  9
$DIMSCALE
 40
1.0
  9
$DIMASZ
 40
0.1875
  9
$DIMEXO
 40
0.0625
  9
$DIMDLI
 40
0.4443307087
  9
$DIMRND
 40
0.0
  9
$DIMDLE
 40
0.0
  9
$DIMEXE
 40
0.125
  9
$DIMTP
 40
0.01
  9
$DIMTM
 40
0.01
  9
$DIMTXT
 40
1.0
  9
$DIMCEN
 40
0.1052362205
  9
$DIMTSZ
 40
0.0
  9
$DIMTOL
 70
     1
  9
$DIMLIM
 70
     0
  9
$DIMTIH
 70
     0
  9
$DIMTOH
 70
     1
  9
$DIMSE1
 70
     0
  9
$DIMSE2
 70
     0
  9
$DIMTAD
 70
     0
  9
$DIMZIN
 70
     0
  9
$DIMBLK
  1

  9
$DIMASO
 70
     1
  9
$DIMSHO
 70
     1
  9
$DIMPOST
  1
\X
  9
$DIMAPOST
  1

  9
$DIMALT
 70
     1
  9
$DIMALTD
 70
     2
  9
$DIMALTF
 40
25.3999999999999986
  9
$DIMLFAC
 40
1.0
  9
$DIMTOFL
 70
     0
  9
$DIMTVP
 40
0.0
  9
$DIMTIX
 70
     0
  9
$DIMSOXD
 70
     0
  9
$DIMSAH
 70
     0
  9
$DIMBLK1
  1

  9
$DIMBLK2
  1

  9
$DIMSTYLE
  2
STANDARD
  9
$DIMCLRD
 70
     0
  9
$DIMCLRE
 70
     0
  9
$DIMCLRT
 70
     0
  9
$DIMTFAC
 40
1.0
  9
$DIMGAP
 40
0.09
  9
$LUNITS
 70
     2
  9
$LUPREC
 70
     4
  9
$SKETCHINC
 40
0.1
  9
$FILLETRAD
 40
0.0
  9
$AUNITS
 70
     0
  9
$AUPREC
 70
     0
  9
$MENU
  1
.
  9
$ELEVATION
 40
0.0
  9
$PELEVATION
 40
0.0
  9
$THICKNESS
 40
0.0
  9
$LIMCHECK
 70
     0
  9
$BLIPMODE
 70
     0
  9
$CHAMFERA
 40
0.0
  9
$CHAMFERB
 40
0.0
  9
$SKPOLY
 70
     0
  9
$TDCREATE
 40
2458172.5207638889551163
  9
$TDUPDATE
 40
2459033.5338310189545155
  9
$TDINDWG
 40
0.2408884028
  9
$TDUSRTIMER
 40
0.2408884028
  9
$USRTIMER
 70
     1
  9
$ANGBASE
 50
0.0
  9
$ANGDIR
 70
     0
  9
$PDMODE
 70
     0
  9
$PDSIZE
 40
0.3125
  9
$PLINEWID
 40
0.0
  9
$COORDS
 70
     1
  9
$SPLFRAME
 70
     0
  9
$SPLINETYPE
 70
     6
  9
$SPLINESEGS
 70
     8
  9
$ATTDIA
 70
     1
  9
$ATTREQ
 70
     1
  9
$HANDLING
 70
     1
  9
$HANDSEED
  5
827C
  9
$SURFTAB1
 70
     6
  9
$SURFTAB2
 70
     6
  9
$SURFTYPE
 70
     6
  9
$SURFU
 70
     6
  9
$SURFV
 70
     6
  9
$UCSNAME
  2

  9
$UCSORG
 10
0.0
 20
0.0
 30
0.0
  9
$UCSXDIR
 10
1.0
 20
0.0
 30
0.0
  9
$UCSYDIR
 10
0.0
 20
1.0
 30
0.0
  9
$PUCSNAME
  2

  9
$PUCSORG
 10
0.0
 20
0.0
 30
0.0
  9
$PUCSXDIR
 10
1.0
 20
0.0
 30
0.0
  9
$PUCSYDIR
 10
0.0
 20
1.0
 30
0.0
  9
$USERI1
 70
     0
  9
$USERI2
 70
     0
  9
$USERI3
 70
     0
  9
$USERI4
 70
     0
  9
$USERI5
 70
     0
  9
$USERR1
 40
0.0
  9
$USERR2
 40
0.0
  9
$USERR3
 40
0.0
  9
$USERR4
 40
0.0
  9
$USERR5
 40
0.0
  9
$WORLDVIEW
 70
     1
  9
$SHADEDGE
 70
     3
  9
$SHADEDIF
 70
    70
  9
$TILEMODE
 70
     1
  9
$MAXACTVP
 70
    64
  9
$PLIMCHECK
 70
     0
  9
$PEXTMIN
 10
1.0000000000000000E+20
 20
1.0000000000000000E+20
 30
1.0000000000000000E+20
  9
$PEXTMAX
 10
-1.0000000000000000E+20
 20
-1.0000000000000000E+20
 30
-1.0000000000000000E+20
  9
$PLIMMIN
 10
0.0
 20
0.0
  9
$PLIMMAX
 10
12.0
 20
9.0
  9
$UNITMODE
 70
     0
  9
$VISRETAIN
 70
     1
  9
$PLINEGEN
 70
     0
  9
$PSLTSCALE
 70
     1
  0
ENDSEC
  0
SECTION
  2
TABLES
  0
TABLE
  2
VPORT
 70
     1
  0
VPORT
  2
*ACTIVE
 70
     0
 10
0.0
 20
0.0
 11
1.0
 21
1.0
 12
43.3609002545899784
 22
2.6034346433379052
 13
0.0
 23
0.0
 14
1.0
 24
1.0
 15
0.0
 25
0.0
 16
0.0
 26
0.0
 36
14.6338572656650907
 17
429.6292891080536833
 27
69.7025415122186871
 37
0.0
 40
7.7288225951067746
 41
2.005224660397074
 42
50.0
 43
0.0
 44
0.0
 50
0.0
 51
0.0
 71
     0
 72
   100
 73
     1
 74
     1
 75
     0
 76
     0
 77
     0
 78
     0
  0
ENDTAB
  0
TABLE
  2
LTYPE
 70
     2
  0
LTYPE
  2
CONTINUOUS
 70
     0
  3
Solid line
 72
    65
 73
     0
 40
0.0
  0
LTYPE
  2
PHANTOM2
 70
     0
  3
___ _ _ ___ _ _ ___ _ _ ___ _ _
 72
    65
 73
     6
 40
1.25
 49
0.625
 49
-0.125
 49
0.125
 49
-0.125
 49
0.125
 49
-0.125
  0
ENDTAB
  0
TABLE
  2
LAYER
 70
     2
  0
LAYER
  2
0
 70
     0
 62
   255
  6
CONTINUOUS
  0
LAYER
  2
DEFPOINTS
 70
     0
 62
     7
  6
CONTINUOUS
  0
ENDTAB
  0
TABLE
  2
STYLE
 70
     1
  0
STYLE
  2
STANDARD
 70
     0
 40
0.0
 41
0.8
 50
0.0
 71
     0
 42
0.2
  3
txt
  4

  0
ENDTAB
  0
TABLE
  2
VIEW
 70
     0
  0
ENDTAB
  0
TABLE
  2
UCS
 70
     0
  0
ENDTAB
  0
TABLE
  2
APPID
 70
    10
  0
APPID
  2
ACAD
 70
     0
  0
APPID
  2
ACAD_MLEADERVER
 70
     0
  0
APPID
  2
ACAD_EXEMPT_FROM_CAD_STANDARDS
 70
     0
  0
APPID
  2
ACAD_DSTYLE_DIMJAG
 70
     0
  0
APPID
  2
ACAD_DSTYLE_DIMTALN
 70
     0
  0
APPID
  2
ACAD_NAV_VCDISPLAY
 70
     0
  0
APPID
  2
ACAECLAYERSTANDARD
 70
     0
  0
APPID
  2
ACCMTRANSPARENCY
 70
     0
  0
APPID
  2
DCO15
 70
     0
  0
APPID
  2
ACDBATTR
 70
     0
  0
ENDTAB
  0
TABLE
  2
DIMSTYLE
 70
     1
  0
DIMSTYLE
  2
STANDARD
 70
     0
  3

  4

  5

  6

  7

 40
1.0
 41
0.1875
 42
0.0625
 43
0.38
 44
0.125
 45
0.0
 46
0.0
 47
0.01
 48
0.01
140
0.15625
141
0.09
142
0.0
143
25.3999999999999986
144
1.0
145
0.0
146
1.0
147
0.09
 71
     1
 72
     0
 73
     1
 74
     1
 75
     0
 76
     0
 77
     0
 78
     4
170
     0
171
     2
172
     0
173
     0
174
     0
175
     0
176
     0
177
     0
178
     0
  0
ENDTAB
  0
ENDSEC
  0
SECTION
  2
BLOCKS
  0
BLOCK
  8
0
  2
$MODEL_SPACE
 70
     0
 10
0.0
 20
0.0
 30
0.0
  3
$MODEL_SPACE
  1

  0
ENDBLK
  5
21
  8
0
  0
BLOCK
 67
     1
  8
0
  2
$PAPER_SPACE
 70
     0
 10
0.0
 20
0.0
 30
0.0
  3
$PAPER_SPACE
  1

  0
ENDBLK
  5
1D
 67
     1
  8
0
  0
ENDSEC
  0
SECTION
  2
ENTITIES
  0
ATTDEF
  5
829
  8
DEFPOINTS
 10
475.3086326932335055
 20
68.4705045366723795
 30
0.0
 40
0.001
  1
K-72842T-4
  3

  2
MODELNUMBER
 70
     0
1001
ACDBATTR
1070
     0
1070
     1
  0
ATTDEF
  5
82A
  8
DEFPOINTS
 10
475.3086326932335055
 20
68.4688378700057143
 30
0.0
 40
0.001
  1
STANCE
  3

  2
TRADENAME
 70
     0
1001
ACDBATTR
1070
     0
1070
     1
  0
ATTDEF
  5
82B
  8
DEFPOINTS
 10
475.3086326932335055
 20
68.4671712033390492
 30
0.0
 40
0.001
  1
BATHROOM SINK  FAUCET
  3

  2
PRODUCT
 70
     0
1001
ACDBATTR
1070
     0
1070
     1
  0
LINE
  5
8185
  8
0
 10
474.3278354821925973
 20
68.4658878075980653
 30
0.0
 11
476.2963394191926909
 21
68.4658878075980653
 31
0.0
  0
LINE
  5
8186
  8
0
 10
469.4065756396926758
 20
72.4619507997980605
 30
0.0
 11
469.4065756396926758
 21
72.5406909571980663
 31
0.0
  0
LINE
  5
8187
  8
0
 10
470.0901078587615984
 20
71.8696008406046616
 30
0.0
 11
470.640797256097585
 21
71.7525481957757734
 31
0.0
  0
LINE
  5
8188
  8
0
 10
470.0368729240806829
 20
71.9694654606545896
 30
0.0
 11
470.7300483891474983
 21
71.8221264671324207
 31
0.0
  0
LINE
  5
8189
  8
0
 10
469.8516911344436267
 20
72.0450517318703731
 30
0.0
 11
470.9299639560637729
 21
71.8158577684369988
 31
0.0
  0
LINE
  5
818A
  8
0
 10
471.3357093902926067
 20
72.0091948941980604
 30
0.0
 11
473.9341346982927234
 21
72.0091948941980604
 31
0.0
  0
LINE
  5
818B
  8
0
 10
469.4656307577927237
 20
72.599746075398059
 30
0.0
 11
476.5128748522927253
 21
72.599746075398059
 31
0.0
  0
LINE
  5
818C
  8
0
 10
474.3278354821925973
 20
68.4658878075980653
 30
0.0
 11
474.3278354821925973
 21
71.7308500397980708
 31
0.0
  0
LINE
  5
818D
  8
0
 10
474.4916792254927032
 20
71.7729378673980705
 30
0.0
 11
474.4916792253926019
 21
68.4658878075980653
 31
0.0
  0
LINE
  5
818E
  8
0
 10
475.2426944431927041
 20
76.1114873653940265
 30
0.0
 11
475.2426944431927041
 21
72.7874152497676477
 31
0.0
  0
LINE
  5
818F
  8
0
 10
475.6964410881927279
 20
72.7874152497676619
 30
0.0
 11
475.6964410881927279
 21
76.1114873653949644
 31
0.0
  0
LINE
  5
8190
  8
0
 10
476.1324955457927217
 20
68.4658878075980653
 30
0.0
 11
476.1324950250926236
 21
71.8123443717980621
 31
0.0
  0
LINE
  5
8191
  8
0
 10
476.2963394191926909
 20
71.7738682402980714
 30
0.0
 11
476.296332441692698
 21
71.7745098027980646
 31
0.0
  0
LINE
  5
8192
  8
0
 10
476.2963394191926909
 20
71.7738682402980714
 30
0.0
 11
476.2963324608926996
 21
71.7745136207980607
 31
0.0
  0
LINE
  5
8193
  8
0
 10
476.2963394191926909
 20
68.4658878075980653
 30
0.0
 11
476.2963394191926909
 21
71.7738682402980714
 31
0.0
  0
LINE
  5
8194
  8
0
 10
476.5719299703927163
 20
72.4564326494980691
 30
0.0
 11
476.5719299703927163
 21
72.5406909571980663
 31
0.0
  0
LINE
  5
8195
  8
0
 10
475.6648217428805765
 20
76.1430531619980684
 30
0.0
 11
475.2743137885045144
 21
76.1430531619980684
 31
0.0
  0
ARC
  5
8196
  8
0
 10
483.6173472260925905
 20
71.853801488998073
 30
0.0
 40
7.321444163899999
 50
180.3244340267997927
 51
180.6205289122995907
  0
ARC
  5
8197
  8
0
 10
475.4695677656926023
 20
72.0879350516980679
 30
0.0
 40
0.7086614173000001
 50
110.8833993266648008
 51
133.7617426816846944
  0
ARC
  5
8198
  8
0
 10
475.2026944431926836
 20
72.7874152497676477
 30
0.0
 40
0.04
 50
290.8833993266683251
 51
0.0
  0
ARC
  5
8199
  8
0
 10
475.4695677656926023
 20
72.0879350516980679
 30
0.0
 40
0.7086614173000001
 50
46.2382573183153198
 51
69.1166006733352276
  0
ARC
  5
819A
  8
0
 10
475.7364410881925778
 20
72.7874152497676619
 30
0.0
 40
0.04
 50
180.0
 51
249.1166006733351992
  0
ARC
  5
819B
  8
0
 10
470.1749196537925854
 20
72.1201099624980628
 30
0.0
 40
0.6300492650000001
 50
331.7738665609135751
 51
335.1033972532018197
  0
ARC
  5
819C
  8
0
 10
470.6650811331925865
 20
72.0158900182980659
 30
0.0
 40
0.6299212598000001
 50
180.8962661080996099
 51
184.2264727574986978
  0
ARC
  5
819D
  8
0
 10
470.224732631392726
 20
71.9513089809980642
 30
0.0
 40
0.157480315
 50
175.7728192765999893
 51
211.2549215862919993
  0
ARC
  5
819E
  8
0
 10
470.5510451011925852
 20
71.8819491242980604
 30
0.0
 40
0.157480315
 50
304.7450784656141991
 51
340.227180723399897
  0
ARC
  5
819F
  8
0
 10
469.4656307577927237
 20
72.5406909571980663
 30
0.0
 40
0.0590551181
 50
90.0
 51
180.0
  0
ARC
  5
81A0
  8
0
 10
476.5128748522927253
 20
72.5406909571980663
 30
0.0
 40
0.0590551181
 50
0.0
 51
90.0
  0
ARC
  5
81A1
  8
0
 10
475.6649443663926036
 20
76.1115566027980606
 30
0.0
 40
0.0314967979
 50
359.8740502387180982
 51
90.2230648169399672
  0
ARC
  5
81A2
  8
0
 10
475.274191164992601
 20
76.1115566027980606
 30
0.0
 40
0.0314967979
 50
89.7769351835062537
 51
180.1259497629843906
  0
ARC
  5
81A3
  8
0
 10
481.9329188029770989
 20
71.8017470543821901
 30
0.0
 40
5.800433458473921
 50
178.2580722636076018
 51
179.8953212886206927
  0
ARC
  5
81A4
  8
0
 10
477.9760800990247844
 20
71.9220814233094359
 30
0.0
 40
1.8417653883473339
 50
171.2184803065509868
 51
178.2580722636076018
  0
ARC
  5
81A5
  8
0
 10
476.3721934842793075
 20
72.1698464970720579
 30
0.0
 40
0.2188544836034948
 50
125.5894909285018031
 51
171.2184803065509868
  0
ARC
  5
81A6
  8
0
 10
476.4418309050043945
 20
72.0434866597490924
 30
0.0
 40
0.3625329268171281
 50
97.5270560657219363
 51
122.9162605869238973
  0
ARC
  5
81A7
  8
0
 10
471.6868133788229898
 20
71.7780542063722606
 30
0.0
 40
2.804870513050842
 50
359.8954867418573826
 51
6.162736848075073
  0
ARC
  5
81A8
  8
0
 10
473.6246388439138855
 20
71.9872943424184371
 30
0.0
 40
0.8557812468324325
 50
6.162736848075073
 51
22.9496416137271417
  0
ARC
  5
81A9
  8
0
 10
478.3984378091819849
 20
71.8742894825337402
 30
0.0
 40
2.1033297399779278
 50
171.9780163564039981
 51
181.6876582312715129
  0
ARC
  5
81AA
  8
0
 10
476.6786427629941159
 20
72.1227931021821718
 30
0.0
 40
0.3657345075982918
 50
147.1950171135225958
 51
172.928870030903397
  0
ARC
  5
81AB
  8
0
 10
476.5031205845079967
 20
72.2359310330669189
 30
0.0
 40
0.156908679345662
 50
97.1865760437827504
 51
147.1950171135181051
  0
ARC
  5
81AC
  8
0
 10
476.5128571989314992
 20
72.456456494389144
 30
0.0
 40
0.0590727762736567
 50
283.3787959099853992
 51
359.9768723979991023
  0
ARC
  5
81AD
  8
0
 10
476.8343365017560131
 20
70.4748504879585909
 30
0.0
 40
1.948601583362001
 50
99.0887891688439026
 51
100.3726602550949991
  0
ARC
  5
81AE
  8
0
 10
474.0843047242153716
 20
71.7389281312955234
 30
0.0
 40
0.2436646992143802
 50
358.1001541195959135
 51
44.1984327473710294
  0
ARC
  5
81AF
  8
0
 10
473.9693124021770245
 20
71.5472379337703046
 30
0.0
 40
0.463294403309856
 50
51.2982009547168616
 51
94.3546299745633092
  0
ARC
  5
81B0
  8
0
 10
471.334084753103923
 20
71.4901786355058704
 30
0.0
 40
0.5190188014251853
 50
89.8206519572944302
 51
141.1348153159119079
  0
ARC
  5
81B1
  8
0
 10
469.4564800078509847
 20
72.0057424796411567
 30
0.0
 40
0.3971612416928006
 50
5.6801811393287123
 51
89.6354365518483434
  0
ARC
  5
81B2
  8
0
 10
469.4656317125433134
 20
72.4615801863834719
 30
0.0
 40
0.0590572357534492
 50
179.6404382359760916
 51
263.5593818782169819
  0
LINE
  5
81B3
  8
0
 10
475.2170599538986266
 20
72.7500838674980628
 30
0.0
 11
475.7220755774866916
 21
72.7500838674980628
 31
0.0
  0
LINE
  5
81B4
  8
0
 10
469.4590070612567843
 20
72.4028956816980553
 30
0.0
 11
476.537773704315498
 21
72.4028956816980553
 31
0.0
  0
ARC
  5
81B5
  8
0
 10
474.2698913202933113
 20
72.2440014457150426
 30
0.0
 40
0.1622207349373399
 50
28.3296214808364901
 51
78.3768702349427002
  0
ENDSEC
  0
EOF
