  0
SECTION
  2
HEADER
  9
$ACADVER
  1
AC1009
  9
$INSBASE
 10
470.3913479849240957
 20
134.6937057572289973
 30
0.0
  9
$EXTMIN
 10
464.855733146270893
 20
125.2632333740118042
 30
-0.0000000349181948
  9
$EXTMAX
 10
484.7909075065282991
 20
134.7078709264069971
 30
0.0000000814935746
  9
$LIMMIN
 10
0.0
 20
0.0
  9
$LIMMAX
 10
11.6929133858000007
 20
8.2677165353999982
  9
$ORTHOMODE
 70
     0
  9
$REGENMODE
 70
     1
  9
$FILLMODE
 70
     1
  9
$QTEXTMODE
 70
     0
  9
$MIRRTEXT
 70
     0
  9
$DRAGMODE
 70
     2
  9
$LTSCALE
 40
0.6431102362
  9
$OSMODE
 70
  2039
  9
$ATTMODE
 70
     1
  9
$TEXTSIZE
 40
0.2
  9
$TRACEWID
 40
0.05
  9
$TEXTSTYLE
  7
STANDARD
  9
$CLAYER
  8
0
  9
$CELTYPE
  6
BYLAYER
  9
$CECOLOR
 62
   256
  9
$DIMSCALE
 40
1.0
  9
$DIMASZ
 40
0.1875
  9
$DIMEXO
 40
0.0625
  9
$DIMDLI
 40
0.4443307087
  9
$DIMRND
 40
0.0
  9
$DIMDLE
 40
0.0
  9
$DIMEXE
 40
0.125
  9
$DIMTP
 40
0.01
  9
$DIMTM
 40
0.01
  9
$DIMTXT
 40
1.0
  9
$DIMCEN
 40
0.1052362205
  9
$DIMTSZ
 40
0.0
  9
$DIMTOL
 70
     1
  9
$DIMLIM
 70
     0
  9
$DIMTIH
 70
     0
  9
$DIMTOH
 70
     1
  9
$DIMSE1
 70
     0
  9
$DIMSE2
 70
     0
  9
$DIMTAD
 70
     0
  9
$DIMZIN
 70
     0
  9
$DIMBLK
  1

  9
$DIMASO
 70
     1
  9
$DIMSHO
 70
     1
  9
$DIMPOST
  1
\X
  9
$DIMAPOST
  1

  9
$DIMALT
 70
     1
  9
$DIMALTD
 70
     2
  9
$DIMALTF
 40
25.3999999999999986
  9
$DIMLFAC
 40
1.0
  9
$DIMTOFL
 70
     0
  9
$DIMTVP
 40
0.0
  9
$DIMTIX
 70
     0
  9
$DIMSOXD
 70
     0
  9
$DIMSAH
 70
     0
  9
$DIMBLK1
  1

  9
$DIMBLK2
  1

  9
$DIMSTYLE
  2
STANDARD
  9
$DIMCLRD
 70
     0
  9
$DIMCLRE
 70
     0
  9
$DIMCLRT
 70
     0
  9
$DIMTFAC
 40
1.0
  9
$DIMGAP
 40
0.09
  9
$LUNITS
 70
     2
  9
$LUPREC
 70
     4
  9
$SKETCHINC
 40
0.1
  9
$FILLETRAD
 40
0.0
  9
$AUNITS
 70
     0
  9
$AUPREC
 70
     0
  9
$MENU
  1
.
  9
$ELEVATION
 40
0.0
  9
$PELEVATION
 40
0.0
  9
$THICKNESS
 40
0.0
  9
$LIMCHECK
 70
     0
  9
$BLIPMODE
 70
     0
  9
$CHAMFERA
 40
0.0
  9
$CHAMFERB
 40
0.0
  9
$SKPOLY
 70
     0
  9
$TDCREATE
 40
2458172.5207638889551163
  9
$TDUPDATE
 40
2459154.4133101850748062
  9
$TDINDWG
 40
0.3030215509
  9
$TDUSRTIMER
 40
0.3030215509
  9
$USRTIMER
 70
     1
  9
$ANGBASE
 50
0.0
  9
$ANGDIR
 70
     0
  9
$PDMODE
 70
     0
  9
$PDSIZE
 40
0.3125
  9
$PLINEWID
 40
0.0
  9
$COORDS
 70
     1
  9
$SPLFRAME
 70
     0
  9
$SPLINETYPE
 70
     6
  9
$SPLINESEGS
 70
     8
  9
$ATTDIA
 70
     1
  9
$ATTREQ
 70
     1
  9
$HANDLING
 70
     1
  9
$HANDSEED
  5
F9AA
  9
$SURFTAB1
 70
     6
  9
$SURFTAB2
 70
     6
  9
$SURFTYPE
 70
     6
  9
$SURFU
 70
     6
  9
$SURFV
 70
     6
  9
$UCSNAME
  2

  9
$UCSORG
 10
0.0
 20
0.0
 30
0.0
  9
$UCSXDIR
 10
1.0
 20
0.0
 30
0.0
  9
$UCSYDIR
 10
0.0
 20
1.0
 30
0.0
  9
$PUCSNAME
  2

  9
$PUCSORG
 10
0.0
 20
0.0
 30
0.0
  9
$PUCSXDIR
 10
1.0
 20
0.0
 30
0.0
  9
$PUCSYDIR
 10
0.0
 20
1.0
 30
0.0
  9
$USERI1
 70
     0
  9
$USERI2
 70
     0
  9
$USERI3
 70
     0
  9
$USERI4
 70
     0
  9
$USERI5
 70
     0
  9
$USERR1
 40
0.0
  9
$USERR2
 40
0.0
  9
$USERR3
 40
0.0
  9
$USERR4
 40
0.0
  9
$USERR5
 40
0.0
  9
$WORLDVIEW
 70
     1
  9
$SHADEDGE
 70
     3
  9
$SHADEDIF
 70
    70
  9
$TILEMODE
 70
     1
  9
$MAXACTVP
 70
    64
  9
$PLIMCHECK
 70
     0
  9
$PEXTMIN
 10
1.0000000000000000E+20
 20
1.0000000000000000E+20
 30
1.0000000000000000E+20
  9
$PEXTMAX
 10
-1.0000000000000000E+20
 20
-1.0000000000000000E+20
 30
-1.0000000000000000E+20
  9
$PLIMMIN
 10
0.0
 20
0.0
  9
$PLIMMAX
 10
12.0
 20
9.0
  9
$UNITMODE
 70
     0
  9
$VISRETAIN
 70
     1
  9
$PLINEGEN
 70
     0
  9
$PSLTSCALE
 70
     1
  0
ENDSEC
  0
SECTION
  2
TABLES
  0
TABLE
  2
VPORT
 70
     1
  0
VPORT
  2
*ACTIVE
 70
     0
 10
0.0
 20
0.0
 11
1.0
 21
1.0
 12
-28.7172258947873615
 22
36.1391361707930514
 13
0.0
 23
0.0
 14
1.0
 24
1.0
 15
0.0
 25
0.0
 16
0.0
 26
0.0
 36
25.7967328817476016
 17
503.5405462211870145
 27
93.8464159794164061
 37
0.0
 40
9.5295968107375764
 41
2.848348348348348
 42
50.0
 43
0.0
 44
0.0
 50
0.0
 51
0.0
 71
     0
 72
   100
 73
     1
 74
     1
 75
     0
 76
     0
 77
     0
 78
     0
  0
ENDTAB
  0
TABLE
  2
LTYPE
 70
     2
  0
LTYPE
  2
CONTINUOUS
 70
     0
  3
Solid line
 72
    65
 73
     0
 40
0.0
  0
LTYPE
  2
PHANTOM2
 70
     0
  3
___ _ _ ___ _ _ ___ _ _ ___ _ _
 72
    65
 73
     6
 40
1.25
 49
0.625
 49
-0.125
 49
0.125
 49
-0.125
 49
0.125
 49
-0.125
  0
ENDTAB
  0
TABLE
  2
LAYER
 70
     2
  0
LAYER
  2
0
 70
     0
 62
   255
  6
CONTINUOUS
  0
LAYER
  2
DEFPOINTS
 70
     0
 62
     7
  6
CONTINUOUS
  0
ENDTAB
  0
TABLE
  2
STYLE
 70
     1
  0
STYLE
  2
STANDARD
 70
     0
 40
0.0
 41
0.8
 50
0.0
 71
     0
 42
0.2
  3
txt
  4

  0
ENDTAB
  0
TABLE
  2
VIEW
 70
     0
  0
ENDTAB
  0
TABLE
  2
UCS
 70
     0
  0
ENDTAB
  0
TABLE
  2
APPID
 70
    10
  0
APPID
  2
ACAD
 70
     0
  0
APPID
  2
ACAD_MLEADERVER
 70
     0
  0
APPID
  2
ACAD_EXEMPT_FROM_CAD_STANDARDS
 70
     0
  0
APPID
  2
ACAD_DSTYLE_DIMJAG
 70
     0
  0
APPID
  2
ACAD_DSTYLE_DIMTALN
 70
     0
  0
APPID
  2
ACAD_NAV_VCDISPLAY
 70
     0
  0
APPID
  2
ACAECLAYERSTANDARD
 70
     0
  0
APPID
  2
ACCMTRANSPARENCY
 70
     0
  0
APPID
  2
DCO15
 70
     0
  0
APPID
  2
ACDBATTR
 70
     0
  0
ENDTAB
  0
TABLE
  2
DIMSTYLE
 70
     1
  0
DIMSTYLE
  2
STANDARD
 70
     0
  3

  4

  5

  6

  7

 40
1.0
 41
0.1875
 42
0.0625
 43
0.38
 44
0.125
 45
0.0
 46
0.0
 47
0.01
 48
0.01
140
0.15625
141
0.09
142
0.0
143
25.3999999999999986
144
1.0
145
0.0
146
1.0
147
0.09
 71
     1
 72
     0
 73
     1
 74
     1
 75
     0
 76
     0
 77
     0
 78
     4
170
     0
171
     2
172
     0
173
     0
174
     0
175
     0
176
     0
177
     0
178
     0
  0
ENDTAB
  0
ENDSEC
  0
SECTION
  2
BLOCKS
  0
BLOCK
  8
0
  2
$MODEL_SPACE
 70
     0
 10
0.0
 20
0.0
 30
0.0
  3
$MODEL_SPACE
  1

  0
ENDBLK
  5
21
  8
0
  0
BLOCK
 67
     1
  8
0
  2
$PAPER_SPACE
 70
     0
 10
0.0
 20
0.0
 30
0.0
  3
$PAPER_SPACE
  1

  0
ENDBLK
  5
1D
 67
     1
  8
0
  0
BLOCK
  8
0
  2
_FILLED
 70
     0
 10
0.0
 20
0.0
 30
0.0
  3
_FILLED
  1

  0
SOLID
  5
8C29
  8
0
  6
BYBLOCK
 62
     0
 10
0.0
 20
0.0
 30
0.0
 11
-1.0
 21
0.1666666667
 31
0.0
 12
-1.0
 22
-0.1666666667
 32
0.0
 13
-1.0
 23
-0.1666666667
 33
0.0
  0
ENDBLK
  5
8C2A
  8
0
  6
BYBLOCK
 62
     0
  0
ENDSEC
  0
SECTION
  2
ENTITIES
  0
ATTDEF
  5
EEC9
  8
DEFPOINTS
 10
470.3920923981054898
 20
134.6979247562838964
 30
0.0
 40
0.001
  1
K-72844T-9
  3

  2
MODELNUMBER
 70
     0
1001
ACDBATTR
1070
     0
1070
     1
  0
ATTDEF
  5
EECA
  8
DEFPOINTS
 10
470.3920923981054898
 20
134.6962580896172881
 30
0.0
 40
0.001
  1
STANCE
  3

  2
TRADENAME
 70
     0
1001
ACDBATTR
1070
     0
1070
     1
  0
ATTDEF
  5
EECB
  8
DEFPOINTS
 10
470.3920923981054898
 20
134.6945914229505945
 30
0.0
 40
0.001
  1
BATH AND SHOWER FAUCET
  3

  2
PRODUCT
 70
     0
1001
ACDBATTR
1070
     0
1070
     1
  0
LINE
  5
F628
  8
0
 10
466.4740235210218771
 20
132.4102411903174072
 30
0.0
 11
474.3086691902217922
 21
132.4102412301180891
 31
0.0
  0
LINE
  5
F629
  8
0
 10
481.3987500178961909
 20
134.6937057572289973
 30
0.0
 11
483.0060852210312987
 21
134.6937057572289973
 31
0.0
  0
LINE
  5
F62A
  8
0
 10
483.0060852210312987
 20
134.6937057572289973
 30
0.0
 11
482.9866273202616185
 21
132.4715082098749974
 31
0.0
  0
LINE
  5
F62B
  8
0
 10
482.8126061963304778
 20
132.4692963084289943
 30
0.0
 11
482.8126230008298876
 21
133.4633112066869955
 31
0.0
  0
ARC
  5
F62C
  8
0
 10
482.7929391152699736
 20
133.4633115394584877
 30
0.0
 40
0.0196838855626878
 50
359.9990313700295133
 51
90.0522733648304694
  0
LINE
  5
F62D
  8
0
 10
482.7929211568305732
 20
133.4829954168289987
 30
0.0
 11
481.6118152174782949
 21
133.4829939975290074
 31
0.0
  0
ARC
  5
F62E
  8
0
 10
481.6118103506680086
 20
133.4633563650612871
 30
0.0
 40
0.0196390261944958
 50
89.9872354411133131
 51
126.9599518278550931
  0
ARC
  5
F62F
  8
0
 10
481.6118670363812271
 20
133.4632810310797879
 30
0.0
 40
0.0197333049240656
 50
126.9599518278468935
 51
179.9110628035473098
  0
LINE
  5
F630
  8
0
 10
481.5921337552305204
 20
133.4633116620290139
 30
0.0
 11
481.5921337553305079
 21
132.469299625096312
 31
0.0
  0
LINE
  5
F631
  8
0
 10
482.0842597395305233
 20
134.5834695368289999
 30
0.0
 11
482.3204802119304873
 21
134.5834695368289999
 31
0.0
  0
LINE
  5
F632
  8
0
 10
482.3204802119304873
 20
134.5834695368289999
 30
0.0
 11
482.3204802119304873
 21
134.3866191431289963
 31
0.0
  0
LINE
  5
F633
  8
0
 10
482.3204802119304873
 20
134.3866191431289963
 30
0.0
 11
482.0842597395305233
 21
134.3866191431289963
 31
0.0
  0
LINE
  5
F634
  8
0
 10
482.0842597395305233
 20
134.3866191431289963
 30
0.0
 11
482.0842597395305233
 21
134.5834695368289999
 31
0.0
  0
LINE
  5
F635
  8
0
 10
482.1039447789304973
 20
134.5834695368289999
 30
0.0
 11
482.1039447789304973
 21
134.3866191431289963
 31
0.0
  0
LINE
  5
F636
  8
0
 10
482.3007951726305009
 20
134.5834695368289999
 30
0.0
 11
482.3007951726305009
 21
134.3866191431289963
 31
0.0
  0
LINE
  5
F637
  8
0
 10
482.3007951726305009
 20
134.5601287016289973
 30
0.0
 11
482.1039447789304973
 21
134.5601287016289973
 31
0.0
  0
LINE
  5
F638
  8
0
 10
482.3007951726305009
 20
134.5165404029291096
 30
0.0
 11
482.1039447789304973
 21
134.5165404029291096
 31
0.0
  0
LINE
  5
F639
  8
0
 10
482.1039447789304973
 20
134.5677215053289899
 30
0.0
 11
482.3007951726306146
 21
134.5677215053289899
 31
0.0
  0
LINE
  5
F63A
  8
0
 10
481.5527636776304803
 20
133.5220205112291012
 30
0.0
 11
482.8519762726306226
 21
133.5220205139652023
 31
0.0
  0
LINE
  5
F63B
  8
0
 10
482.8519762726306226
 20
133.5220205139652023
 30
0.0
 11
482.8519762726306226
 21
132.4299262297290056
 31
0.0
  0
LINE
  5
F63C
  8
0
 10
481.5527636788305017
 20
133.5220205095289998
 30
0.0
 11
481.5527636788305017
 21
132.4299262297290056
 31
0.0
  0
LINE
  5
F63D
  8
0
 10
481.6000038529390963
 20
133.4790502479856968
 30
0.0
 11
481.6000038529390963
 21
132.4378016003290099
 31
0.0
  0
LINE
  5
F63E
  8
0
 10
482.8047338031209961
 20
133.4790703683916036
 30
0.0
 11
482.8047321802316105
 21
132.4377953933768026
 31
0.0
  0
LINE
  5
F63F
  8
0
 10
481.3987500178961909
 20
134.6937057572289973
 30
0.0
 11
481.4181125316305838
 21
132.4714427737289952
 31
0.0
  0
LINE
  5
F640
  8
0
 10
466.4740235209218895
 20
130.2448868596260922
 30
0.0
 11
469.0133935978304862
 21
130.2448868597373917
 31
0.0
  0
LINE
  5
F641
  8
0
 10
471.7692991096304809
 20
130.2448868598582123
 30
0.0
 11
474.3086691902217922
 21
130.244886859969597
 31
0.0
  0
LINE
  5
F642
  8
0
 10
464.8833007077727189
 20
132.3968401697713944
 30
0.0
 11
466.3990481234288836
 21
132.4100679024566034
 31
0.0
  0
ARC
  5
F643
  8
0
 10
466.6924963308111955
 20
132.5086664141367976
 30
0.0
 40
0.0984557135718193
 50
271.4259796177066733
 51
359.9999843504984938
  0
ARC
  5
F644
  8
0
 10
468.1886063948160199
 20
132.5086663863635863
 30
0.0
 40
0.0984417551057764
 50
179.999999503112889
 51
268.9487985480079146
  0
LINE
  5
F645
  8
0
 10
466.4165942181846845
 20
133.5126033950174076
 30
0.0
 11
468.4645224692847023
 21
133.5126033950174076
 31
0.0
  0
ARC
  5
F646
  8
0
 10
468.4645224692847023
 20
133.5519734737164868
 30
0.0
 40
0.0393700786991147
 50
270.0000000000064801
 51
359.5000001313132998
  0
LINE
  5
F647
  8
0
 10
468.5038910488926263
 20
133.551629909417386
 30
0.0
 11
468.5099213920087209
 21
134.6937057572289973
 31
0.0
  0
LINE
  5
F648
  8
0
 10
468.5099213920087209
 20
134.6937057572289973
 30
0.0
 11
466.3633224917088
 21
134.6937057572172876
 31
0.0
  0
LINE
  5
F649
  8
0
 10
466.3633224917088
 20
134.6937057572172876
 30
0.0
 11
466.3772256385847186
 21
133.551629909417386
 31
0.0
  0
ARC
  5
F64A
  8
0
 10
466.4165942182852973
 20
133.5519734738099089
 30
0.0
 40
0.0393700787925437
 50
180.5000000034715981
 51
269.9999998536550265
  0
LINE
  5
F64B
  8
0
 10
466.8007945641846845
 20
133.5126033950174076
 30
0.0
 11
466.8007945641846845
 21
133.4042919340172944
 31
0.0
  0
LINE
  5
F64C
  8
0
 10
466.8007945641846845
 20
133.4042919340172944
 30
0.0
 11
466.8500071626846761
 21
133.3629970958174056
 31
0.0
  0
LINE
  5
F64D
  8
0
 10
466.8500071626846761
 20
133.3629970958174056
 30
0.0
 11
466.8500071626846761
 21
132.9496112690173106
 31
0.0
  0
LINE
  5
F64E
  8
0
 10
466.8500071626846761
 20
132.9496112690173106
 30
0.0
 11
468.0311095248845845
 21
132.9496112690173106
 31
0.0
  0
LINE
  5
F64F
  8
0
 10
468.0311095248845845
 20
132.9496112690173106
 30
0.0
 11
468.0311095248845845
 21
133.3629970958174056
 31
0.0
  0
LINE
  5
F650
  8
0
 10
468.0311095248845845
 20
133.3629970958174056
 30
0.0
 11
468.0803221232847022
 21
133.4042913690173009
 31
0.0
  0
LINE
  5
F651
  8
0
 10
468.0803221232847022
 20
133.4042913690173009
 30
0.0
 11
468.0803221232847022
 21
133.5126033950174076
 31
0.0
  0
LINE
  5
F652
  8
0
 10
466.8106370838847283
 20
132.8826821352174079
 30
0.0
 11
468.0704796035847153
 21
132.8826821352174079
 31
0.0
  0
ARC
  5
F653
  8
0
 10
468.0704796035847153
 20
132.8629970958172919
 30
0.0
 40
0.0196850393999952
 50
0.0
 51
89.9999999999869686
  0
LINE
  5
F654
  8
0
 10
468.0901646429845755
 20
132.8629970958172919
 30
0.0
 11
468.0901646429845755
 21
132.508666387245114
 31
0.0
  0
ARC
  5
F655
  8
0
 10
466.8106370838140151
 20
132.8629970959881064
 30
0.0
 40
0.0196850392292802
 50
89.9999997941679339
 51
180.000000496887111
  0
LINE
  5
F656
  8
0
 10
466.7909520445846852
 20
132.8629970958172919
 30
0.0
 11
466.7909520476575835
 21
132.5086663872172892
 31
0.0
  0
LINE
  5
F657
  8
0
 10
467.0192985011847213
 20
132.9496112690173106
 30
0.0
 11
467.0192985011847213
 21
132.8826821352174079
 31
0.0
  0
LINE
  5
F658
  8
0
 10
467.8618181862847223
 20
132.9496112690173106
 30
0.0
 11
467.8618181862847223
 21
132.8826821352174079
 31
0.0
  0
ARC
  5
F659
  8
0
 10
464.8834725987923093
 20
132.3771556219853096
 30
0.0
 40
0.0196852982721883
 50
90.5003101752777752
 51
179.9992492661606036
  0
LINE
  5
F65A
  8
0
 10
464.8833007077743105
 20
132.3968401697713944
 30
0.0
 11
466.3990481234305889
 21
132.4100679024566034
 31
0.0
  0
ARC
  5
F65B
  8
0
 10
466.3970001423979852
 20
132.3902360580131017
 30
0.0
 40
0.0199373087537252
 50
0.4240458607718784
 51
84.1041184301905815
  0
LINE
  5
F65C
  8
0
 10
466.4169369051236913
 20
132.3903836126173132
 30
0.0
 11
466.4169369051236913
 21
130.2647444373183134
 31
0.0
  0
ARC
  5
F65D
  8
0
 10
466.3961370896370227
 20
130.2656763202477919
 30
0.0
 40
0.0208206803461724
 50
278.0371297789620257
 51
357.4347235277982122
  0
LINE
  5
F65E
  8
0
 10
466.3990481289357035
 20
130.2450601474633061
 30
0.0
 11
464.8833007061701892
 21
130.2582878801773063
 31
0.0
  0
ARC
  5
F65F
  8
0
 10
464.883472598970684
 20
130.2779724280802043
 30
0.0
 40
0.0196852984504923
 50
180.0007511146721129
 51
269.4996912316635758
  0
LINE
  5
F660
  8
0
 10
466.4523699758306066
 20
130.2645718990173123
 30
0.0
 11
466.4523699758306066
 21
132.3905561509172912
 31
0.0
  0
ARC
  5
F661
  8
0
 10
466.4755962727181213
 20
132.3867591927300964
 30
0.0
 40
0.0235346076785811
 50
93.8317715886223738
 51
170.7156015470164903
  0
ARC
  5
F662
  8
0
 10
466.4755962725176914
 20
130.268368857404198
 30
0.0
 40
0.0235346075129378
 50
189.2843990113755126
 51
266.1682288735307225
  0
LINE
  5
F663
  8
0
 10
466.4169369051236913
 20
130.7035482769173882
 30
0.0
 11
466.4523699758306066
 21
130.7035482769173882
 31
0.0
  0
LINE
  5
F664
  8
0
 10
466.4169369051236913
 20
132.3452805604173932
 30
0.0
 11
466.4523699758306066
 21
132.3452805604173079
 31
0.0
  0
LINE
  5
F665
  8
0
 10
464.8637873005220058
 20
130.277972170017307
 30
0.0
 11
464.8637873005220058
 21
132.3771558799174102
 31
0.0
  0
ARC
  5
F666
  8
0
 10
469.013393597759773
 20
129.9299262294584025
 30
0.0
 40
0.3149606300706947
 50
0.0000000310527986
 51
89.9999999871385512
  0
LINE
  5
F667
  8
0
 10
469.3283542278305163
 20
129.9299262296289896
 30
0.0
 11
469.3283542278305163
 21
125.9141781981289938
 31
0.0
  0
ARC
  5
F668
  8
0
 10
469.5252046213594781
 20
125.9141781979579946
 30
0.0
 40
0.1968503935289658
 50
179.9999999502167896
 51
270.0000000209744258
  0
LINE
  5
F669
  8
0
 10
469.5252046214314987
 20
125.7173278044290043
 30
0.0
 11
471.2574880860306052
 21
125.7173278044398046
 31
0.0
  0
ARC
  5
F66A
  8
0
 10
471.2574880860294115
 20
125.914178198141002
 30
0.0
 40
0.1968503937012222
 50
270.0000000003549872
 51
359.9999999965135089
  0
LINE
  5
F66B
  8
0
 10
471.4543384797304952
 20
125.9141781981289938
 30
0.0
 11
471.4543384799749219
 21
129.9299262296289896
 31
0.0
  0
ARC
  5
F66C
  8
0
 10
471.7692991098941206
 20
129.9299262296098902
 30
0.0
 40
0.3149606299191614
 50
90.0000000479316355
 51
179.9999999965135089
  0
ARC
  5
F66D
  8
0
 10
481.4580709258355
 20
132.4698699618072055
 30
0.0
 40
0.0399438165821872
 50
179.2443238148200066
 51
269.8822137440853908
  0
ARC
  5
F66E
  8
0
 10
481.5527636762249131
 20
132.4692963088195938
 30
0.0
 40
0.0393700792453124
 50
269.9969792916472215
 51
0.0048259763982541
  0
ARC
  5
F66F
  8
0
 10
481.6393806207120178
 20
132.4378069347658027
 30
0.0
 40
0.0393767681342701
 50
180.0077619552974113
 51
269.9959681858171052
  0
LINE
  5
F670
  8
0
 10
481.6393778498305096
 20
132.398430166729014
 30
0.0
 11
481.6593476631470025
 21
132.398430166729014
 31
0.0
  0
ARC
  5
F671
  8
0
 10
482.2046656472833774
 20
132.120031538790613
 30
0.0
 40
0.6735928631109654
 50
90.1934325817517788
 51
116.2401242900491951
  0
ARC
  5
F672
  8
0
 10
482.1554210010248767
 20
132.2749194357988074
 30
0.0
 40
0.5134694447036243
 50
118.9539275127471996
 51
145.4657600693211918
  0
ARC
  5
F673
  8
0
 10
482.1909306149236158
 20
132.3187475661491135
 30
0.0
 40
0.5209200315645101
 50
151.6631481917112012
 51
175.5746711801110962
  0
ARC
  5
F674
  8
0
 10
506.2289496965128137
 20
130.5367322462965944
 30
0.0
 40
24.6248991853740016
 50
175.7563104657108113
 51
178.1696648150958993
  0
ARC
  5
F675
  8
0
 10
447.3230609130994253
 20
132.1877520507177906
 30
0.0
 40
34.3044483013259907
 50
357.105965819782682
 51
358.5559436247227723
  0
ARC
  5
F676
  8
0
 10
479.4329922975741738
 20
130.5307848508494999
 30
0.0
 40
2.1520739637552051
 50
353.0157467487197778
 51
358.0020758939680263
  0
ARC
  5
F677
  8
0
 10
481.0359092798524898
 20
130.3344185533086943
 30
0.0
 40
0.537173788857105
 50
335.033705226035579
 51
353.0157467487214262
  0
ARC
  5
F678
  8
0
 10
481.3786037136741243
 20
130.1748628785967981
 30
0.0
 40
0.1591559476047141
 50
319.3601638271929914
 51
335.033705226035579
  0
ARC
  5
F679
  8
0
 10
480.8856557203690727
 20
130.662773423518189
 30
0.0
 40
0.8524109470410621
 50
301.9770574647092758
 51
316.0527965189310748
  0
ARC
  5
F67A
  8
0
 10
479.2142547038185967
 20
133.6078503921139884
 30
0.0
 40
4.2381177314052341
 50
284.4300197734730773
 51
300.0587387170133979
  0
ARC
  5
F67B
  8
0
 10
480.5551213699927189
 20
128.498464074367206
 30
0.0
 40
1.044528734853102
 50
105.8190683340375955
 51
122.5781171449067983
  0
ARC
  5
F67C
  8
0
 10
480.3714263190356064
 20
128.8810754396120046
 30
0.0
 40
0.6253094105925511
 50
127.2769825127998047
 51
166.5442497673051889
  0
ARC
  5
F67D
  8
0
 10
488.231399984091297
 20
127.597421498616896
 30
0.0
 40
8.5878708223028681
 50
170.4204920266826946
 51
179.7471267464991911
  0
ARC
  5
F67E
  8
0
 10
498.5832335840817109
 20
127.7280340220042945
 30
0.0
 40
18.9398476913783718
 50
180.2804632780641043
 51
184.6636664529316079
  0
ARC
  5
F67F
  8
0
 10
481.2039348822307829
 20
126.2428954659227003
 30
0.0
 40
1.4988438328150819
 50
182.0950532385529073
 51
201.8850805380525912
  0
ARC
  5
F680
  8
0
 10
480.2232606016258956
 20
125.8362256344294963
 30
0.0
 40
0.4374185731457589
 50
200.3366463595210973
 51
240.1370155940695952
  0
ARC
  5
F681
  8
0
 10
480.684612034444001
 20
127.0981687469061967
 30
0.0
 40
1.77624676679402
 50
247.5204584386110014
 51
267.8742339045307972
  0
ARC
  5
F682
  8
0
 10
482.0803861823349052
 20
143.4546194059523998
 30
0.0
 40
18.1902951849772911
 50
265.3910933859842203
 51
270.3842271103462167
  0
ARC
  5
F683
  8
0
 10
482.3464195388559119
 20
142.4830680785690049
 30
0.0
 40
17.2189373964296202
 50
269.5206711975347957
 51
275.0524061126919264
  0
ARC
  5
F684
  8
0
 10
483.7244307359370055
 20
127.2353859039352955
 30
0.0
 40
1.909375172131428
 50
274.1569080881633909
 51
288.6726205677014718
  0
ARC
  5
F685
  8
0
 10
484.1813847614263864
 20
125.8363951810524952
 30
0.0
 40
0.4379809776334368
 50
290.6352485297817907
 51
340.8364732433324775
  0
ARC
  5
F686
  8
0
 10
482.0612334998696156
 20
126.4900113732251015
 30
0.0
 40
2.656367165719963
 50
342.5315423363766172
 51
356.9519771921615074
  0
ARC
  5
F687
  8
0
 10
465.9338709313797153
 20
127.6824689078609936
 30
0.0
 40
18.82727035428967
 50
355.9378238296225732
 51
359.9297067087441064
  0
ARC
  5
F688
  8
0
 10
467.9670730254861155
 20
126.8958535588204057
 30
0.0
 40
16.8114012272832802
 50
2.603076421257263
 51
7.2471063061141292
  0
ARC
  5
F689
  8
0
 10
484.0377534343650154
 20
128.8874409707557049
 30
0.0
 40
0.6200204411544761
 50
12.0228947344815396
 51
46.4829950481639074
  0
ARC
  5
F68A
  8
0
 10
483.7414750285079776
 20
128.337631357715793
 30
0.0
 40
1.2336476980670039
 50
54.1098113355512567
 51
76.4532253062671998
  0
ARC
  5
F68B
  8
0
 10
484.6941559148986016
 20
132.3789470771976937
 30
0.0
 40
2.918461468250575
 50
232.1212883910156961
 51
256.854859863746924
  0
ARC
  5
F68C
  8
0
 10
484.9304711991475187
 20
130.7176324213428984
 30
0.0
 40
2.127488435912392
 50
177.5385208896462927
 51
197.5710237075645068
  0
ARC
  5
F68D
  8
0
 10
450.7355627341186164
 20
130.0973479080060997
 30
0.0
 40
32.0772782548769086
 50
1.2712483793557341
 51
3.9654216250419951
  0
ARC
  5
F68E
  8
0
 10
482.2958898726045049
 20
132.3346184049713088
 30
0.0
 40
0.4405662897683472
 50
357.5302597142347167
 51
52.8142619880465034
  0
ARC
  5
F68F
  8
0
 10
482.2130820310770787
 20
132.1703771853991896
 30
0.0
 40
0.6223544912083219
 50
55.8810669516580987
 51
85.8080326541412717
  0
ARC
  5
F690
  8
0
 10
482.2021975941964911
 20
132.1700694791373962
 30
0.0
 40
0.6235511142654035
 50
84.8125947800152886
 51
89.9821755324161927
  0
ARC
  5
F691
  8
0
 10
482.9463820448518163
 20
132.4702057593032123
 30
0.0
 40
0.0402663453805034
 50
270.823576558104719
 51
1.853606008019735
  0
ARC
  5
F692
  8
0
 10
482.8519762772871218
 20
132.469296309363699
 30
0.0
 40
0.0393700809565513
 50
180.0000013602767126
 51
270.0142746181119264
  0
ARC
  5
F693
  8
0
 10
482.7653621018304761
 20
132.4378002454290026
 30
0.0
 40
0.0393700787000111
 50
270.0000000000163141
 51
359.9929387461904753
  0
LINE
  5
F694
  8
0
 10
482.7653621018304761
 20
132.398430166729014
 30
0.0
 11
482.7453922883302084
 21
132.398430166729014
 31
0.0
  0
ARC
  5
F695
  8
0
 10
482.395659986653186
 20
132.4762445556316095
 30
0.0
 40
0.3581936473475539
 50
341.5948946978400045
 51
353.367391752291212
  0
ARC
  5
F696
  8
0
 10
482.3829048750696984
 20
132.4648789367510915
 30
0.0
 40
0.3697709565012035
 50
355.3453722237239276
 51
49.3455923441628386
  0
ARC
  5
F697
  8
0
 10
482.1444284426581817
 20
132.0699749764490889
 30
0.0
 40
0.8282593948746185
 50
54.6351894152588571
 51
85.9886277480634647
  0
ARC
  5
F698
  8
0
 10
482.2391593971785824
 20
132.1290897820558996
 30
0.0
 40
0.7679972281939842
 50
92.7457752376390658
 51
126.6305852092039004
  0
ARC
  5
F699
  8
0
 10
482.0647349011763936
 20
132.4358738950379006
 30
0.0
 40
0.4199466022882565
 50
132.516991385523113
 51
164.2743860959317885
  0
ARC
  5
F69A
  8
0
 10
481.9994426643734755
 20
132.4714599347169042
 30
0.0
 40
0.347847605815587
 50
167.0027499030838953
 51
192.1192811495268984
  0
ARC
  5
F69B
  8
0
 10
482.0011733319129803
 20
132.4749411927575125
 30
0.0
 40
0.3502837777163221
 50
192.6165914210442054
 51
199.7071940666627938
  0
ARC
  5
F69C
  8
0
 10
481.583198132399275
 20
158.1020154947050003
 30
0.0
 40
29.0990496761684483
 50
253.2002794465784916
 51
258.9005177761687264
  0
ARC
  5
F69D
  8
0
 10
478.8314884160942029
 20
144.0757629230928956
 30
0.0
 40
14.8054263578679404
 50
258.9005177761687264
 51
270.5554012047965102
  0
ARC
  5
F69E
  8
0
 10
478.9230728699802171
 20
134.628109097202497
 30
0.0
 40
5.357328637900526
 50
270.5554012047965102
 51
281.51684633880501
  0
ARC
  5
F69F
  8
0
 10
479.7868202190937268
 20
149.9519574679324876
 30
0.0
 40
20.1651691221391083
 50
257.6353219370586771
 51
262.6674762462151875
  0
ARC
  5
F6A0
  8
0
 10
478.5497193684831814
 20
139.286615534222193
 30
0.0
 40
9.4301135148552842
 50
261.8520215905534201
 51
276.8818565205256732
  0
ARC
  5
F6A1
  8
0
 10
479.3301815324792869
 20
133.2128324258339944
 30
0.0
 40
3.3069079982994518
 50
276.0664018648620868
 51
301.935356057260492
  0
ARC
  5
F6A2
  8
0
 10
480.0783719062200134
 20
131.9869928790554923
 30
0.0
 40
1.8708890180740549
 50
302.3480097163870823
 51
324.6036624500820267
  0
LINE
  5
F6A3
  8
0
 10
475.8993920034710072
 20
132.3968401697713944
 30
0.0
 11
474.3836445878148993
 21
132.4100679024566034
 31
0.0
  0
ARC
  5
F6A4
  8
0
 10
474.0901963804325874
 20
132.5086664141367976
 30
0.0
 40
0.0984557135718193
 50
180.0000156495015062
 51
268.573142406345994
  0
ARC
  5
F6A5
  8
0
 10
472.5940863164278767
 20
132.5086663863635863
 30
0.0
 40
0.0984417551057764
 50
271.0512014519920854
 51
0.0000004968871168
  0
LINE
  5
F6A6
  8
0
 10
474.3660984930590985
 20
133.5126033950174076
 30
0.0
 11
472.3181702419590806
 21
133.5126033950174076
 31
0.0
  0
ARC
  5
F6A7
  8
0
 10
472.3181702419590806
 20
133.5519734737164868
 30
0.0
 40
0.0393700786991147
 50
180.4999998686867002
 51
269.9999999999935199
  0
LINE
  5
F6A8
  8
0
 10
472.2788016623510998
 20
133.551629909417386
 30
0.0
 11
472.2727713192350052
 21
134.6937057572289973
 31
0.0
  0
LINE
  5
F6A9
  8
0
 10
472.2727713192350052
 20
134.6937057572289973
 30
0.0
 11
474.4193702195349829
 21
134.6937057572172876
 31
0.0
  0
LINE
  5
F6AA
  8
0
 10
474.4193702195349829
 20
134.6937057572172876
 30
0.0
 11
474.4054670726591212
 21
133.551629909417386
 31
0.0
  0
ARC
  5
F6AB
  8
0
 10
474.3660984929585993
 20
133.5519734738099089
 30
0.0
 40
0.0393700787925437
 50
270.0000001463449735
 51
359.4999999965282882
  0
LINE
  5
F6AC
  8
0
 10
473.9818981470590984
 20
133.5126033950174076
 30
0.0
 11
473.9818981470590984
 21
133.4042919340172944
 31
0.0
  0
LINE
  5
F6AD
  8
0
 10
473.9818981470590984
 20
133.4042919340172944
 30
0.0
 11
473.9326855485591068
 21
133.3629970958174056
 31
0.0
  0
LINE
  5
F6AE
  8
0
 10
473.9326855485591068
 20
133.3629970958174056
 30
0.0
 11
473.9326855485591068
 21
132.9496112690173106
 31
0.0
  0
LINE
  5
F6AF
  8
0
 10
473.9326855485591068
 20
132.9496112690173106
 30
0.0
 11
472.7515831863590847
 21
132.9496112690173106
 31
0.0
  0
LINE
  5
F6B0
  8
0
 10
472.7515831863590847
 20
132.9496112690173106
 30
0.0
 11
472.7515831863590847
 21
133.3629970958174056
 31
0.0
  0
LINE
  5
F6B1
  8
0
 10
472.7515831863590847
 20
133.3629970958174056
 30
0.0
 11
472.7023705879590807
 21
133.4042913690173009
 31
0.0
  0
LINE
  5
F6B2
  8
0
 10
472.7023705879590807
 20
133.4042913690173009
 30
0.0
 11
472.7023705879590807
 21
133.5126033950174076
 31
0.0
  0
LINE
  5
F6B3
  8
0
 10
473.9720556273591114
 20
132.8826821352174079
 30
0.0
 11
472.7122131076590108
 21
132.8826821352174079
 31
0.0
  0
ARC
  5
F6B4
  8
0
 10
472.7122131076590108
 20
132.8629970958172919
 30
0.0
 40
0.0196850393999952
 50
90.0000000000130314
 51
180.0
  0
LINE
  5
F6B5
  8
0
 10
472.6925280682590937
 20
132.8629970958172919
 30
0.0
 11
472.6925280682590937
 21
132.508666387245114
 31
0.0
  0
ARC
  5
F6B6
  8
0
 10
473.9720556274298247
 20
132.8629970959881064
 30
0.0
 40
0.0196850392292802
 50
359.9999995031128037
 51
90.0000002058320803
  0
LINE
  5
F6B7
  8
0
 10
473.9917406666590978
 20
132.8629970958172919
 30
0.0
 11
473.9917406635861994
 21
132.5086663872172892
 31
0.0
  0
LINE
  5
F6B8
  8
0
 10
473.7633942100591184
 20
132.9496112690173106
 30
0.0
 11
473.7633942100591184
 21
132.8826821352174079
 31
0.0
  0
LINE
  5
F6B9
  8
0
 10
472.9208745249591175
 20
132.9496112690173106
 30
0.0
 11
472.9208745249591175
 21
132.8826821352174079
 31
0.0
  0
ARC
  5
F6BA
  8
0
 10
475.8992201124514168
 20
132.3771556219853096
 30
0.0
 40
0.0196852982721883
 50
0.0007507338393411
 51
89.499689824722239
  0
LINE
  5
F6BB
  8
0
 10
475.8993920034694156
 20
132.3968401697713944
 30
0.0
 11
474.383644587813194
 21
132.4100679024566034
 31
0.0
  0
ARC
  5
F6BC
  8
0
 10
474.385692568845684
 20
132.3902360580131017
 30
0.0
 40
0.0199373087537252
 50
95.8958815698094185
 51
179.575954139228088
  0
LINE
  5
F6BD
  8
0
 10
474.3657558061199779
 20
132.3903836126173132
 30
0.0
 11
474.3657558061199779
 21
130.2647444373183134
 31
0.0
  0
ARC
  5
F6BE
  8
0
 10
474.3865556216068171
 20
130.2656763202477919
 30
0.0
 40
0.0208206803461724
 50
182.5652764722017878
 51
261.9628702210380879
  0
LINE
  5
F6BF
  8
0
 10
474.3836445823080226
 20
130.2450601474633061
 30
0.0
 11
475.8993920050735937
 21
130.2582878801773063
 31
0.0
  0
ARC
  5
F6C0
  8
0
 10
475.8992201122730989
 20
130.2779724280802043
 30
0.0
 40
0.0196852984504923
 50
270.5003087683364242
 51
359.9992488853279156
  0
LINE
  5
F6C1
  8
0
 10
474.3303227354131764
 20
130.2645718990173123
 30
0.0
 11
474.3303227354131764
 21
132.3905561509172912
 31
0.0
  0
ARC
  5
F6C2
  8
0
 10
474.3070963532754831
 20
132.3867591464326949
 30
0.0
 40
0.0235346992813899
 50
9.284476204482571
 51
86.1680353392340379
  0
ARC
  5
F6C3
  8
0
 10
474.3070964387260915
 20
130.268368857404198
 30
0.0
 40
0.0235346075129378
 50
273.8317711264692775
 51
350.7156009886244874
  0
LINE
  5
F6C4
  8
0
 10
474.3657558061199779
 20
130.7035482769173882
 30
0.0
 11
474.3303227354131764
 21
130.7035482769173882
 31
0.0
  0
LINE
  5
F6C5
  8
0
 10
474.3657558061199779
 20
132.3452805604173932
 30
0.0
 11
474.3303227354131764
 21
132.3452805604173079
 31
0.0
  0
LINE
  5
F6C6
  8
0
 10
475.9189054107218908
 20
130.277972170017307
 30
0.0
 11
475.9189054107218908
 21
132.3771558799174102
 31
0.0
  0
ARC
  5
F6C7
  8
0
 10
490.2333417939368019
 20
128.3528767297223112
 30
0.0
 40
10.7076647855071094
 50
189.7686455514485999
 51
191.6796626511329862
  0
ARC
  5
F6C8
  8
0
 10
480.6353739754604817
 20
126.3687858274223004
 30
0.0
 40
0.9067667168046947
 50
191.6796626511329862
 51
208.5254210905069954
  0
ARC
  5
F6C9
  8
0
 10
480.1838420932087956
 20
126.1337169169213013
 30
0.0
 40
0.3978955411027378
 50
209.8352798045415
 51
246.5568440400822112
  0
ARC
  5
F6CA
  8
0
 10
480.4378126814632992
 20
126.6912041024256013
 30
0.0
 40
1.010466744908447
 50
245.9208311173302093
 51
262.3268544966060745
  0
ARC
  5
F6CB
  8
0
 10
481.356301375916928
 20
133.0653233839389031
 30
0.0
 40
7.4503846846129962
 50
261.8717276958167872
 51
267.5815157369395934
  0
ARC
  5
F6CC
  8
0
 10
482.158080966781597
 20
149.7413617847682019
 30
0.0
 40
24.1455990225593595
 50
267.3504623795521979
 51
270.1051550287550072
  0
ARC
  5
F6CD
  8
0
 10
482.253603754701885
 20
149.9966786563630023
 30
0.0
 40
24.40092896256294
 50
269.8797576510646081
 51
272.1777082037139053
  0
ARC
  5
F6CE
  8
0
 10
482.8848275069001943
 20
135.0012457692697865
 30
0.0
 40
9.3925380451811211
 50
271.8058655895948164
 51
276.9761768375677775
  0
ARC
  5
F6CF
  8
0
 10
483.908357433405115
 20
126.8710014784439011
 30
0.0
 40
1.1985080145810809
 50
275.6145209028754834
 51
293.2670099991926236
  0
ARC
  5
F6D0
  8
0
 10
484.222688621700172
 20
126.1311406191834976
 30
0.0
 40
0.3946664817085814
 50
293.7735974943167889
 51
325.9621684281780176
  0
ARC
  5
F6D1
  8
0
 10
483.7265660135419125
 20
126.3991599266360026
 30
0.0
 40
0.9574244873688982
 50
329.2913900663079971
 51
352.3469195128632236
  0
ARC
  5
F6D2
  8
0
 10
478.9521940827839899
 20
127.2406805699652068
 30
0.0
 40
5.8047230261448721
 50
350.3902002919700749
 51
355.744010458661478
  0
LINE
  5
F6D3
  8
0
 10
482.8519860859129267
 20
132.4299262296291033
 30
0.0
 11
482.946960818305115
 21
132.429943573674592
 31
0.0
  0
LINE
  5
F6D4
  8
0
 10
481.5527616005829259
 20
132.4299262296291033
 30
0.0
 11
481.4579888110736761
 21
132.4299262296291033
 31
0.0
  0
ARC
  5
F6D5
  8
0
 10
481.6039447789696055
 20
132.8157530013936025
 30
0.0
 40
0.0118110236739249
 50
180.0000003190430959
 51
250.5086180829823945
  0
ARC
  5
F6D6
  8
0
 10
481.6100281499107041
 20
133.4193938716178991
 30
0.0
 40
0.018090775031253
 50
123.6488642109873979
 51
171.5500951152376956
  0
ARC
  5
F6D7
  8
0
 10
482.8007951726306146
 20
133.4220522139291063
 30
0.0
 40
0.0118110235999903
 50
359.9999999999657803
 51
70.4881525829506614
  0
ARC
  5
F6D8
  8
0
 10
482.8006452562481172
 20
132.8159509828367106
 30
0.0
 40
0.0120479424230658
 50
289.8693835683856719
 51
353.3455668667406826
  0
ENDSEC
  0
EOF
