  0
SECTION
  2
HEADER
  9
$ACADVER
  1
AC1009
  9
$INSBASE
 10
3896.3423638051108355
 20
75.2800722190435181
 30
0.0
  9
$EXTMIN
 10
3890.7919391479640581
 20
69.4445254285999027
 30
0.0
  9
$EXTMAX
 10
3903.2915670862580555
 20
80.7131430848435087
 30
0.0
  9
$LIMMIN
 10
0.0
 20
0.0
  9
$LIMMAX
 10
11.6929133858000007
 20
8.2677165353999982
  9
$ORTHOMODE
 70
     0
  9
$REGENMODE
 70
     1
  9
$FILLMODE
 70
     1
  9
$QTEXTMODE
 70
     0
  9
$MIRRTEXT
 70
     0
  9
$DRAGMODE
 70
     2
  9
$LTSCALE
 40
0.6431102362
  9
$OSMODE
 70
  4095
  9
$ATTMODE
 70
     1
  9
$TEXTSIZE
 40
0.2
  9
$TRACEWID
 40
0.05
  9
$TEXTSTYLE
  7
STANDARD
  9
$CLAYER
  8
0
  9
$CELTYPE
  6
BYLAYER
  9
$CECOLOR
 62
   256
  9
$DIMSCALE
 40
1.0
  9
$DIMASZ
 40
0.1875
  9
$DIMEXO
 40
0.0625
  9
$DIMDLI
 40
0.4443307087
  9
$DIMRND
 40
0.0
  9
$DIMDLE
 40
0.0
  9
$DIMEXE
 40
0.125
  9
$DIMTP
 40
0.01
  9
$DIMTM
 40
0.01
  9
$DIMTXT
 40
2.0
  9
$DIMCEN
 40
0.1052362205
  9
$DIMTSZ
 40
0.0
  9
$DIMTOL
 70
     1
  9
$DIMLIM
 70
     0
  9
$DIMTIH
 70
     1
  9
$DIMTOH
 70
     1
  9
$DIMSE1
 70
     0
  9
$DIMSE2
 70
     0
  9
$DIMTAD
 70
     0
  9
$DIMZIN
 70
     0
  9
$DIMBLK
  1

  9
$DIMASO
 70
     1
  9
$DIMSHO
 70
     1
  9
$DIMPOST
  1
\X
  9
$DIMAPOST
  1

  9
$DIMALT
 70
     1
  9
$DIMALTD
 70
     2
  9
$DIMALTF
 40
25.3999999999999986
  9
$DIMLFAC
 40
1.0
  9
$DIMTOFL
 70
     0
  9
$DIMTVP
 40
0.0
  9
$DIMTIX
 70
     0
  9
$DIMSOXD
 70
     0
  9
$DIMSAH
 70
     0
  9
$DIMBLK1
  1

  9
$DIMBLK2
  1

  9
$DIMSTYLE
  2
STANDARD
  9
$DIMCLRD
 70
     0
  9
$DIMCLRE
 70
     0
  9
$DIMCLRT
 70
     0
  9
$DIMTFAC
 40
1.0
  9
$DIMGAP
 40
0.09
  9
$LUNITS
 70
     2
  9
$LUPREC
 70
     4
  9
$SKETCHINC
 40
0.1
  9
$FILLETRAD
 40
0.0
  9
$AUNITS
 70
     0
  9
$AUPREC
 70
     0
  9
$MENU
  1
.
  9
$ELEVATION
 40
0.0
  9
$PELEVATION
 40
0.0
  9
$THICKNESS
 40
0.0
  9
$LIMCHECK
 70
     0
  9
$BLIPMODE
 70
     0
  9
$CHAMFERA
 40
0.0
  9
$CHAMFERB
 40
0.0
  9
$SKPOLY
 70
     0
  9
$TDCREATE
 40
2458060.468368056230247
  9
$TDUPDATE
 40
2459934.805497684981674
  9
$TDINDWG
 40
0.4136065972
  9
$TDUSRTIMER
 40
0.4136065972
  9
$USRTIMER
 70
     1
  9
$ANGBASE
 50
0.0
  9
$ANGDIR
 70
     0
  9
$PDMODE
 70
     0
  9
$PDSIZE
 40
0.3125
  9
$PLINEWID
 40
0.0
  9
$COORDS
 70
     1
  9
$SPLFRAME
 70
     0
  9
$SPLINETYPE
 70
     6
  9
$SPLINESEGS
 70
     8
  9
$ATTDIA
 70
     1
  9
$ATTREQ
 70
     1
  9
$HANDLING
 70
     1
  9
$HANDSEED
  5
7615
  9
$SURFTAB1
 70
     6
  9
$SURFTAB2
 70
     6
  9
$SURFTYPE
 70
     6
  9
$SURFU
 70
     6
  9
$SURFV
 70
     6
  9
$UCSNAME
  2

  9
$UCSORG
 10
0.0
 20
0.0
 30
0.0
  9
$UCSXDIR
 10
1.0
 20
0.0
 30
0.0
  9
$UCSYDIR
 10
0.0
 20
1.0
 30
0.0
  9
$PUCSNAME
  2

  9
$PUCSORG
 10
0.0
 20
0.0
 30
0.0
  9
$PUCSXDIR
 10
1.0
 20
0.0
 30
0.0
  9
$PUCSYDIR
 10
0.0
 20
1.0
 30
0.0
  9
$USERI1
 70
     0
  9
$USERI2
 70
     0
  9
$USERI3
 70
     0
  9
$USERI4
 70
     0
  9
$USERI5
 70
     0
  9
$USERR1
 40
0.0
  9
$USERR2
 40
0.0
  9
$USERR3
 40
0.0
  9
$USERR4
 40
0.0
  9
$USERR5
 40
0.0
  9
$WORLDVIEW
 70
     1
  9
$SHADEDGE
 70
     3
  9
$SHADEDIF
 70
    70
  9
$TILEMODE
 70
     1
  9
$MAXACTVP
 70
    64
  9
$PLIMCHECK
 70
     0
  9
$PEXTMIN
 10
1.0000000000000000E+20
 20
1.0000000000000000E+20
 30
1.0000000000000000E+20
  9
$PEXTMAX
 10
-1.0000000000000000E+20
 20
-1.0000000000000000E+20
 30
-1.0000000000000000E+20
  9
$PLIMMIN
 10
0.0
 20
0.0
  9
$PLIMMAX
 10
12.0
 20
9.0
  9
$UNITMODE
 70
     0
  9
$VISRETAIN
 70
     1
  9
$PLINEGEN
 70
     0
  9
$PSLTSCALE
 70
     1
  0
ENDSEC
  0
SECTION
  2
TABLES
  0
TABLE
  2
VPORT
 70
     1
  0
VPORT
  2
*ACTIVE
 70
     0
 10
0.0
 20
0.0
 11
1.0
 21
1.0
 12
104.2006910843721954
 22
-45.0114577818788888
 13
0.0
 23
0.0
 14
1.0
 24
1.0
 15
0.0
 25
0.0
 16
0.0
 26
0.0
 36
5.1040778033513332
 17
3792.35791015625
 27
120.1806564331053977
 37
0.0
 40
0.4543408204289282
 41
2.5251322751322749
 42
50.0
 43
0.0
 44
0.0
 50
0.0
 51
0.0
 71
     0
 72
   100
 73
     1
 74
     1
 75
     0
 76
     0
 77
     0
 78
     0
  0
ENDTAB
  0
TABLE
  2
LTYPE
 70
     2
  0
LTYPE
  2
CONTINUOUS
 70
     0
  3
Solid line
 72
    65
 73
     0
 40
0.0
  0
LTYPE
  2
PHANTOM2
 70
     0
  3
___ _ _ ___ _ _ ___ _ _ ___ _ _
 72
    65
 73
     6
 40
1.25
 49
0.625
 49
-0.125
 49
0.125
 49
-0.125
 49
0.125
 49
-0.125
  0
ENDTAB
  0
TABLE
  2
LAYER
 70
     2
  0
LAYER
  2
0
 70
     0
 62
   255
  6
CONTINUOUS
  0
LAYER
  2
DEFPOINTS
 70
     0
 62
     7
  6
CONTINUOUS
  0
ENDTAB
  0
TABLE
  2
STYLE
 70
     1
  0
STYLE
  2
STANDARD
 70
     0
 40
0.0
 41
0.8
 50
0.0
 71
     0
 42
0.2
  3
txt
  4

  0
ENDTAB
  0
TABLE
  2
VIEW
 70
     0
  0
ENDTAB
  0
TABLE
  2
UCS
 70
     0
  0
ENDTAB
  0
TABLE
  2
APPID
 70
     9
  0
APPID
  2
ACAD
 70
     0
  0
APPID
  2
ACAD_MLEADERVER
 70
     0
  0
APPID
  2
ACAD_EXEMPT_FROM_CAD_STANDARDS
 70
     0
  0
APPID
  2
ACAD_NAV_VCDISPLAY
 70
     0
  0
APPID
  2
ACAECLAYERSTANDARD
 70
     0
  0
APPID
  2
ACCMTRANSPARENCY
 70
     0
  0
APPID
  2
ACAD_DSTYLE_DIMJAG
 70
     0
  0
APPID
  2
ACAD_DSTYLE_DIMTALN
 70
     0
  0
APPID
  2
ACDBATTR
 70
     0
  0
ENDTAB
  0
TABLE
  2
DIMSTYLE
 70
     1
  0
DIMSTYLE
  2
STANDARD
 70
     0
  3

  4

  5

  6

  7

 40
1.0
 41
0.1875
 42
0.0625
 43
0.38
 44
0.125
 45
0.0
 46
0.0
 47
0.01
 48
0.01
140
0.15625
141
0.09
142
0.0
143
25.3999999999999986
144
1.0
145
0.0
146
1.0
147
0.09
 71
     1
 72
     0
 73
     1
 74
     1
 75
     0
 76
     0
 77
     0
 78
     4
170
     0
171
     2
172
     0
173
     0
174
     0
175
     0
176
     0
177
     0
178
     0
  0
ENDTAB
  0
ENDSEC
  0
SECTION
  2
BLOCKS
  0
BLOCK
  8
0
  2
$MODEL_SPACE
 70
     0
 10
0.0
 20
0.0
 30
0.0
  3
$MODEL_SPACE
  1

  0
ENDBLK
  5
21
  8
0
  0
BLOCK
 67
     1
  8
0
  2
$PAPER_SPACE
 70
     0
 10
0.0
 20
0.0
 30
0.0
  3
$PAPER_SPACE
  1

  0
ENDBLK
  5
1D
 67
     1
  8
0
  0
BLOCK
  8
0
  2
_FILLED
 70
     0
 10
0.0
 20
0.0
 30
0.0
  3
_FILLED
  1

  0
SOLID
  5
69B4
  8
0
  6
BYBLOCK
 62
     0
 10
0.0
 20
0.0
 30
0.0
 11
-1.0
 21
0.1666666667
 31
0.0
 12
-1.0
 22
-0.1666666667
 32
0.0
 13
-1.0
 23
-0.1666666667
 33
0.0
  0
ENDBLK
  5
69B5
  8
0
  6
BYBLOCK
 62
     0
  0
BLOCK
  8
0
  2
A$CDFAF6206
 70
     0
 10
0.0
 20
0.0
 30
0.0
  3
A$CDFAF6206
  1

  0
LINE
  5
6A0E
  8
0
 10
7.4646650085734834
 20
10.9287685970688493
 30
0.0
 11
7.4646650085734896
 21
10.8905784766688498
 31
0.0
  0
ARC
  5
6A0F
  8
0
 10
7.7269027075262349
 20
10.8926811525838598
 30
0.0
 40
0.2622461286616791
 50
180.4593995232625048
 51
217.0214027758331099
  0
LINE
  5
6A10
  8
0
 10
9.767814609867095
 20
10.9287685970688493
 30
0.0
 11
9.767814609867095
 21
10.8905433757650094
 31
0.0
  0
ARC
  5
6A11
  8
0
 10
9.5068669568548287
 20
10.8922438613003703
 30
0.0
 40
0.2609531936261092
 50
322.8847083717149076
 51
359.6266329125650145
  0
LINE
  5
6A12
  8
0
 10
7.517522606271406
 20
10.7347792678688396
 30
0.0
 11
9.7149570120691777
 21
10.7347792678688396
 31
0.0
  0
LINE
  5
6A13
  8
0
 10
7.4646650085734834
 20
10.9287685970688493
 30
0.0
 11
9.7678146123202936
 21
10.9287685970688493
 31
0.0
  0
ARC
  5
6A14
  8
0
 10
4.0826771419203629
 20
8.527951346868889
 30
0.0
 40
4.0826771653999172
 50
13.3117747050523896
 51
32.7200330051415591
  0
ARC
  5
6A15
  8
0
 10
4.0826771460567306
 20
8.5279513475907933
 30
0.0
 40
4.0826771612084691
 50
359.6656501984817851
 51
13.3117747085593798
  0
ARC
  5
6A16
  8
0
 10
13.1498041284835097
 20
8.5279508235212234
 30
0.0
 40
4.0826788382043553
 50
147.2799733478981068
 51
166.6882233021349862
  0
ARC
  5
6A17
  8
0
 10
13.1498064934207992
 20
8.5279506557033251
 30
0.0
 40
4.0826811782395342
 50
166.688228652086309
 51
180.3343397625230011
  0
LINE
  5
6A18
  8
0
 10
8.1652847935202928
 20
8.504127000268852
 30
0.0
 11
9.0671948248202892
 21
8.5041270002687881
 31
0.0
  0
LINE
  5
6A19
  8
0
 10
8.1652847935202786
 20
8.5041270002667204
 30
0.0
 11
8.1652847935202928
 21
8.3607006934688481
 31
0.0
  0
ARC
  5
6A1A
  8
0
 10
5.6196779630382627
 20
8.3631022096452732
 30
0.0
 40
2.545607963272567
 50
342.0511668832173768
 51
359.945947387132378
  0
LINE
  5
6A1B
  8
0
 10
9.0671948248202892
 20
8.5041270002687881
 30
0.0
 11
9.0671948248202892
 21
8.2885990108688503
 31
0.0
  0
ARC
  5
6A1C
  8
0
 10
9.4521885297801163
 20
7.9614488056228501
 30
0.0
 40
0.5052201595850959
 50
139.6436242991769916
 51
174.6757930071850069
  0
ARC
  5
6A1D
  8
0
 10
9.9238413395551746
 20
8.1492417579399508
 30
0.0
 40
0.9848265662939324
 50
188.2263441834095943
 51
209.5593615864376034
  0
ARC
  5
6A1E
  8
0
 10
8.0788764238271256
 20
7.5665710856463297
 30
0.0
 40
0.0393715937169877
 50
162.1669117288323037
 51
227.2023190037006088
  0
ARC
  5
6A1F
  8
0
 10
8.7223682141740682
 20
8.2079667397440517
 30
0.0
 40
0.947895137885075
 50
225.0018610752970858
 51
261.4598823366255829
  0
ARC
  5
6A20
  8
0
 10
8.6645157662702701
 20
8.1695128573935332
 30
0.0
 40
0.9027466462812931
 50
264.7303071214498118
 51
281.8608311947915013
  0
ARC
  5
6A21
  8
0
 10
8.6645157662698935
 20
8.1695128573999671
 30
0.0
 40
0.9027466462876658
 50
299.1741886792128753
 51
299.1743179154552195
  0
ARC
  5
6A22
  8
0
 10
9.0843330931590316
 20
7.4150554710086141
 30
0.0
 40
0.0393703053609601
 50
251.9700352025496954
 51
252.4698971938937859
  0
ARC
  5
6A23
  8
0
 10
9.0843330931590316
 20
7.4150554710086141
 30
0.0
 40
0.0393703053609601
 50
297.2453716727138726
 51
6.8376113572703074
  0
LINE
  5
6A24
  8
0
 10
9.0671948248202892
 20
7.663402160468852
 30
0.0
 11
9.1234233799329516
 21
7.419742732911689
 31
0.0
  0
ARC
  5
6A25
  8
0
 10
8.8843741880892395
 20
9.8961379890094676
 30
0.0
 40
2.5255097382132701
 50
263.792800240752797
 51
274.9514951129821156
  0
ARC
  5
6A26
  8
0
 10
8.8258167405968848
 20
9.2763025889666508
 30
0.0
 40
1.9029970832759311
 50
246.0108363320686067
 51
263.5276935074397215
  0
ARC
  5
6A27
  8
0
 10
8.607491361665744
 20
8.3225444804829642
 30
0.0
 40
1.064510137163637
 50
283.1717405874071005
 51
297.7022170607311864
  0
LINE
  5
6A28
  8
0
 10
9.0671948248202892
 20
8.2885990108688503
 30
0.0
 11
26.2014378595979593
 21
8.2885990108689942
 31
0.0
  0
LINE
  5
6A29
  8
0
 10
26.2014378595979913
 20
7.6634021604689053
 30
0.0
 11
9.0671948248202892
 21
7.6634021604688618
 31
0.0
  0
LINE
  5
6A2A
  8
0
 10
27.8039676758446994
 20
10.9287685970690802
 30
0.0
 11
27.8039676758446888
 21
10.8905784766690807
 31
0.0
  0
ARC
  5
6A2B
  8
0
 10
27.5417299768919399
 20
10.8926811525840801
 30
0.0
 40
0.2622461286616791
 50
322.9785972241680838
 51
359.5406004767386889
  0
LINE
  5
6A2C
  8
0
 10
25.5008180745510913
 20
10.9287685970690305
 30
0.0
 11
25.5008180745510913
 21
10.8905433757651799
 31
0.0
  0
ARC
  5
6A2D
  8
0
 10
25.7617657275633505
 20
10.8922438613005497
 30
0.0
 40
0.2609531936261092
 50
180.3733670874362929
 51
217.1152916282862861
  0
LINE
  5
6A2E
  8
0
 10
27.7511100781467803
 20
10.7347792678690706
 30
0.0
 11
25.5536756723490015
 21
10.7347792678690208
 31
0.0
  0
LINE
  5
6A2F
  8
0
 10
27.8039676758446888
 20
10.9287685970686006
 30
0.0
 11
25.5008180745510806
 21
10.9287685970686006
 31
0.0
  0
ARC
  5
6A30
  8
0
 10
31.1859555424978616
 20
8.5279513468691981
 30
0.0
 40
4.0826771653999172
 50
147.2799669948597057
 51
166.6882252949490066
  0
ARC
  5
6A31
  8
0
 10
31.185955538361501
 20
8.5279513475911024
 30
0.0
 40
4.0826771612084691
 50
166.6882252914419098
 51
180.3343498015194086
  0
ARC
  5
6A32
  8
0
 10
22.1188285559344706
 20
8.5279508235212251
 30
0.0
 40
4.0826788382046102
 50
13.3117766978667795
 51
32.7200266521023977
  0
ARC
  5
6A33
  8
0
 10
22.1188261909974315
 20
8.5279506557034264
 30
0.0
 40
4.0826811782395342
 50
359.665660237478221
 51
13.31177134791497
  0
LINE
  5
6A34
  8
0
 10
27.1033478908979397
 20
8.5041270002690652
 30
0.0
 11
26.2014378595979416
 21
8.5041270002689835
 31
0.0
  0
LINE
  5
6A35
  8
0
 10
27.1033478908979504
 20
8.5041270002669354
 30
0.0
 11
27.1033478908979397
 21
8.3607006934690649
 31
0.0
  0
ARC
  5
6A36
  8
0
 10
29.6489547213799689
 20
8.3631022096455467
 30
0.0
 40
2.545607963272567
 50
180.0540526128687873
 51
197.9488331167837032
  0
LINE
  5
6A37
  8
0
 10
26.2014378595979416
 20
8.5041270002689835
 30
0.0
 11
26.2014378595979487
 21
8.2885990108690457
 31
0.0
  0
ARC
  5
6A38
  8
0
 10
25.8164441546381305
 20
7.9614488056230366
 30
0.0
 40
0.5052201595850959
 50
5.324206992816312
 51
40.3563757008241879
  0
ARC
  5
6A39
  8
0
 10
25.3447913448601803
 20
8.149241757940846
 30
0.0
 40
0.9848265662968968
 50
330.4406384136033807
 51
351.7736558165743759
  0
ARC
  5
6A3A
  8
0
 10
27.1897562605911212
 20
7.5665710856465473
 30
0.0
 40
0.0393715937169877
 50
312.7976809963004143
 51
17.8330882711689185
  0
ARC
  5
6A3B
  8
0
 10
26.5462644702441715
 20
8.2079667397442542
 30
0.0
 40
0.947895137885075
 50
278.5401176633754972
 51
314.9981389247041079
  0
ARC
  5
6A3C
  8
0
 10
26.6041169181479695
 20
8.1695128573937392
 30
0.0
 40
0.9027466462812931
 50
258.139168805210204
 51
275.2696928785518935
  0
ARC
  5
6A3D
  8
0
 10
26.6041169181483497
 20
8.1695128574001732
 30
0.0
 40
0.9027466462876658
 50
240.8256820845460027
 51
240.8258113207880058
  0
ARC
  5
6A3E
  8
0
 10
26.1842995912592293
 20
7.4150554710088086
 30
0.0
 40
0.0393703053609601
 50
287.5301028061073794
 51
288.0299647974517825
  0
ARC
  5
6A3F
  8
0
 10
26.1842995912592293
 20
7.4150554710088086
 30
0.0
 40
0.0393703053609601
 50
173.1623886427310026
 51
242.7546283272870085
  0
LINE
  5
6A40
  8
0
 10
26.2014378595981192
 20
7.6634021604690448
 30
0.0
 11
26.1452093044853093
 21
7.4197427329118826
 31
0.0
  0
ARC
  5
6A41
  8
0
 10
26.384258496328961
 20
9.8961379890096666
 30
0.0
 40
2.5255097382132701
 50
265.0485048870193054
 51
276.2071997592482262
  0
ARC
  5
6A42
  8
0
 10
26.4428159438213299
 20
9.2763025889668516
 30
0.0
 40
1.9029970832759311
 50
276.4723064925619838
 51
293.9891636679327007
  0
ARC
  5
6A43
  8
0
 10
26.6611413227524885
 20
8.3225444804831703
 30
0.0
 40
1.064510137163637
 50
242.2977829392704052
 51
256.8282594125943774
  0
LINE
  5
6A44
  8
0
 62
     4
 10
17.9031473532159602
 20
10.9287685970686006
 30
0.0
 11
24.6329820359843588
 21
20.0952817181593808
 31
0.0
  0
LINE
  5
6A45
  8
0
 62
     4
 10
17.9031473532159602
 20
-0.0000000300842942
 30
0.0
 11
22.3963351323106608
 21
4.993614497796286
 31
0.0
  0
ENDBLK
  5
6A49
  8
0
  0
ENDSEC
  0
SECTION
  2
ENTITIES
  0
ATTDEF
  5
3930
  8
DEFPOINTS
 10
3896.3408397704879462
 20
75.2786445023656512
 30
0.0
 40
0.001
  1
K-72866T-NW
  3

  2
MODELNUMBER
 70
     0
1001
ACDBATTR
1070
     0
1070
     1
  0
ATTDEF
  5
3931
  8
DEFPOINTS
 10
3896.3408397704879462
 20
75.276977835698986
 30
0.0
 40
0.001
  1
STRAYT
  3

  2
TRADENAME
 70
     0
1001
ACDBATTR
1070
     0
1070
     1
  0
ATTDEF
  5
3932
  8
DEFPOINTS
 10
3896.3408397704879462
 20
75.2753111690323209
 30
0.0
 40
0.001
  1
BATHROOM SINK FAUCET
  3

  2
PRODUCT
 70
     0
1001
ACDBATTR
1070
     0
1070
     1
  0
LINE
  5
74CA
  8
0
 10
3895.5088218745590893
 20
75.4259820052435117
 30
0.0
 11
3895.5416174604488333
 21
79.1839839152004146
 31
0.0
  0
LINE
  5
74CB
  8
0
 10
3895.5416174604488333
 20
79.1839839152004146
 30
0.0
 11
3895.5532593341590655
 21
80.5180105131435084
 31
0.0
  0
ARC
  5
74CC
  8
0
 10
3895.7560132768298899
 20
80.5303915557397545
 30
0.0
 40
0.2031316112385682
 50
138.738458706328089
 51
183.4943918589547991
  0
ARC
  5
74CD
  8
0
 10
3895.7357099132132134
 20
80.5112372562500838
 30
0.0
 40
0.2024181420241246
 50
94.077297727091306
 51
130.8478422811101041
  0
LINE
  5
74CE
  8
0
 10
3895.7213175332681203
 20
80.7131430848435087
 30
0.0
 11
3896.9634099777881602
 21
80.7131430848435087
 31
0.0
  0
LINE
  5
74CF
  8
0
 10
3895.7214396277381638
 20
79.7879462344434955
 30
0.0
 11
3896.9632879526479883
 21
79.7879462344434955
 31
0.0
  0
ARC
  5
74D0
  8
0
 10
3895.8127577000382189
 20
80.0079892587550887
 30
0.0
 40
0.2749591015833613
 50
195.7762228719969926
 51
218.2975861732363967
  0
ARC
  5
74D1
  8
0
 10
3895.733451782199154
 20
79.9989446992397149
 30
0.0
 40
0.2113401145101
 50
229.7745932828092066
 51
266.7416651364259792
  0
ARC
  5
74D2
  8
0
 10
3895.536379880405093
 20
75.4257415101537703
 30
0.0
 40
0.0275590552102655
 50
179.499999966435098
 51
269.9999998274631139
  0
ARC
  5
74D3
  8
0
 10
3895.3391278409339975
 20
75.3706312501021785
 30
0.0
 40
0.0275512050285305
 50
89.9933210690048639
 51
178.9943399603475029
  0
LINE
  5
74D4
  8
0
 10
3895.3391310524298206
 20
75.3981824549435089
 30
0.0
 11
3897.3455965577591087
 21
75.3981824549435089
 31
0.0
  0
LINE
  5
74D5
  8
0
 10
3895.311580879721987
 20
75.3711148061956635
 30
0.0
 11
3895.3099872226589468
 21
75.2800722190435181
 31
0.0
  0
LINE
  5
74D6
  8
0
 10
3895.3099872226589468
 20
75.2800722190435181
 30
0.0
 11
3897.3747403875640885
 21
75.2800722190435181
 31
0.0
  0
LINE
  5
74D7
  8
0
 10
3897.3747403875640885
 20
75.2800722190435181
 30
0.0
 11
3897.3731513208590513
 21
75.3711097623725976
 31
0.0
  0
ARC
  5
74D8
  8
0
 10
3897.1483192876730755
 20
75.4257699523301852
 30
0.0
 40
0.0275875120484741
 50
270.0590710831316983
 51
359.9409289510314807
  0
ARC
  5
74D9
  8
0
 10
3897.3455965579501026
 20
75.3706234000373456
 30
0.0
 40
0.0275590549061521
 50
1.0112086911112419
 51
90.0000003959594039
  0
LINE
  5
74DA
  8
0
 10
3897.1759067850589418
 20
75.4257415100435082
 30
0.0
 11
3897.1358335506788535
 21
79.2658372588734892
 31
0.0
  0
LINE
  5
74DB
  8
0
 10
3897.1358335506788535
 20
79.2658372588734892
 30
0.0
 11
3897.1313770256310818
 21
80.5441856823629081
 31
0.0
  0
ARC
  5
74DC
  8
0
 10
3896.9287140074338822
 20
80.5303913924190624
 30
0.0
 40
0.2031319309702597
 50
3.8938403673324031
 51
41.2615234547238572
  0
ARC
  5
74DD
  8
0
 10
3896.9490176778231216
 20
80.5112372997330112
 30
0.0
 40
0.2024180929644043
 50
49.1521549613751887
 51
85.9227239797955349
  0
ARC
  5
74DE
  8
0
 10
3896.9345127255260195
 20
79.9696464087390382
 30
0.0
 40
0.2022983187043468
 50
319.2463568274703221
 51
349.6303598718433818
  0
ARC
  5
74DF
  8
0
 10
3896.9512757794532263
 20
79.9989447075364666
 30
0.0
 40
0.211340123858222
 50
273.2583398063491131
 51
310.2254062304929789
  0
ARC
  5
74E0
  8
0
 10
3896.3292604887378729
 20
80.633177670743919
 30
0.0
 40
0.8632848752621189
 50
258.2618325105675012
 51
270.0647258451855919
  0
ARC
  5
74E1
  8
0
 10
3896.3289457858018068
 20
80.911754834251127
 30
0.0
 40
1.1418622165260071
 50
270.0647258451855919
 51
270.6732972720631096
  0
LINE
  5
74E2
  8
0
 10
3895.9972879439619646
 20
79.7879462348435169
 30
0.0
 11
3895.9972879439619646
 21
79.7669731155435215
 31
0.0
  0
ARC
  5
74E3
  8
0
 10
3896.0049189732608284
 20
79.7669731155435215
 30
0.0
 40
0.0076310292997674
 50
180.0000000000007958
 51
221.9956336622605022
  0
ARC
  5
74E4
  8
0
 10
3896.0020943347740285
 20
79.7644301893711969
 30
0.0
 40
0.0038303640814775
 50
221.9956336622610991
 51
253.9003109854585034
  0
ARC
  5
74E5
  8
0
 10
3896.2094801360640304
 20
80.3537534988284108
 30
0.0
 40
0.6285727152577831
 50
250.6327986323153993
 51
260.3258005632579284
  0
LINE
  5
74E6
  8
0
 10
3896.0577568448620696
 20
79.7879462344434955
 30
0.0
 11
3896.0577568448620696
 21
79.7779317159435237
 31
0.0
  0
ARC
  5
74E7
  8
0
 10
3896.0485633108360162
 20
79.7779317159435237
 30
0.0
 40
0.0091935340250733
 50
287.3626216221256868
 51
0.0000000000008142
  0
LINE
  5
74E8
  8
0
 10
3896.0513068287618808
 20
79.7691570833435151
 30
0.0
 11
3896.0010321386607757
 21
79.7607500496435193
 31
0.0
  0
LINE
  5
74E9
  8
0
 10
3896.1430798661622248
 20
79.7862713536435137
 30
0.0
 11
3896.1430798661622248
 21
79.7558484930435156
 31
0.0
  0
ARC
  5
74EA
  8
0
 10
3896.1312976814779176
 20
79.7558484930435156
 30
0.0
 40
0.0117821846841033
 50
308.0740760464177015
 51
0.0000000000008142
  0
LINE
  5
74EB
  8
0
 10
3896.138563516261911
 20
79.7465733908435226
 30
0.0
 11
3896.1038513226608302
 21
79.7341195648435246
 31
0.0
  0
ARC
  5
74EC
  8
0
 10
3896.2303395593248752
 20
80.2688670890350835
 30
0.0
 40
0.5203867157068386
 50
250.6314587150934017
 51
260.3469038845040018
  0
ARC
  5
74ED
  8
0
 10
3896.2269377048701244
 20
80.2678838587501531
 30
0.0
 40
0.52874814530281
 50
250.5998513740453859
 51
260.378511285404727
  0
ARC
  5
74EE
  8
0
 10
3896.3035093067678645
 20
80.6807975952568057
 30
0.0
 40
0.9087985488259342
 50
259.8323421825182891
 51
266.5549168383550978
  0
ARC
  5
74EF
  8
0
 10
3896.3292566523268761
 20
81.1305184811117073
 30
0.0
 40
1.3792666535896541
 50
262.2423951902953263
 51
267.5049445273158994
  0
LINE
  5
74F0
  8
0
 10
3896.2692128011608474
 20
79.7525593969435249
 30
0.0
 11
3896.2819070734121851
 21
79.7711925027083169
 31
0.0
  0
LINE
  5
74F1
  8
0
 10
3896.2819070734121851
 20
79.7711925027083169
 30
0.0
 11
3896.2820313181559868
 21
79.7409513248067583
 31
0.0
  0
ARC
  5
74F2
  8
0
 10
3896.23991884519819
 20
79.7407783065157503
 30
0.0
 40
0.0421128283776917
 50
352.3315026292202106
 51
0.2353972915962658
  0
ARC
  5
74F3
  8
0
 10
3896.2653186344391543
 20
79.7373583399415651
 30
0.0
 40
0.0164838318146596
 50
338.5807265668860282
 51
352.3315026292202106
  0
ARC
  5
74F4
  8
0
 10
3895.8140169721109487
 20
80.0437316803541137
 30
0.0
 40
0.5615593096805503
 50
324.3299208188523721
 51
326.199989143418918
  0
LINE
  5
74F5
  8
0
 10
3896.2692128011608474
 20
79.7525593969435249
 30
0.0
 11
3896.270221101477091
 21
79.7162768733362128
 31
0.0
  0
ARC
  5
74F6
  8
0
 10
3896.3403180408031403
 20
81.1620649214129344
 30
0.0
 40
1.422481262544615
 50
267.6516400322013851
 51
270.0824002744244012
  0
ARC
  5
74F7
  8
0
 10
3896.3423638051608577
 20
81.0930142007610328
 30
0.0
 40
1.363072735717517
 50
267.4056057754465883
 51
269.9999993651933892
  0
ARC
  5
74F8
  8
0
 10
3896.3408648535069005
 20
81.2421549832427559
 30
0.0
 40
1.527512535461816
 50
267.3492635947912959
 51
270.0562244907401919
  0
ARC
  5
74F9
  8
0
 10
3896.3554670916491887
 20
80.633177670743919
 30
0.0
 40
0.8632848752621189
 50
269.9352741548144081
 51
281.7381674894324988
  0
ARC
  5
74FA
  8
0
 10
3896.3557817945848001
 20
80.911754834251127
 30
0.0
 40
1.1418622165260071
 50
269.3267027279368904
 51
269.9352741548144081
  0
LINE
  5
74FB
  8
0
 10
3896.6874396364241875
 20
79.7879462348435169
 30
0.0
 11
3896.6874396364241875
 21
79.7669731155435215
 31
0.0
  0
ARC
  5
74FC
  8
0
 10
3896.679808607124869
 20
79.7669731155435215
 30
0.0
 40
0.0076310292997674
 50
318.0043663377393841
 51
359.9999999999992042
  0
ARC
  5
74FD
  8
0
 10
3896.6826332456121236
 20
79.7644301893711969
 30
0.0
 40
0.0038303640814775
 50
286.099689014541525
 51
318.0043663377388725
  0
ARC
  5
74FE
  8
0
 10
3896.4752474443212122
 20
80.3537534988284108
 30
0.0
 40
0.6285727152577831
 50
279.6741994367420716
 51
289.3672013676845722
  0
LINE
  5
74FF
  8
0
 10
3896.6269707355249921
 20
79.7879462344434955
 30
0.0
 11
3896.6269707355249921
 21
79.7779317159435237
 31
0.0
  0
ARC
  5
7500
  8
0
 10
3896.6361642695501359
 20
79.7779317159435237
 30
0.0
 40
0.0091935340250733
 50
179.9999999999992042
 51
252.6373783778743132
  0
LINE
  5
7501
  8
0
 10
3896.6334207516238166
 20
79.7691570833435151
 30
0.0
 11
3896.6836954417240122
 21
79.7607500496435193
 31
0.0
  0
LINE
  5
7502
  8
0
 10
3896.5416477142239273
 20
79.7862713536435137
 30
0.0
 11
3896.5416477142239273
 21
79.7558484930435156
 31
0.0
  0
ARC
  5
7503
  8
0
 10
3896.5534298989077797
 20
79.7558484930435156
 30
0.0
 40
0.0117821846841033
 50
179.9999999999992042
 51
231.9259239535822985
  0
LINE
  5
7504
  8
0
 10
3896.5461640641251506
 20
79.7465733908435226
 30
0.0
 11
3896.5808762577239577
 21
79.7341195648435246
 31
0.0
  0
ARC
  5
7505
  8
0
 10
3896.4543880210608222
 20
80.2688670890350835
 30
0.0
 40
0.5203867157068386
 50
279.6530961154958845
 51
289.3685412849065983
  0
ARC
  5
7506
  8
0
 10
3896.4577898755160277
 20
80.2678838587501531
 30
0.0
 40
0.52874814530281
 50
279.6214887145953867
 51
289.4001486259546141
  0
ARC
  5
7507
  8
0
 10
3896.3812182736178329
 20
80.6807975952568057
 30
0.0
 40
0.9087985488259342
 50
273.4450831616449022
 51
280.1676578174815972
  0
ARC
  5
7508
  8
0
 10
3896.3554709280588213
 20
81.1305184811117073
 30
0.0
 40
1.3792666535896541
 50
272.4950554726841006
 51
277.7576048097046737
  0
LINE
  5
7509
  8
0
 10
3896.4155147792239404
 20
79.7525593969435249
 30
0.0
 11
3896.402820506973967
 21
79.7711925027083169
 31
0.0
  0
LINE
  5
750A
  8
0
 10
3896.402820506973967
 20
79.7711925027083169
 30
0.0
 11
3896.4026962622301653
 21
79.7409513248067583
 31
0.0
  0
ARC
  5
750B
  8
0
 10
3896.4448087351879622
 20
79.7407783065157503
 30
0.0
 40
0.0421128283776917
 50
179.7646027084036859
 51
187.6684973707797042
  0
ARC
  5
750C
  8
0
 10
3896.4194089459479073
 20
79.7373583399415651
 30
0.0
 40
0.0164838318146596
 50
187.6684973707797042
 51
201.4192734331140002
  0
ARC
  5
750D
  8
0
 10
3896.8707106082752034
 20
80.0437316803541137
 30
0.0
 40
0.5615593096805503
 50
213.8000108565811104
 51
215.6700791811475995
  0
LINE
  5
750E
  8
0
 10
3896.4155147792239404
 20
79.7525593969435249
 30
0.0
 11
3896.4145064789099706
 21
79.7162768733362128
 31
0.0
  0
ARC
  5
750F
  8
0
 10
3896.3444095395830118
 20
81.1620649214129344
 30
0.0
 40
1.422481262544615
 50
269.9175997255755988
 51
272.3483599677986149
  0
ARC
  5
7510
  8
0
 10
3896.3423637752239301
 20
81.0930142007620134
 30
0.0
 40
1.363072735718494
 50
270.0000006235508181
 51
272.5943942245534117
  0
ARC
  5
7511
  8
0
 10
3896.3438627286859628
 20
81.2421549307990034
 30
0.0
 40
1.5275124829905951
 50
269.943776558707782
 51
272.6507364284486243
  0
ENDSEC
  0
EOF
