  0
SECTION
  2
HEADER
  9
$ACADVER
  1
AC1009
  9
$INSBASE
 10
902.8409994847163489
 20
31.8949488722026686
 30
0.0
  9
$EXTMIN
 10
896.76500793129253
 20
31.8889722202007313
 30
-0.0000000000112498
  9
$EXTMAX
 10
903.8676317656760375
 20
37.3288322034085667
 30
0.0000000000002956
  9
$LIMMIN
 10
0.0
 20
0.0
  9
$LIMMAX
 10
11.6929133858000007
 20
8.2677165353999982
  9
$ORTHOMODE
 70
     0
  9
$REGENMODE
 70
     1
  9
$FILLMODE
 70
     1
  9
$QTEXTMODE
 70
     0
  9
$MIRRTEXT
 70
     0
  9
$DRAGMODE
 70
     2
  9
$LTSCALE
 40
0.6431102362
  9
$OSMODE
 70
  4095
  9
$ATTMODE
 70
     1
  9
$TEXTSIZE
 40
0.2
  9
$TRACEWID
 40
0.05
  9
$TEXTSTYLE
  7
STANDARD
  9
$CLAYER
  8
0
  9
$CELTYPE
  6
BYLAYER
  9
$CECOLOR
 62
   256
  9
$DIMSCALE
 40
1.0
  9
$DIMASZ
 40
0.1875
  9
$DIMEXO
 40
0.0625
  9
$DIMDLI
 40
0.4443307087
  9
$DIMRND
 40
0.0
  9
$DIMDLE
 40
0.0
  9
$DIMEXE
 40
0.125
  9
$DIMTP
 40
0.01
  9
$DIMTM
 40
0.01
  9
$DIMTXT
 40
1.0
  9
$DIMCEN
 40
0.1052362205
  9
$DIMTSZ
 40
0.0
  9
$DIMTOL
 70
     1
  9
$DIMLIM
 70
     0
  9
$DIMTIH
 70
     0
  9
$DIMTOH
 70
     1
  9
$DIMSE1
 70
     0
  9
$DIMSE2
 70
     0
  9
$DIMTAD
 70
     0
  9
$DIMZIN
 70
     0
  9
$DIMBLK
  1

  9
$DIMASO
 70
     1
  9
$DIMSHO
 70
     1
  9
$DIMPOST
  1
\X
  9
$DIMAPOST
  1

  9
$DIMALT
 70
     1
  9
$DIMALTD
 70
     2
  9
$DIMALTF
 40
25.3999999999999986
  9
$DIMLFAC
 40
1.0
  9
$DIMTOFL
 70
     0
  9
$DIMTVP
 40
0.0
  9
$DIMTIX
 70
     0
  9
$DIMSOXD
 70
     0
  9
$DIMSAH
 70
     0
  9
$DIMBLK1
  1

  9
$DIMBLK2
  1

  9
$DIMSTYLE
  2
STANDARD
  9
$DIMCLRD
 70
     0
  9
$DIMCLRE
 70
     0
  9
$DIMCLRT
 70
     0
  9
$DIMTFAC
 40
1.0
  9
$DIMGAP
 40
0.09
  9
$LUNITS
 70
     2
  9
$LUPREC
 70
     4
  9
$SKETCHINC
 40
0.1
  9
$FILLETRAD
 40
0.0
  9
$AUNITS
 70
     0
  9
$AUPREC
 70
     0
  9
$MENU
  1
.
  9
$ELEVATION
 40
0.0
  9
$PELEVATION
 40
0.0
  9
$THICKNESS
 40
0.0
  9
$LIMCHECK
 70
     0
  9
$BLIPMODE
 70
     0
  9
$CHAMFERA
 40
0.0
  9
$CHAMFERB
 40
0.0
  9
$SKPOLY
 70
     0
  9
$TDCREATE
 40
2458172.5207638889551163
  9
$TDUPDATE
 40
2460171.4986689807847142
  9
$TDINDWG
 40
0.2340368519
  9
$TDUSRTIMER
 40
0.2340368519
  9
$USRTIMER
 70
     1
  9
$ANGBASE
 50
0.0
  9
$ANGDIR
 70
     0
  9
$PDMODE
 70
     0
  9
$PDSIZE
 40
0.3125
  9
$PLINEWID
 40
0.0
  9
$COORDS
 70
     1
  9
$SPLFRAME
 70
     0
  9
$SPLINETYPE
 70
     6
  9
$SPLINESEGS
 70
     8
  9
$ATTDIA
 70
     1
  9
$ATTREQ
 70
     1
  9
$HANDLING
 70
     1
  9
$HANDSEED
  5
10985
  9
$SURFTAB1
 70
     6
  9
$SURFTAB2
 70
     6
  9
$SURFTYPE
 70
     6
  9
$SURFU
 70
     6
  9
$SURFV
 70
     6
  9
$UCSNAME
  2

  9
$UCSORG
 10
0.0
 20
0.0
 30
0.0
  9
$UCSXDIR
 10
1.0
 20
0.0
 30
0.0
  9
$UCSYDIR
 10
0.0
 20
1.0
 30
0.0
  9
$PUCSNAME
  2

  9
$PUCSORG
 10
0.0
 20
0.0
 30
0.0
  9
$PUCSXDIR
 10
1.0
 20
0.0
 30
0.0
  9
$PUCSYDIR
 10
0.0
 20
1.0
 30
0.0
  9
$USERI1
 70
     0
  9
$USERI2
 70
     0
  9
$USERI3
 70
     0
  9
$USERI4
 70
     0
  9
$USERI5
 70
     0
  9
$USERR1
 40
0.0
  9
$USERR2
 40
0.0
  9
$USERR3
 40
0.0
  9
$USERR4
 40
0.0
  9
$USERR5
 40
0.0
  9
$WORLDVIEW
 70
     1
  9
$SHADEDGE
 70
     3
  9
$SHADEDIF
 70
    70
  9
$TILEMODE
 70
     1
  9
$MAXACTVP
 70
    64
  9
$PLIMCHECK
 70
     0
  9
$PEXTMIN
 10
1.0000000000000000E+20
 20
1.0000000000000000E+20
 30
1.0000000000000000E+20
  9
$PEXTMAX
 10
-1.0000000000000000E+20
 20
-1.0000000000000000E+20
 30
-1.0000000000000000E+20
  9
$PLIMMIN
 10
0.0
 20
0.0
  9
$PLIMMAX
 10
12.0
 20
9.0
  9
$UNITMODE
 70
     0
  9
$VISRETAIN
 70
     1
  9
$PLINEGEN
 70
     0
  9
$PSLTSCALE
 70
     1
  0
ENDSEC
  0
SECTION
  2
TABLES
  0
TABLE
  2
VPORT
 70
     1
  0
VPORT
  2
*ACTIVE
 70
     0
 10
0.0
 20
0.0
 11
1.0
 21
1.0
 12
526.4951833738748519
 22
-7.2775459204588202
 13
0.0
 23
0.0
 14
1.0
 24
1.0
 15
0.0
 25
0.0
 16
0.0
 26
0.0
 36
25.5757211105568096
 17
373.821136474609375
 27
41.8864481322634603
 37
0.0
 40
5.4886479651200162
 41
2.8368263473053892
 42
50.0
 43
0.0
 44
0.0
 50
0.0
 51
0.0
 71
     0
 72
   100
 73
     1
 74
     1
 75
     0
 76
     0
 77
     0
 78
     0
  0
ENDTAB
  0
TABLE
  2
LTYPE
 70
     2
  0
LTYPE
  2
CONTINUOUS
 70
     0
  3
Solid line
 72
    65
 73
     0
 40
0.0
  0
LTYPE
  2
PHANTOM2
 70
     0
  3
___ _ _ ___ _ _ ___ _ _ ___ _ _
 72
    65
 73
     6
 40
1.25
 49
0.625
 49
-0.125
 49
0.125
 49
-0.125
 49
0.125
 49
-0.125
  0
ENDTAB
  0
TABLE
  2
LAYER
 70
     2
  0
LAYER
  2
0
 70
     0
 62
   255
  6
CONTINUOUS
  0
LAYER
  2
DEFPOINTS
 70
     0
 62
     7
  6
CONTINUOUS
  0
ENDTAB
  0
TABLE
  2
STYLE
 70
     1
  0
STYLE
  2
STANDARD
 70
     0
 40
0.0
 41
0.8
 50
0.0
 71
     0
 42
0.2
  3
txt
  4

  0
ENDTAB
  0
TABLE
  2
VIEW
 70
     0
  0
ENDTAB
  0
TABLE
  2
UCS
 70
     0
  0
ENDTAB
  0
TABLE
  2
APPID
 70
    10
  0
APPID
  2
ACAD
 70
     0
  0
APPID
  2
ACAD_MLEADERVER
 70
     0
  0
APPID
  2
ACAD_EXEMPT_FROM_CAD_STANDARDS
 70
     0
  0
APPID
  2
ACAD_DSTYLE_DIMJAG
 70
     0
  0
APPID
  2
ACAD_DSTYLE_DIMTALN
 70
     0
  0
APPID
  2
ACAD_NAV_VCDISPLAY
 70
     0
  0
APPID
  2
ACAECLAYERSTANDARD
 70
     0
  0
APPID
  2
ACCMTRANSPARENCY
 70
     0
  0
APPID
  2
DCO15
 70
     0
  0
APPID
  2
ACDBATTR
 70
     0
  0
ENDTAB
  0
TABLE
  2
DIMSTYLE
 70
     1
  0
DIMSTYLE
  2
STANDARD
 70
     0
  3

  4

  5

  6

  7

 40
1.0
 41
0.1875
 42
0.0625
 43
0.38
 44
0.125
 45
0.0
 46
0.0
 47
0.01
 48
0.01
140
0.15625
141
0.09
142
0.0
143
25.3999999999999986
144
1.0
145
0.0
146
1.0
147
0.09
 71
     1
 72
     0
 73
     1
 74
     1
 75
     0
 76
     0
 77
     0
 78
     4
170
     0
171
     2
172
     0
173
     0
174
     0
175
     0
176
     0
177
     0
178
     0
  0
ENDTAB
  0
ENDSEC
  0
SECTION
  2
BLOCKS
  0
BLOCK
  8
0
  2
$MODEL_SPACE
 70
     0
 10
0.0
 20
0.0
 30
0.0
  3
$MODEL_SPACE
  1

  0
ENDBLK
  5
21
  8
0
  0
BLOCK
 67
     1
  8
0
  2
$PAPER_SPACE
 70
     0
 10
0.0
 20
0.0
 30
0.0
  3
$PAPER_SPACE
  1

  0
ENDBLK
  5
1D
 67
     1
  8
0
  0
BLOCK
  8
0
  2
_FILLED
 70
     0
 10
0.0
 20
0.0
 30
0.0
  3
_FILLED
  1

  0
SOLID
  5
B17D
  8
0
  6
BYBLOCK
 62
     0
 10
0.0
 20
0.0
 30
0.0
 11
-1.0
 21
0.1666666667
 31
0.0
 12
-1.0
 22
-0.1666666667
 32
0.0
 13
-1.0
 23
-0.1666666667
 33
0.0
  0
ENDBLK
  5
B17E
  8
0
  6
BYBLOCK
 62
     0
  0
ENDSEC
  0
SECTION
  2
ENTITIES
  0
ATTDEF
  5
829
  8
DEFPOINTS
 10
902.8301937382212827
 20
31.8933636232077298
 30
0.0
 40
0.001
  1
K-72866T
  3

  2
MODELNUMBER
 70
     0
1001
ACDBATTR
1070
     0
1070
     1
  0
ATTDEF
  5
82A
  8
DEFPOINTS
 10
902.8301937382212827
 20
31.8916969565410717
 30
0.0
 40
0.001
  1
STRAYT
  3

  2
TRADENAME
 70
     0
1001
ACDBATTR
1070
     0
1070
     1
  0
ATTDEF
  5
82B
  8
DEFPOINTS
 10
902.8301937382212827
 20
31.8900302898743995
 30
0.0
 40
0.001
  1
BATHROOM SINK FAUCET
  3

  2
PRODUCT
 70
     0
1001
ACDBATTR
1070
     0
1070
     1
  0
LINE
  5
10547
  8
0
 10
901.8777173904489928
 20
31.8949488722026686
 30
0.0
 11
903.8042815789840461
 21
31.8949488722026686
 31
0.0
  0
LINE
  5
10548
  8
0
 10
901.9072945356498394
 20
32.0130591084026719
 30
0.0
 11
903.774704433782972
 21
32.0130591084026719
 31
0.0
  0
LINE
  5
10549
  8
0
 10
896.8111740505891021
 20
37.3280197383026717
 30
0.0
 11
903.5780519274663902
 21
37.3280197383026717
 31
0.0
  0
LINE
  5
1054A
  8
0
 10
896.8035886845602818
 20
36.4028228879026727
 30
0.0
 11
896.8481929778477024
 21
36.4028228879026727
 31
0.0
  0
LINE
  5
1054B
  8
0
 10
896.8744700164663755
 20
36.4028228879026727
 30
0.0
 11
901.2470826574665352
 21
36.4028228879026727
 31
0.0
  0
LINE
  5
1054C
  8
0
 10
901.2710501907752132
 20
36.4028228879026727
 30
0.0
 11
901.542364098866301
 21
36.4028228879026727
 31
0.0
  0
LINE
  5
1054D
  8
0
 10
896.9286166753822727
 20
36.4099100536137428
 30
0.0
 11
901.1822069416308523
 21
36.4099100536137428
 31
0.0
  0
LINE
  5
1054E
  8
0
 10
896.7831751167434504
 20
37.3002640812976267
 30
0.0
 11
896.7755897507144027
 21
36.4310672308976393
 31
0.0
  0
ARC
  5
1054F
  8
0
 10
896.8111740505891021
 20
37.3000197383026801
 30
0.0
 40
0.028
 50
90.0
 51
179.4999999979370102
  0
ARC
  5
10550
  8
0
 10
896.8035886845602818
 20
36.4308228879026714
 30
0.0
 40
0.028
 50
179.4999999979351912
 51
270.0
  0
ARC
  5
10551
  8
0
 10
896.8023669954567367
 20
36.9264060965380523
 30
0.0
 40
0.5255848143040471
 50
275.0019968258569065
 51
277.4730153090104068
  0
ARC
  5
10552
  8
0
 10
896.9552167575261592
 20
35.7611563521730815
 30
0.0
 40
0.6496470847300646
 50
94.4358601783974336
 51
97.4730153090104636
  0
ARC
  5
10553
  8
0
 10
896.9335599081839518
 20
36.0327546429122165
 30
0.0
 40
0.3771878038483773
 50
90.7509110367612664
 51
94.3468850837082442
  0
ARC
  5
10554
  8
0
 10
896.8744700164663755
 20
36.4146339115026834
 30
0.0
 40
0.0118110235999995
 50
235.4448045503202991
 51
270.0
  0
ARC
  5
10555
  8
0
 10
901.1782732061736851
 20
35.9143765990423915
 30
0.0
 40
0.4955490680791103
 50
84.6600353119610389
 51
89.5451735840221943
  0
ARC
  5
10556
  8
0
 10
901.0919215291631872
 20
35.0989652554907821
 30
0.0
 40
1.3154965756322741
 50
82.8242569836508835
 51
84.2205411242690332
  0
ARC
  5
10557
  8
0
 10
901.2802942128051882
 20
36.588037393159702
 30
0.0
 40
0.1854450455010774
 50
262.5484975466756055
 51
267.1427490269778104
  0
ARC
  5
10558
  8
0
 10
901.2470826574665352
 20
36.4146339115026976
 30
0.0
 40
0.0118110236000278
 50
270.0
 51
301.252844866524697
  0
LINE
  5
10559
  8
0
 10
897.8487672121666492
 20
36.3779606408026694
 30
0.0
 11
897.7559800426663514
 21
36.4028228879026727
 31
0.0
  0
LINE
  5
1055A
  8
0
 10
897.8850899118821189
 20
36.3682280027608584
 30
0.0
 11
898.0118314555986672
 21
36.3342677085229866
 31
0.0
  0
LINE
  5
1055B
  8
0
 10
897.8554290311665227
 20
36.4028228879026727
 30
0.0
 11
897.8487672121666492
 21
36.3779606408026694
 31
0.0
  0
LINE
  5
1055C
  8
0
 10
897.8942606654550218
 20
36.4024537209598904
 30
0.0
 11
897.8850899118821189
 21
36.3682280027608584
 31
0.0
  0
LINE
  5
1055D
  8
0
 10
897.8928829156664051
 20
36.4028228879026727
 30
0.0
 11
898.0259354053854395
 21
36.3671715807734586
 31
0.0
  0
LINE
  5
1055E
  8
0
 10
898.0118314555986672
 20
36.3342677085229866
 30
0.0
 11
898.0210022091695237
 21
36.3684934267140676
 31
0.0
  0
LINE
  5
1055F
  8
0
 10
898.0259354053854395
 20
36.3671715807734586
 30
0.0
 11
898.0320492410664883
 21
36.3899887262026667
 31
0.0
  0
LINE
  5
10560
  8
0
 10
897.9841514976666303
 20
36.4028228879026727
 30
0.0
 11
898.0320492410664883
 21
36.3899887262026667
 31
0.0
  0
LINE
  5
10561
  8
0
 10
902.0779060552002875
 20
32.0407586192767226
 30
0.0
 11
902.0363356509202504
 21
35.9141243746247625
 31
0.0
  0
LINE
  5
10562
  8
0
 10
903.6060519274665239
 20
37.3000197383026801
 30
0.0
 11
903.6060519274665239
 21
32.0330591084026679
 31
0.0
  0
ARC
  5
10563
  8
0
 10
903.5780519274663902
 20
37.300019738302673
 30
0.0
 40
0.028
 50
0.000000000003664
 51
89.9999999999934914
  0
LINE
  5
10564
  8
0
 10
901.8792988001854383
 20
31.9855477757804607
 30
0.0
 11
901.8777173904489928
 21
31.8949488722026686
 31
0.0
  0
ARC
  5
10565
  8
0
 10
901.9072945356498394
 20
31.9850591084026803
 30
0.0
 40
0.028
 50
89.9999999999934914
 51
179.0000000050389986
  0
ARC
  5
10566
  8
0
 10
902.1059044427660183
 20
32.0410591084026706
 30
0.0
 40
0.028
 50
180.6148960428855901
 51
270.0000000000064801
  0
LINE
  5
10567
  8
0
 10
903.8027001692476006
 20
31.9855477757804607
 30
0.0
 11
903.8042815789840461
 21
31.8949488722026686
 31
0.0
  0
ARC
  5
10568
  8
0
 10
903.774704433782972
 20
31.9850591084026803
 30
0.0
 40
0.028
 50
0.9999999949610172
 51
90.0000000000065086
  0
ARC
  5
10569
  8
0
 10
903.5860519274665421
 20
32.0330591084026679
 30
0.0
 40
0.02
 50
270.0
 51
0.0000000000089564
  0
ARC
  5
1056A
  8
0
 10
901.542364098866301
 20
35.908822887902673
 30
0.0
 40
0.494
 50
0.614896042886652
 51
90.0
  0
ENDSEC
  0
EOF
