  0
SECTION
  2
HEADER
  9
$ACADVER
  1
AC1009
  9
$INSBASE
 10
3344.5598815787561762
 20
188.022854695273395
 30
0.0
  9
$EXTMIN
 10
3338.3919968290979341
 20
188.0119970415447881
 30
-0.0015258207003583
  9
$EXTMAX
 10
3345.7746619052718415
 20
193.4596567858035883
 30
0.0000000349246037
  9
$LIMMIN
 10
0.0
 20
0.0
  9
$LIMMAX
 10
11.6929133858000007
 20
8.2677165353999982
  9
$ORTHOMODE
 70
     0
  9
$REGENMODE
 70
     1
  9
$FILLMODE
 70
     1
  9
$QTEXTMODE
 70
     0
  9
$MIRRTEXT
 70
     0
  9
$DRAGMODE
 70
     2
  9
$LTSCALE
 40
0.6431102362
  9
$OSMODE
 70
  4095
  9
$ATTMODE
 70
     1
  9
$TEXTSIZE
 40
0.2
  9
$TRACEWID
 40
0.05
  9
$TEXTSTYLE
  7
STANDARD
  9
$CLAYER
  8
0
  9
$CELTYPE
  6
BYLAYER
  9
$CECOLOR
 62
   256
  9
$DIMSCALE
 40
1.0
  9
$DIMASZ
 40
0.1875
  9
$DIMEXO
 40
0.0625
  9
$DIMDLI
 40
0.4443307087
  9
$DIMRND
 40
0.0
  9
$DIMDLE
 40
0.0
  9
$DIMEXE
 40
0.125
  9
$DIMTP
 40
0.01
  9
$DIMTM
 40
0.01
  9
$DIMTXT
 40
2.0
  9
$DIMCEN
 40
0.1052362205
  9
$DIMTSZ
 40
0.0
  9
$DIMTOL
 70
     1
  9
$DIMLIM
 70
     0
  9
$DIMTIH
 70
     1
  9
$DIMTOH
 70
     1
  9
$DIMSE1
 70
     0
  9
$DIMSE2
 70
     0
  9
$DIMTAD
 70
     0
  9
$DIMZIN
 70
     0
  9
$DIMBLK
  1

  9
$DIMASO
 70
     1
  9
$DIMSHO
 70
     1
  9
$DIMPOST
  1
\X
  9
$DIMAPOST
  1

  9
$DIMALT
 70
     1
  9
$DIMALTD
 70
     2
  9
$DIMALTF
 40
25.3999999999999986
  9
$DIMLFAC
 40
1.0
  9
$DIMTOFL
 70
     0
  9
$DIMTVP
 40
0.0
  9
$DIMTIX
 70
     0
  9
$DIMSOXD
 70
     0
  9
$DIMSAH
 70
     0
  9
$DIMBLK1
  1

  9
$DIMBLK2
  1

  9
$DIMSTYLE
  2
STANDARD
  9
$DIMCLRD
 70
     0
  9
$DIMCLRE
 70
     0
  9
$DIMCLRT
 70
     0
  9
$DIMTFAC
 40
1.0
  9
$DIMGAP
 40
0.09
  9
$LUNITS
 70
     2
  9
$LUPREC
 70
     4
  9
$SKETCHINC
 40
0.1
  9
$FILLETRAD
 40
0.0
  9
$AUNITS
 70
     0
  9
$AUPREC
 70
     0
  9
$MENU
  1
.
  9
$ELEVATION
 40
0.0
  9
$PELEVATION
 40
0.0
  9
$THICKNESS
 40
0.0
  9
$LIMCHECK
 70
     0
  9
$BLIPMODE
 70
     0
  9
$CHAMFERA
 40
0.0
  9
$CHAMFERB
 40
0.0
  9
$SKPOLY
 70
     0
  9
$TDCREATE
 40
2458060.468368056230247
  9
$TDUPDATE
 40
2459781.6300925919786096
  9
$TDINDWG
 40
0.394347338
  9
$TDUSRTIMER
 40
0.394347338
  9
$USRTIMER
 70
     1
  9
$ANGBASE
 50
0.0
  9
$ANGDIR
 70
     0
  9
$PDMODE
 70
     0
  9
$PDSIZE
 40
0.3125
  9
$PLINEWID
 40
0.0
  9
$COORDS
 70
     1
  9
$SPLFRAME
 70
     0
  9
$SPLINETYPE
 70
     6
  9
$SPLINESEGS
 70
     8
  9
$ATTDIA
 70
     1
  9
$ATTREQ
 70
     1
  9
$HANDLING
 70
     1
  9
$HANDSEED
  5
8245
  9
$SURFTAB1
 70
     6
  9
$SURFTAB2
 70
     6
  9
$SURFTYPE
 70
     6
  9
$SURFU
 70
     6
  9
$SURFV
 70
     6
  9
$UCSNAME
  2

  9
$UCSORG
 10
0.0
 20
0.0
 30
0.0
  9
$UCSXDIR
 10
1.0
 20
0.0
 30
0.0
  9
$UCSYDIR
 10
0.0
 20
1.0
 30
0.0
  9
$PUCSNAME
  2

  9
$PUCSORG
 10
0.0
 20
0.0
 30
0.0
  9
$PUCSXDIR
 10
1.0
 20
0.0
 30
0.0
  9
$PUCSYDIR
 10
0.0
 20
1.0
 30
0.0
  9
$USERI1
 70
     0
  9
$USERI2
 70
     0
  9
$USERI3
 70
     0
  9
$USERI4
 70
     0
  9
$USERI5
 70
     0
  9
$USERR1
 40
0.0
  9
$USERR2
 40
0.0
  9
$USERR3
 40
0.0
  9
$USERR4
 40
0.0
  9
$USERR5
 40
0.0
  9
$WORLDVIEW
 70
     1
  9
$SHADEDGE
 70
     3
  9
$SHADEDIF
 70
    70
  9
$TILEMODE
 70
     1
  9
$MAXACTVP
 70
    64
  9
$PLIMCHECK
 70
     0
  9
$PEXTMIN
 10
1.0000000000000000E+20
 20
1.0000000000000000E+20
 30
1.0000000000000000E+20
  9
$PEXTMAX
 10
-1.0000000000000000E+20
 20
-1.0000000000000000E+20
 30
-1.0000000000000000E+20
  9
$PLIMMIN
 10
0.0
 20
0.0
  9
$PLIMMAX
 10
12.0
 20
9.0
  9
$UNITMODE
 70
     0
  9
$VISRETAIN
 70
     1
  9
$PLINEGEN
 70
     0
  9
$PSLTSCALE
 70
     1
  0
ENDSEC
  0
SECTION
  2
TABLES
  0
TABLE
  2
VPORT
 70
     1
  0
VPORT
  2
*ACTIVE
 70
     0
 10
0.0
 20
0.0
 11
1.0
 21
1.0
 12
252.2720500703098878
 22
-6.425743675712539
 13
0.0
 23
0.0
 14
1.0
 24
1.0
 15
0.0
 25
0.0
 16
0.0
 26
0.0
 36
95.5902297660485658
 17
3089.811279296875
 27
197.161570589386713
 37
0.0
 40
5.4820178300466216
 41
2.005224660397074
 42
50.0
 43
0.0
 44
0.0
 50
0.0
 51
0.0
 71
     0
 72
   100
 73
     1
 74
     1
 75
     0
 76
     0
 77
     0
 78
     0
  0
ENDTAB
  0
TABLE
  2
LTYPE
 70
     2
  0
LTYPE
  2
CONTINUOUS
 70
     0
  3
Solid line
 72
    65
 73
     0
 40
0.0
  0
LTYPE
  2
PHANTOM2
 70
     0
  3
___ _ _ ___ _ _ ___ _ _ ___ _ _
 72
    65
 73
     6
 40
1.25
 49
0.625
 49
-0.125
 49
0.125
 49
-0.125
 49
0.125
 49
-0.125
  0
ENDTAB
  0
TABLE
  2
LAYER
 70
     2
  0
LAYER
  2
0
 70
     0
 62
   255
  6
CONTINUOUS
  0
LAYER
  2
DEFPOINTS
 70
     0
 62
     7
  6
CONTINUOUS
  0
ENDTAB
  0
TABLE
  2
STYLE
 70
     1
  0
STYLE
  2
STANDARD
 70
     0
 40
0.0
 41
0.8
 50
0.0
 71
     0
 42
0.2
  3
txt
  4

  0
ENDTAB
  0
TABLE
  2
VIEW
 70
     0
  0
ENDTAB
  0
TABLE
  2
UCS
 70
     0
  0
ENDTAB
  0
TABLE
  2
APPID
 70
     9
  0
APPID
  2
ACAD
 70
     0
  0
APPID
  2
ACAD_MLEADERVER
 70
     0
  0
APPID
  2
ACAD_EXEMPT_FROM_CAD_STANDARDS
 70
     0
  0
APPID
  2
ACAD_NAV_VCDISPLAY
 70
     0
  0
APPID
  2
ACAECLAYERSTANDARD
 70
     0
  0
APPID
  2
ACCMTRANSPARENCY
 70
     0
  0
APPID
  2
ACAD_DSTYLE_DIMJAG
 70
     0
  0
APPID
  2
ACAD_DSTYLE_DIMTALN
 70
     0
  0
APPID
  2
ACDBATTR
 70
     0
  0
ENDTAB
  0
TABLE
  2
DIMSTYLE
 70
     1
  0
DIMSTYLE
  2
STANDARD
 70
     0
  3

  4

  5

  6

  7

 40
1.0
 41
0.1875
 42
0.0625
 43
0.38
 44
0.125
 45
0.0
 46
0.0
 47
0.01
 48
0.01
140
0.15625
141
0.09
142
0.0
143
25.3999999999999986
144
1.0
145
0.0
146
1.0
147
0.09
 71
     1
 72
     0
 73
     1
 74
     1
 75
     0
 76
     0
 77
     0
 78
     4
170
     0
171
     2
172
     0
173
     0
174
     0
175
     0
176
     0
177
     0
178
     0
  0
ENDTAB
  0
ENDSEC
  0
SECTION
  2
BLOCKS
  0
BLOCK
  8
0
  2
$MODEL_SPACE
 70
     0
 10
0.0
 20
0.0
 30
0.0
  3
$MODEL_SPACE
  1

  0
ENDBLK
  5
21
  8
0
  0
BLOCK
 67
     1
  8
0
  2
$PAPER_SPACE
 70
     0
 10
0.0
 20
0.0
 30
0.0
  3
$PAPER_SPACE
  1

  0
ENDBLK
  5
1D
 67
     1
  8
0
  0
ENDSEC
  0
SECTION
  2
ENTITIES
  0
ATTDEF
  5
7D5C
  8
DEFPOINTS
 10
3344.5556756630558084
 20
188.0278711044051931
 30
0.0
 40
0.001
  1
K-72867T
  3

  2
MODELNUMBER
 70
     0
1001
ACDBATTR
1070
     0
1070
     1
  0
ATTDEF
  5
7D5D
  8
DEFPOINTS
 10
3344.5556756630558084
 20
188.0262044377386133
 30
0.0
 40
0.001
  1
STRAYT
  3

  2
TRADENAME
 70
     0
1001
ACDBATTR
1070
     0
1070
     1
  0
ATTDEF
  5
7D5E
  8
DEFPOINTS
 10
3344.5556756630558084
 20
188.0245377710718913
 30
0.0
 40
0.001
  1
BATHROOM SINK FAUCET
  3

  2
PRODUCT
 70
     0
1001
ACDBATTR
1070
     0
1070
     1
  0
LINE
  5
8122
  8
0
 10
3343.5965994844559646
 20
188.022854695273395
 30
0.0
 11
3345.523163673055933
 21
188.022854695273395
 31
0.0
  0
LINE
  5
8123
  8
0
 10
3343.6257835507199161
 20
188.1409649314734054
 30
0.0
 11
3345.4939796066919371
 21
188.1409649314734054
 31
0.0
  0
LINE
  5
8124
  8
0
 10
3338.5220679631211169
 20
193.455925561373391
 30
0.0
 11
3345.2973340215557982
 21
193.455925561373391
 31
0.0
  0
LINE
  5
8125
  8
0
 10
3338.5220679631211169
 20
192.530728710973392
 30
0.0
 11
3338.5677055360770282
 21
192.530728710973392
 31
0.0
  0
LINE
  5
8126
  8
0
 10
3338.5933521104129795
 20
192.530728710973392
 30
0.0
 11
3342.9667749732398079
 21
192.530728710973392
 31
0.0
  0
LINE
  5
8127
  8
0
 10
3342.9866576872268524
 20
192.530728710973392
 30
0.0
 11
3343.0859046618547836
 21
192.530728710973392
 31
0.0
  0
LINE
  5
8128
  8
0
 10
3338.4944679631198596
 20
192.5583287109733988
 30
0.0
 11
3338.4944679631198596
 21
193.428325561373498
 31
0.0
  0
LINE
  5
8129
  8
0
 10
3345.324934021556146
 20
188.1606649314734057
 30
0.0
 11
3345.324934021556146
 21
193.428325561373498
 31
0.0
  0
LINE
  5
812A
  8
0
 10
3343.5981877543331393
 20
188.1138466178790907
 30
0.0
 11
3343.5965994844559646
 21
188.022854695273395
 31
0.0
  0
LINE
  5
812B
  8
0
 10
3345.5215754030778044
 20
188.1138466179095019
 30
0.0
 11
3345.523163673055933
 21
188.022854695273395
 31
0.0
  0
ARC
  5
812C
  8
0
 10
3345.4939796066919371
 20
188.1133649314733987
 30
0.0
 40
0.0276
 50
1.000000038111742
 51
90.0
  0
ARC
  5
812D
  8
0
 10
3343.6257835507199161
 20
188.1133649314733987
 30
0.0
 40
0.0276
 50
90.0
 51
179.0000000248114986
  0
ARC
  5
812E
  8
0
 10
3345.3052340215558615
 20
188.1606649314734057
 30
0.0
 40
0.0197
 50
270.0
 51
0.0
  0
LINE
  5
812F
  8
0
 10
3343.7958979061390892
 20
188.160458637326002
 30
0.0
 11
3343.7564951838571687
 21
191.9230039021736047
 31
0.0
  0
ARC
  5
8130
  8
0
 10
3343.8155968259761721
 20
188.1606649314734057
 30
0.0
 40
0.0197
 50
180.600000000969203
 51
270.0
  0
ARC
  5
8131
  8
0
 10
3343.0130824016328006
 20
191.9497682759269992
 30
0.0
 40
0.743894412183447
 50
357.9381258056528736
 51
24.2325972995726389
  0
ARC
  5
8132
  8
0
 10
3343.3000027430889531
 20
192.0789116481884093
 30
0.0
 40
0.429249703121532
 50
24.2325972995726389
 51
73.8117069257118743
  0
ARC
  5
8133
  8
0
 10
3343.133542045150989
 20
191.5055128906180073
 30
0.0
 40
1.0263219760847191
 50
73.8117069257118743
 51
92.6603756657329285
  0
ARC
  5
8134
  8
0
 10
3338.5220679631211169
 20
192.5583287109733988
 30
0.0
 40
0.0276
 50
180.0
 51
270.0
  0
ARC
  5
8135
  8
0
 10
3338.5220679631211169
 20
193.428325561373498
 30
0.0
 40
0.0276
 50
90.0
 51
179.9999999999917861
  0
LINE
  5
8136
  8
0
 10
3342.9280160986559167
 20
192.5376351551510083
 30
0.0
 11
3338.6276690192189562
 21
192.5376351551510083
 31
0.0
  0
LINE
  5
8137
  8
0
 10
3342.9866576872268524
 20
192.530728710973392
 30
0.0
 11
3342.9280160986559167
 21
192.5376351551510083
 31
0.0
  0
ARC
  5
8138
  8
0
 10
3342.9656523714152172
 20
192.5433807246745914
 30
0.0
 40
0.0127017197869546
 50
275.0705244368031117
 51
300.5502848272000733
  0
LINE
  5
8139
  8
0
 10
3338.6276690192189562
 20
192.5376351551510083
 30
0.0
 11
3338.5677055360770282
 21
192.530728710973392
 31
0.0
  0
ARC
  5
813A
  8
0
 10
3338.5931329097647904
 20
192.541804945428197
 30
0.0
 40
0.0110784032531653
 50
233.5083238763511133
 51
271.133745660404827
  0
LINE
  5
813B
  8
0
 10
3339.7444696799561825
 20
192.5135121088734138
 30
0.0
 11
3339.7490828545560362
 21
192.530728710973392
 31
0.0
  0
LINE
  5
813C
  8
0
 10
3339.7444696799561825
 20
192.5135121088734138
 30
0.0
 11
3339.680216446256054
 21
192.530728710973392
 31
0.0
  0
ARC
  5
813D
  8
0
 10
3345.2973340215557982
 20
193.428325561373498
 30
0.0
 40
0.0276
 50
0.0000000000081422
 51
90.0
  0
ENDSEC
  0
EOF
