  0
SECTION
  2
HEADER
  9
$ACADVER
  1
AC1009
  9
$INSBASE
 10
4339.991479004896064
 20
234.6393400482716061
 30
0.0
  9
$EXTMIN
 10
4323.1956380103656556
 20
225.7774891086241951
 30
-0.0000000349181948
  9
$EXTMAX
 10
4356.7639128994987914
 20
243.5066425121819975
 30
0.0000000814935746
  9
$LIMMIN
 10
0.0
 20
0.0
  9
$LIMMAX
 10
11.6929133858000007
 20
8.2677165353999982
  9
$ORTHOMODE
 70
     0
  9
$REGENMODE
 70
     1
  9
$FILLMODE
 70
     1
  9
$QTEXTMODE
 70
     0
  9
$MIRRTEXT
 70
     0
  9
$DRAGMODE
 70
     2
  9
$LTSCALE
 40
0.6431102362
  9
$OSMODE
 70
  4095
  9
$ATTMODE
 70
     1
  9
$TEXTSIZE
 40
0.2
  9
$TRACEWID
 40
0.05
  9
$TEXTSTYLE
  7
STANDARD
  9
$CLAYER
  8
0
  9
$CELTYPE
  6
BYLAYER
  9
$CECOLOR
 62
   256
  9
$DIMSCALE
 40
1.0
  9
$DIMASZ
 40
0.1875
  9
$DIMEXO
 40
0.0625
  9
$DIMDLI
 40
0.4443307087
  9
$DIMRND
 40
0.0
  9
$DIMDLE
 40
0.0
  9
$DIMEXE
 40
0.125
  9
$DIMTP
 40
0.01
  9
$DIMTM
 40
0.01
  9
$DIMTXT
 40
2.0
  9
$DIMCEN
 40
0.1052362205
  9
$DIMTSZ
 40
0.0
  9
$DIMTOL
 70
     1
  9
$DIMLIM
 70
     0
  9
$DIMTIH
 70
     1
  9
$DIMTOH
 70
     1
  9
$DIMSE1
 70
     0
  9
$DIMSE2
 70
     0
  9
$DIMTAD
 70
     0
  9
$DIMZIN
 70
     0
  9
$DIMBLK
  1

  9
$DIMASO
 70
     1
  9
$DIMSHO
 70
     1
  9
$DIMPOST
  1
\X
  9
$DIMAPOST
  1

  9
$DIMALT
 70
     1
  9
$DIMALTD
 70
     2
  9
$DIMALTF
 40
25.3999999999999986
  9
$DIMLFAC
 40
1.0
  9
$DIMTOFL
 70
     0
  9
$DIMTVP
 40
0.0
  9
$DIMTIX
 70
     0
  9
$DIMSOXD
 70
     0
  9
$DIMSAH
 70
     0
  9
$DIMBLK1
  1

  9
$DIMBLK2
  1

  9
$DIMSTYLE
  2
STANDARD
  9
$DIMCLRD
 70
     0
  9
$DIMCLRE
 70
     0
  9
$DIMCLRT
 70
     0
  9
$DIMTFAC
 40
1.0
  9
$DIMGAP
 40
0.09
  9
$LUNITS
 70
     2
  9
$LUPREC
 70
     4
  9
$SKETCHINC
 40
0.1
  9
$FILLETRAD
 40
0.0
  9
$AUNITS
 70
     0
  9
$AUPREC
 70
     0
  9
$MENU
  1
.
  9
$ELEVATION
 40
0.0
  9
$PELEVATION
 40
0.0
  9
$THICKNESS
 40
0.0
  9
$LIMCHECK
 70
     0
  9
$BLIPMODE
 70
     0
  9
$CHAMFERA
 40
0.0
  9
$CHAMFERB
 40
0.0
  9
$SKPOLY
 70
     0
  9
$TDCREATE
 40
2458060.468368056230247
  9
$TDUPDATE
 40
2459156.7203819439746439
  9
$TDINDWG
 40
0.4461644676
  9
$TDUSRTIMER
 40
0.4461644676
  9
$USRTIMER
 70
     1
  9
$ANGBASE
 50
0.0
  9
$ANGDIR
 70
     0
  9
$PDMODE
 70
     0
  9
$PDSIZE
 40
0.3125
  9
$PLINEWID
 40
0.0
  9
$COORDS
 70
     1
  9
$SPLFRAME
 70
     0
  9
$SPLINETYPE
 70
     6
  9
$SPLINESEGS
 70
     8
  9
$ATTDIA
 70
     1
  9
$ATTREQ
 70
     1
  9
$HANDLING
 70
     1
  9
$HANDSEED
  5
18895
  9
$SURFTAB1
 70
     6
  9
$SURFTAB2
 70
     6
  9
$SURFTYPE
 70
     6
  9
$SURFU
 70
     6
  9
$SURFV
 70
     6
  9
$UCSNAME
  2

  9
$UCSORG
 10
0.0
 20
0.0
 30
0.0
  9
$UCSXDIR
 10
1.0
 20
0.0
 30
0.0
  9
$UCSYDIR
 10
0.0
 20
1.0
 30
0.0
  9
$PUCSNAME
  2

  9
$PUCSORG
 10
0.0
 20
0.0
 30
0.0
  9
$PUCSXDIR
 10
1.0
 20
0.0
 30
0.0
  9
$PUCSYDIR
 10
0.0
 20
1.0
 30
0.0
  9
$USERI1
 70
     0
  9
$USERI2
 70
     0
  9
$USERI3
 70
     0
  9
$USERI4
 70
     0
  9
$USERI5
 70
     0
  9
$USERR1
 40
0.0
  9
$USERR2
 40
0.0
  9
$USERR3
 40
0.0
  9
$USERR4
 40
0.0
  9
$USERR5
 40
0.0
  9
$WORLDVIEW
 70
     1
  9
$SHADEDGE
 70
     3
  9
$SHADEDIF
 70
    70
  9
$TILEMODE
 70
     1
  9
$MAXACTVP
 70
    64
  9
$PLIMCHECK
 70
     0
  9
$PEXTMIN
 10
1.0000000000000000E+20
 20
1.0000000000000000E+20
 30
1.0000000000000000E+20
  9
$PEXTMAX
 10
-1.0000000000000000E+20
 20
-1.0000000000000000E+20
 30
-1.0000000000000000E+20
  9
$PLIMMIN
 10
0.0
 20
0.0
  9
$PLIMMAX
 10
12.0
 20
9.0
  9
$UNITMODE
 70
     0
  9
$VISRETAIN
 70
     1
  9
$PLINEGEN
 70
     0
  9
$PSLTSCALE
 70
     1
  0
ENDSEC
  0
SECTION
  2
TABLES
  0
TABLE
  2
VPORT
 70
     1
  0
VPORT
  2
*ACTIVE
 70
     0
 10
0.0
 20
0.0
 11
1.0
 21
1.0
 12
428.614418843993974
 22
102.0624605382880929
 13
0.0
 23
0.0
 14
1.0
 24
1.0
 15
0.0
 25
0.0
 16
0.0
 26
0.0
 36
60.4960186965801583
 17
3911.3653564453120453
 27
132.5796051025390057
 37
0.0
 40
27.4400639474846706
 41
1.7926829268292681
 42
50.0
 43
0.0
 44
0.0
 50
0.0
 51
0.0
 71
     0
 72
   100
 73
     1
 74
     1
 75
     0
 76
     0
 77
     0
 78
     0
  0
ENDTAB
  0
TABLE
  2
LTYPE
 70
     2
  0
LTYPE
  2
CONTINUOUS
 70
     0
  3
Solid line
 72
    65
 73
     0
 40
0.0
  0
LTYPE
  2
PHANTOM2
 70
     0
  3
___ _ _ ___ _ _ ___ _ _ ___ _ _
 72
    65
 73
     6
 40
1.25
 49
0.625
 49
-0.125
 49
0.125
 49
-0.125
 49
0.125
 49
-0.125
  0
ENDTAB
  0
TABLE
  2
LAYER
 70
     2
  0
LAYER
  2
0
 70
     0
 62
   255
  6
CONTINUOUS
  0
LAYER
  2
DEFPOINTS
 70
     0
 62
     7
  6
CONTINUOUS
  0
ENDTAB
  0
TABLE
  2
STYLE
 70
     1
  0
STYLE
  2
STANDARD
 70
     0
 40
0.0
 41
0.8
 50
0.0
 71
     0
 42
0.2
  3
txt
  4

  0
ENDTAB
  0
TABLE
  2
VIEW
 70
     0
  0
ENDTAB
  0
TABLE
  2
UCS
 70
     0
  0
ENDTAB
  0
TABLE
  2
APPID
 70
    11
  0
APPID
  2
ACAD
 70
     0
  0
APPID
  2
ACAD_MLEADERVER
 70
     0
  0
APPID
  2
ACAD_EXEMPT_FROM_CAD_STANDARDS
 70
     0
  0
APPID
  2
ACAD_NAV_VCDISPLAY
 70
     0
  0
APPID
  2
ACAECLAYERSTANDARD
 70
     0
  0
APPID
  2
ACCMTRANSPARENCY
 70
     0
  0
APPID
  2
ACAD_DSTYLE_DIMJAG
 70
     0
  0
APPID
  2
ACAD_DSTYLE_DIMTALN
 70
     0
  0
APPID
  2
ACDBATTR
 70
     0
  0
APPID
  2
ACADANNOTATIVE
 70
     0
  0
APPID
  2
DCO15
 70
     0
  0
ENDTAB
  0
TABLE
  2
DIMSTYLE
 70
     1
  0
DIMSTYLE
  2
STANDARD
 70
     0
  3

  4

  5

  6

  7

 40
1.0
 41
0.1875
 42
0.0625
 43
0.38
 44
0.125
 45
0.0
 46
0.0
 47
0.01
 48
0.01
140
0.15625
141
0.09
142
0.0
143
25.3999999999999986
144
1.0
145
0.0
146
1.0
147
0.09
 71
     1
 72
     0
 73
     1
 74
     1
 75
     0
 76
     0
 77
     0
 78
     4
170
     0
171
     2
172
     0
173
     0
174
     0
175
     0
176
     0
177
     0
178
     0
  0
ENDTAB
  0
ENDSEC
  0
SECTION
  2
BLOCKS
  0
BLOCK
  8
0
  2
$MODEL_SPACE
 70
     0
 10
0.0
 20
0.0
 30
0.0
  3
$MODEL_SPACE
  1

  0
ENDBLK
  5
21
  8
0
  0
BLOCK
 67
     1
  8
0
  2
$PAPER_SPACE
 70
     0
 10
0.0
 20
0.0
 30
0.0
  3
$PAPER_SPACE
  1

  0
ENDBLK
  5
1D
 67
     1
  8
0
  0
ENDSEC
  0
SECTION
  2
ENTITIES
  0
LINE
  5
18615
  8
0
 10
4324.0859671938460451
 20
242.5133557977216014
 30
0.0
 11
4324.0859671938460451
 21
226.7653242999215877
 31
0.0
  0
LINE
  5
18616
  8
0
 10
4356.2906916033462039
 20
225.7810723317215036
 30
0.0
 11
4323.6922664064450146
 21
225.7810723317215036
 31
0.0
  0
LINE
  5
18617
  8
0
 10
4332.6210631387666581
 20
238.8274984887341077
 30
0.0
 11
4337.2056748727372906
 21
241.7402269274201103
 31
0.0
  0
LINE
  5
18618
  8
0
 10
4324.4796679798464538
 20
226.3716235128215999
 30
0.0
 11
4355.5032900287460507
 21
226.3716235128215999
 31
0.0
  0
LINE
  5
18619
  8
0
 10
4324.4796679809460329
 20
227.3558754813215046
 30
0.0
 11
4355.5032900285459618
 21
227.3558754813215046
 31
0.0
  0
LINE
  5
1861A
  8
0
 10
4331.9037671686992326
 20
235.6423949100708057
 30
0.0
 11
4337.0830397895506394
 21
227.4163520604288919
 31
0.0
  0
LINE
  5
1861B
  8
0
 10
4337.2670695560464083
 20
227.7495762687215972
 30
0.0
 11
4337.2670695560464083
 21
241.5291038278215865
 31
0.0
  0
LINE
  5
1861C
  8
0
 10
4337.3615577450473211
 20
241.5291038278215865
 30
0.0
 11
4337.3615577450473211
 21
227.7495762687215972
 31
0.0
  0
LINE
  5
1861D
  8
0
 10
4328.731966220438153
 20
238.8274868555901946
 30
0.0
 11
4324.1473544217951712
 21
241.7402151922815108
 31
0.0
  0
LINE
  5
1861E
  8
0
 10
4348.7349212517574415
 20
238.5261234920371862
 30
0.0
 11
4355.8632013241249297
 21
241.6886787923801023
 31
0.0
  0
LINE
  5
1861F
  8
0
 10
4345.6253372726459929
 20
241.9108046152215934
 30
0.0
 11
4345.6253372726459929
 21
241.9228046152215938
 31
0.0
  0
LINE
  5
18620
  8
0
 10
4344.523643462963264
 20
238.5261599079506141
 30
0.0
 11
4337.3953871335352233
 21
241.6887687464669909
 31
0.0
  0
LINE
  5
18621
  8
0
 10
4347.633211288345592
 20
241.9108046152215934
 30
0.0
 11
4347.633211288345592
 21
241.9228046152215938
 31
0.0
  0
LINE
  5
18622
  8
0
 10
4347.6062112883455484
 20
241.8838046152214929
 30
0.0
 11
4345.6523372726451271
 21
241.8838046152214929
 31
0.0
  0
LINE
  5
18623
  8
0
 10
4355.5032900287460507
 20
241.9228046152215938
 30
0.0
 11
4324.4796679815462994
 21
241.9228046152215938
 31
0.0
  0
LINE
  5
18624
  8
0
 10
4348.1716789562524355
 20
235.8812060023674064
 30
0.0
 11
4355.7668438471209811
 21
227.4571045697244926
 31
0.0
  0
LINE
  5
18625
  8
0
 10
4355.5032900299456742
 20
242.9070565837216122
 30
0.0
 11
4324.4796679810460773
 21
242.9070565837216122
 31
0.0
  0
LINE
  5
18626
  8
0
 10
4323.6922664064450146
 20
243.4976077648215949
 30
0.0
 11
4356.2906916033462039
 21
243.4976077648215949
 31
0.0
  0
LINE
  5
18627
  8
0
 10
4355.8969908159460829
 20
226.765324298821497
 30
0.0
 11
4355.8969908159460829
 21
242.513355796621596
 31
0.0
  0
ARC
  5
18628
  8
0
 10
4336.8733687686462872
 20
227.7495762687215972
 30
0.0
 40
0.3937007874
 50
270.0000001011979975
 51
0.0
  0
ARC
  5
18629
  8
0
 10
4337.7552585324456231
 20
227.7495762687215972
 30
0.0
 40
0.3937007874
 50
180.0000001011995892
 51
270.0
  0
ARC
  5
1862A
  8
0
 10
4324.4796679812461662
 20
226.7653243002214936
 30
0.0
 40
0.3937007874
 50
180.0000000196993142
 51
269.9999998973950142
  0
ARC
  5
1862B
  8
0
 10
4324.4796679812461662
 20
227.7495762687215972
 30
0.0
 40
0.3937007874
 50
180.0000001011995892
 51
270.0
  0
ARC
  5
1862C
  8
0
 10
4323.6922664064450146
 20
225.9779227254215925
 30
0.0
 40
0.1968503937
 50
180.0
 51
270.0
  0
CIRCLE
  5
1862D
  8
0
 10
4330.6765183749457719
 20
237.5920959538215982
 30
0.0
 40
1.9488188975999989
  0
ARC
  5
1862E
  8
0
 10
4336.8733687686462872
 20
241.5291038278215865
 30
0.0
 40
0.3937007874
 50
0.0000001011996522
 51
90.0
  0
ARC
  5
1862F
  8
0
 10
4337.7552585324456231
 20
241.5291038278215865
 30
0.0
 40
0.3937007874
 50
90.000000101198026
 51
180.0
  0
ARC
  5
18630
  8
0
 10
4324.4796679812461662
 20
241.5291038278215865
 30
0.0
 40
0.3937007874
 50
90.00000008358478
 51
180.0
  0
ARC
  5
18631
  8
0
 10
4324.4796679812461662
 20
242.5133557963214912
 30
0.0
 40
0.3937007874
 50
90.0000000196976373
 51
179.9999998973999027
  0
ARC
  5
18632
  8
0
 10
4323.6922664064450146
 20
243.3007573711215912
 30
0.0
 40
0.1968503937
 50
90.0
 51
180.0
  0
ARC
  5
18633
  8
0
 10
4355.5032900285459618
 20
226.7653243002214936
 30
0.0
 40
0.3937007874
 50
270.0000000196977226
 51
0.0
  0
ARC
  5
18634
  8
0
 10
4355.5032900285459618
 20
227.7495762687215972
 30
0.0
 40
0.3937007874
 50
270.0000001029176815
 51
0.0
  0
ARC
  5
18635
  8
0
 10
4356.2906916033462039
 20
225.9779227254215925
 30
0.0
 40
0.1968503937
 50
270.0
 51
0.0
  0
CIRCLE
  5
18636
  8
0
 10
4346.629274280446225
 20
237.5920959538215982
 30
0.0
 40
1.9488188975999989
  0
ARC
  5
18637
  8
0
 10
4355.5032900285459618
 20
242.5133557963214912
 30
0.0
 40
0.3937007874
 50
0.0
 51
89.9999998973949857
  0
ARC
  5
18638
  8
0
 10
4355.5032900285459618
 20
241.5291038278215865
 30
0.0
 40
0.3937007874
 50
0.0000001011996522
 51
90.0
  0
ARC
  5
18639
  8
0
 10
4356.2906916033462039
 20
243.3007573711215912
 30
0.0
 40
0.1968503937
 50
0.0
 51
90.0
  0
ARC
  5
1863A
  8
0
 10
4347.6062112883455484
 20
241.9108046152215934
 30
0.0
 40
0.027
 50
270.0
 51
0.0
  0
ARC
  5
1863B
  8
0
 10
4345.6523372726451271
 20
241.9108046152215934
 30
0.0
 40
0.027
 50
180.0
 51
270.0
  0
LINE
  5
1863C
  8
0
 10
4345.0868719308018626
 20
235.881203905284508
 30
0.0
 11
4337.4914519460999145
 21
227.4573325433821935
 31
0.0
  0
LINE
  5
1863D
  8
0
 10
4329.4492739752886337
 20
235.6423921441916889
 30
0.0
 11
4324.2698973075075628
 21
227.4164147846950073
 31
0.0
  0
CIRCLE
  5
1863E
  8
0
 10
4346.629274280446225
 20
237.5920959538215982
 30
0.0
 40
2.3035096287916579
  0
CIRCLE
  5
1863F
  8
0
 10
4330.6765183749457719
 20
237.5920959538215982
 30
0.0
 40
2.3037955121436391
  0
LINE
  5
18641
  8
0
 10
4356.4875419970458097
 20
225.9779227254215925
 30
0.0
 11
4356.4875419970458097
 21
243.3007573711215912
 31
0.0
  0
LINE
  5
18642
  8
0
 10
4323.4954160127463183
 20
225.9779227254215925
 30
0.0
 11
4323.4954160127463183
 21
243.3007573711215912
 31
0.0
  0
ATTDEF
  5
18643
  8
DEFPOINTS
 10
4339.9917923231605528
 20
234.6384073263423033
 30
0.0
 40
0.001
  1
K-72913T-F
  3

  2
MODELNUMBER
 70
     0
1001
ACDBATTR
1070
     0
1070
     1
  0
ATTDEF
  5
18644
  8
DEFPOINTS
 10
4339.9916665135042422
 20
234.6367404859630881
 30
0.0
 40
0.001
  1
MORAINE
  3

  2
TRADENAME
 70
     0
1001
ACDBATTR
1070
     0
1070
     1
  0
ATTDEF
  5
18645
  8
DEFPOINTS
 10
4339.9917923231605528
 20
234.6350739930090015
 30
0.0
 40
0.001
  1
KITCHEN SINK
  3

  2
PRODUCT
 70
     0
1001
ACDBATTR
1070
     0
1070
     1
  0
ENDSEC
  0
EOF
