  0
SECTION
  2
HEADER
  9
$ACADVER
  1
AC1009
  9
$INSBASE
 10
655.2214167298202483
 20
110.1041399083529058
 30
0.0
  9
$EXTMIN
 10
651.2048655864219882
 20
107.6902329463127046
 30
-0.0000000349181948
  9
$EXTMAX
 10
659.2521305862403551
 20
110.1181482884067009
 30
0.0000000814935746
  9
$LIMMIN
 10
0.0
 20
0.0
  9
$LIMMAX
 10
11.6929133858000007
 20
8.2677165353999982
  9
$ORTHOMODE
 70
     0
  9
$REGENMODE
 70
     1
  9
$FILLMODE
 70
     1
  9
$QTEXTMODE
 70
     0
  9
$MIRRTEXT
 70
     0
  9
$DRAGMODE
 70
     2
  9
$LTSCALE
 40
0.6431102362
  9
$OSMODE
 70
  4095
  9
$ATTMODE
 70
     1
  9
$TEXTSIZE
 40
0.2
  9
$TRACEWID
 40
0.05
  9
$TEXTSTYLE
  7
STANDARD
  9
$CLAYER
  8
0
  9
$CELTYPE
  6
BYLAYER
  9
$CECOLOR
 62
   256
  9
$DIMSCALE
 40
1.0
  9
$DIMASZ
 40
0.1875
  9
$DIMEXO
 40
0.0625
  9
$DIMDLI
 40
0.4443307087
  9
$DIMRND
 40
0.0
  9
$DIMDLE
 40
0.0
  9
$DIMEXE
 40
0.125
  9
$DIMTP
 40
0.01
  9
$DIMTM
 40
0.01
  9
$DIMTXT
 40
1.0
  9
$DIMCEN
 40
0.1052362205
  9
$DIMTSZ
 40
0.0
  9
$DIMTOL
 70
     1
  9
$DIMLIM
 70
     0
  9
$DIMTIH
 70
     0
  9
$DIMTOH
 70
     1
  9
$DIMSE1
 70
     0
  9
$DIMSE2
 70
     0
  9
$DIMTAD
 70
     0
  9
$DIMZIN
 70
     0
  9
$DIMBLK
  1

  9
$DIMASO
 70
     1
  9
$DIMSHO
 70
     1
  9
$DIMPOST
  1
\X
  9
$DIMAPOST
  1

  9
$DIMALT
 70
     1
  9
$DIMALTD
 70
     2
  9
$DIMALTF
 40
25.3999999999999986
  9
$DIMLFAC
 40
1.0
  9
$DIMTOFL
 70
     0
  9
$DIMTVP
 40
0.0
  9
$DIMTIX
 70
     0
  9
$DIMSOXD
 70
     0
  9
$DIMSAH
 70
     0
  9
$DIMBLK1
  1

  9
$DIMBLK2
  1

  9
$DIMSTYLE
  2
STANDARD
  9
$DIMCLRD
 70
     0
  9
$DIMCLRE
 70
     0
  9
$DIMCLRT
 70
     0
  9
$DIMTFAC
 40
1.0
  9
$DIMGAP
 40
0.09
  9
$LUNITS
 70
     2
  9
$LUPREC
 70
     4
  9
$SKETCHINC
 40
0.1
  9
$FILLETRAD
 40
0.0
  9
$AUNITS
 70
     0
  9
$AUPREC
 70
     0
  9
$MENU
  1
.
  9
$ELEVATION
 40
0.0
  9
$PELEVATION
 40
0.0
  9
$THICKNESS
 40
0.0
  9
$LIMCHECK
 70
     0
  9
$BLIPMODE
 70
     0
  9
$CHAMFERA
 40
0.0
  9
$CHAMFERB
 40
0.0
  9
$SKPOLY
 70
     0
  9
$TDCREATE
 40
2458172.5207638889551163
  9
$TDUPDATE
 40
2459100.4638425931334496
  9
$TDINDWG
 40
0.3677321991
  9
$TDUSRTIMER
 40
0.3677321991
  9
$USRTIMER
 70
     1
  9
$ANGBASE
 50
0.0
  9
$ANGDIR
 70
     0
  9
$PDMODE
 70
     0
  9
$PDSIZE
 40
0.3125
  9
$PLINEWID
 40
0.0
  9
$COORDS
 70
     1
  9
$SPLFRAME
 70
     0
  9
$SPLINETYPE
 70
     6
  9
$SPLINESEGS
 70
     8
  9
$ATTDIA
 70
     1
  9
$ATTREQ
 70
     1
  9
$HANDLING
 70
     1
  9
$HANDSEED
  5
A773
  9
$SURFTAB1
 70
     6
  9
$SURFTAB2
 70
     6
  9
$SURFTYPE
 70
     6
  9
$SURFU
 70
     6
  9
$SURFV
 70
     6
  9
$UCSNAME
  2

  9
$UCSORG
 10
0.0
 20
0.0
 30
0.0
  9
$UCSXDIR
 10
1.0
 20
0.0
 30
0.0
  9
$UCSYDIR
 10
0.0
 20
1.0
 30
0.0
  9
$PUCSNAME
  2

  9
$PUCSORG
 10
0.0
 20
0.0
 30
0.0
  9
$PUCSXDIR
 10
1.0
 20
0.0
 30
0.0
  9
$PUCSYDIR
 10
0.0
 20
1.0
 30
0.0
  9
$USERI1
 70
     0
  9
$USERI2
 70
     0
  9
$USERI3
 70
     0
  9
$USERI4
 70
     0
  9
$USERI5
 70
     0
  9
$USERR1
 40
0.0
  9
$USERR2
 40
0.0
  9
$USERR3
 40
0.0
  9
$USERR4
 40
0.0
  9
$USERR5
 40
0.0
  9
$WORLDVIEW
 70
     1
  9
$SHADEDGE
 70
     3
  9
$SHADEDIF
 70
    70
  9
$TILEMODE
 70
     1
  9
$MAXACTVP
 70
    64
  9
$PLIMCHECK
 70
     0
  9
$PEXTMIN
 10
1.0000000000000000E+20
 20
1.0000000000000000E+20
 30
1.0000000000000000E+20
  9
$PEXTMAX
 10
-1.0000000000000000E+20
 20
-1.0000000000000000E+20
 30
-1.0000000000000000E+20
  9
$PLIMMIN
 10
0.0
 20
0.0
  9
$PLIMMAX
 10
12.0
 20
9.0
  9
$UNITMODE
 70
     0
  9
$VISRETAIN
 70
     1
  9
$PLINEGEN
 70
     0
  9
$PSLTSCALE
 70
     1
  0
ENDSEC
  0
SECTION
  2
TABLES
  0
TABLE
  2
VPORT
 70
     1
  0
VPORT
  2
*ACTIVE
 70
     0
 10
0.0
 20
0.0
 11
1.0
 21
1.0
 12
188.4862963785010948
 22
19.7710434974299289
 13
0.0
 23
0.0
 14
1.0
 24
1.0
 15
0.0
 25
0.0
 16
0.0
 26
0.0
 36
24.1179433675886514
 17
466.74220170783002
 27
89.133147119929788
 37
0.0
 40
4.0425887280316131
 41
1.9968652037617549
 42
50.0
 43
0.0
 44
0.0
 50
0.0
 51
0.0
 71
     0
 72
   100
 73
     1
 74
     1
 75
     0
 76
     0
 77
     0
 78
     0
  0
ENDTAB
  0
TABLE
  2
LTYPE
 70
     2
  0
LTYPE
  2
CONTINUOUS
 70
     0
  3
Solid line
 72
    65
 73
     0
 40
0.0
  0
LTYPE
  2
PHANTOM2
 70
     0
  3
___ _ _ ___ _ _ ___ _ _ ___ _ _
 72
    65
 73
     6
 40
1.25
 49
0.625
 49
-0.125
 49
0.125
 49
-0.125
 49
0.125
 49
-0.125
  0
ENDTAB
  0
TABLE
  2
LAYER
 70
     2
  0
LAYER
  2
0
 70
     0
 62
   255
  6
CONTINUOUS
  0
LAYER
  2
DEFPOINTS
 70
     0
 62
     7
  6
CONTINUOUS
  0
ENDTAB
  0
TABLE
  2
STYLE
 70
     1
  0
STYLE
  2
STANDARD
 70
     0
 40
0.0
 41
0.8
 50
0.0
 71
     0
 42
0.2
  3
txt
  4

  0
ENDTAB
  0
TABLE
  2
VIEW
 70
     0
  0
ENDTAB
  0
TABLE
  2
UCS
 70
     0
  0
ENDTAB
  0
TABLE
  2
APPID
 70
    11
  0
APPID
  2
ACAD
 70
     0
  0
APPID
  2
ACAD_MLEADERVER
 70
     0
  0
APPID
  2
ACAD_EXEMPT_FROM_CAD_STANDARDS
 70
     0
  0
APPID
  2
ACAD_DSTYLE_DIMJAG
 70
     0
  0
APPID
  2
ACAD_DSTYLE_DIMTALN
 70
     0
  0
APPID
  2
ACAD_NAV_VCDISPLAY
 70
     0
  0
APPID
  2
ACAECLAYERSTANDARD
 70
     0
  0
APPID
  2
ACCMTRANSPARENCY
 70
     0
  0
APPID
  2
DCO15
 70
     0
  0
APPID
  2
ACDBATTR
 70
     0
  0
APPID
  2
ACADANNOTATIVE
 70
     0
  0
ENDTAB
  0
TABLE
  2
DIMSTYLE
 70
     1
  0
DIMSTYLE
  2
STANDARD
 70
     0
  3

  4

  5

  6

  7

 40
1.0
 41
0.1875
 42
0.0625
 43
0.38
 44
0.125
 45
0.0
 46
0.0
 47
0.01
 48
0.01
140
0.15625
141
0.09
142
0.0
143
25.3999999999999986
144
1.0
145
0.0
146
1.0
147
0.09
 71
     1
 72
     0
 73
     1
 74
     1
 75
     0
 76
     0
 77
     0
 78
     4
170
     0
171
     2
172
     0
173
     0
174
     0
175
     0
176
     0
177
     0
178
     0
  0
ENDTAB
  0
ENDSEC
  0
SECTION
  2
BLOCKS
  0
BLOCK
  8
0
  2
$MODEL_SPACE
 70
     0
 10
0.0
 20
0.0
 30
0.0
  3
$MODEL_SPACE
  1

  0
ENDBLK
  5
21
  8
0
  0
BLOCK
 67
     1
  8
0
  2
$PAPER_SPACE
 70
     0
 10
0.0
 20
0.0
 30
0.0
  3
$PAPER_SPACE
  1

  0
ENDBLK
  5
1D
 67
     1
  8
0
  0
ENDSEC
  0
SECTION
  2
ENTITIES
  0
ATTDEF
  5
829
  8
DEFPOINTS
 10
655.2181949717263478
 20
110.108914585584003
 30
0.0
 40
0.001
  1
K-73037T-CL
  3

  2
MODELNUMBER
 70
     0
1001
ACDBATTR
1070
     0
1070
     1
  0
ATTDEF
  5
82A
  8
DEFPOINTS
 10
655.2181949717263478
 20
110.1072479189173947
 30
0.0
 40
0.001
  1
CONTEMPORARY 
  3

  2
TRADENAME
 70
     0
1001
ACDBATTR
1070
     0
1070
     1
  0
ATTDEF
  5
82B
  8
DEFPOINTS
 10
655.2181949717263478
 20
110.1055812522507011
 30
0.0
 40
0.001
  1
SHOWERHEAD
  3

  2
PRODUCT
 70
     0
1001
ACDBATTR
1070
     0
1070
     1
  0
LINE
  5
A510
  8
0
 10
655.9103931077702327
 20
109.1277619555528986
 30
0.0
 11
654.5324403518701502
 21
109.1277619555528986
 31
0.0
  0
LINE
  5
A511
  8
0
 10
655.6974797219702396
 20
110.1041399083529058
 30
0.0
 11
654.745353737670257
 21
110.1041399083529058
 31
0.0
  0
LINE
  5
A512
  8
0
 10
659.2155341910702191
 20
107.7576832154529001
 30
0.0
 11
651.2273341910700992
 21
107.7576832154529001
 31
0.0
  0
ARC
  5
A513
  8
0
 10
651.2273341910700992
 20
107.763583215452897
 30
0.0
 40
0.0058999999999996
 50
180.0
 51
270.0
  0
LINE
  5
A514
  8
0
 10
651.221434191070216
 20
107.763583215452897
 30
0.0
 11
651.221434191070216
 21
107.8462714043529047
 31
0.0
  0
ARC
  5
A515
  8
0
 10
651.2273341910700992
 20
107.8462714043529047
 30
0.0
 40
0.0059
 50
90.0
 51
180.0
  0
LINE
  5
A516
  8
0
 10
651.2273341910700992
 20
107.8521714043529016
 30
0.0
 11
659.2155341910702191
 21
107.8521714043529016
 31
0.0
  0
ARC
  5
A517
  8
0
 10
659.2155341910702191
 20
107.8462714043529047
 30
0.0
 40
0.0058999999999996
 50
0.0
 51
90.0
  0
LINE
  5
A518
  8
0
 10
659.221434191070216
 20
107.8462714043529047
 30
0.0
 11
659.221434191070216
 21
107.763583215452897
 31
0.0
  0
ARC
  5
A519
  8
0
 10
659.2155341910702191
 20
107.763583215452897
 30
0.0
 40
0.0059000000000005
 50
270.0
 51
0.0
  0
LINE
  5
A51A
  8
0
 10
651.9303349335662006
 20
107.7072885699573987
 30
0.0
 11
651.9249270586595912
 21
107.7576832154529001
 31
0.0
  0
ARC
  5
A51B
  8
0
 10
651.9381898362828451
 20
107.7081314835423029
 30
0.0
 40
0.0079
 50
186.1249999516709863
 51
268.0029716614201902
  0
LINE
  5
A51C
  8
0
 10
651.937914539745293
 20
107.7002362817199952
 30
0.0
 11
652.0296248376913582
 21
107.6970384499171018
 31
0.0
  0
LINE
  5
A51D
  8
0
 10
652.0716171641148549
 20
107.7072781389860978
 30
0.0
 11
652.0661690924248433
 21
107.7576832154529001
 31
0.0
  0
LINE
  5
A51E
  8
0
 10
652.1899261524253006
 20
107.7576832154529001
 30
0.0
 11
652.1793308555063504
 21
107.7034066378400041
 31
0.0
  0
ARC
  5
A51F
  8
0
 10
652.1715772072733444
 20
107.7049202226834979
 30
0.0
 40
0.0079
 50
268.0059369532980895
 51
348.9542344688441062
  0
LINE
  5
A520
  8
0
 10
652.079196530605941
 20
107.7002318560925005
 30
0.0
 11
652.171302319345159
 21
107.6970250066240027
 31
0.0
  0
ARC
  5
A521
  8
0
 10
652.0794714185337853
 20
107.7081270721520951
 30
0.0
 40
0.0079
 50
186.1689102097612931
 51
268.0059369532980895
  0
LINE
  5
A522
  8
0
 10
652.3426170026102682
 20
107.7576832154529001
 30
0.0
 11
652.3482236534121057
 21
107.7068910443951069
 31
0.0
  0
LINE
  5
A523
  8
0
 10
652.4654208218103122
 20
107.7576832154529001
 30
0.0
 11
652.4559141922642311
 21
107.7035088221199999
 31
0.0
  0
ARC
  5
A524
  8
0
 10
652.4481330892247115
 20
107.7048742654503997
 30
0.0
 40
0.0079
 50
268.2058837692327984
 51
350.0469621279186185
  0
LINE
  5
A525
  8
0
 10
652.3558286252756488
 20
107.699861687277604
 30
0.0
 11
652.4478857550890325
 21
107.6969781381828
 31
0.0
  0
ARC
  5
A526
  8
0
 10
652.3560759594114415
 20
107.7077578145452037
 30
0.0
 40
0.0079
 50
186.2990448079482917
 51
268.2058837692327984
  0
POLYLINE
  5
A527
  8
0
 66
     1
 10
0.0
 20
0.0
 30
0.0
  0
VERTEX
  5
A76C
  8
0
 10
651.6117325624238674
 20
107.8732800850015963
 30
0.0
  0
VERTEX
  5
A76D
  8
0
 10
652.0523030861204461
 20
108.025326787061303
 30
0.0
 42
-0.0832703434267261
  0
VERTEX
  5
A76E
  8
0
 10
652.1935941508589849
 20
108.0490217980529053
 30
0.0
  0
VERTEX
  5
A76F
  8
0
 10
658.2492742311121674
 20
108.0490217980529053
 30
0.0
 42
-0.0832703433612955
  0
VERTEX
  5
A770
  8
0
 10
658.390565295744409
 20
108.0253267870980949
 30
0.0
  0
VERTEX
  5
A771
  8
0
 10
658.8311358197702248
 20
107.8732800850528974
 30
0.0
  0
SEQEND
  5
A772
  8
0
  0
ARC
  5
A528
  8
0
 10
651.4858635369622561
 20
108.2379981719623032
 30
0.0
 40
0.3858267675095783
 50
270.0000000295985956
 51
289.0402300763923904
  0
ARC
  5
A529
  8
0
 10
658.9570048449786555
 20
108.2379981695686979
 30
0.0
 40
0.3858267651159985
 50
250.9597698406772963
 51
270.0000000295985956
  0
ARC
  5
A52A
  8
0
 10
654.5488110031442375
 20
108.4459715721090021
 30
0.0
 40
0.7489643715480426
 50
266.1530658921827239
 51
273.2668415935905273
  0
ARC
  5
A52B
  8
0
 10
654.5436578026257166
 20
107.3119762456351935
 30
0.0
 40
0.3875905218276245
 50
85.8041627657487851
 51
93.779483082360386
  0
ARC
  5
A52C
  8
0
 10
654.5464547338877992
 20
108.0817615401729057
 30
0.0
 40
0.3840851128602681
 50
265.7677091147061219
 51
273.8159367334034187
  0
LINE
  5
A52D
  8
0
 10
654.5989512036704809
 20
107.7050510472778058
 30
0.0
 11
654.6066660663257153
 21
107.7576832154529001
 31
0.0
  0
LINE
  5
A52E
  8
0
 10
654.4911751145057224
 20
107.7055742765225972
 30
0.0
 11
654.4839251282255645
 21
107.7576832154529001
 31
0.0
  0
LINE
  5
A52F
  8
0
 10
654.6078064709752198
 20
107.7054693791912996
 30
0.0
 11
654.615449707338712
 21
107.7576832154529001
 31
0.0
  0
ARC
  5
A530
  8
0
 10
654.5910357867410312
 20
107.7062112950233939
 30
0.0
 40
0.008
 50
273.2668415935643793
 51
351.6609275078072869
  0
ARC
  5
A531
  8
0
 10
654.4990987907010549
 20
107.7066767081761043
 30
0.0
 40
0.008
 50
187.9207905453486092
 51
266.1530658922022212
  0
ARC
  5
A532
  8
0
 10
654.5998908299743562
 20
107.7066280972529029
 30
0.0
 40
0.008
 50
270.0
 51
351.6719999755306958
  0
LINE
  5
A533
  8
0
 10
654.0211512034338739
 20
107.7054693791912996
 30
0.0
 11
654.0287944397975934
 21
107.7576832154529001
 31
0.0
  0
LINE
  5
A534
  8
0
 10
654.013235562433124
 20
107.6986280972528931
 30
0.0
 11
653.9455147126410566
 21
107.6986280972528931
 31
0.0
  0
ARC
  5
A535
  8
0
 10
654.013235562433124
 20
107.7066280972529029
 30
0.0
 40
0.008
 50
270.0
 51
351.6719999755306958
  0
ARC
  5
A536
  8
0
 10
653.900741378167254
 20
108.4459715721090021
 30
0.0
 40
0.7489643715480426
 50
266.1530658921827239
 51
273.2668415935905273
  0
ARC
  5
A537
  8
0
 10
653.8955881776488468
 20
107.3119762456351935
 30
0.0
 40
0.3875905218276245
 50
85.8041627657487851
 51
93.779483082360386
  0
ARC
  5
A538
  8
0
 10
653.8983851089110431
 20
108.0817615401729057
 30
0.0
 40
0.3840851128602681
 50
265.7677091147061219
 51
273.8159367334034187
  0
LINE
  5
A539
  8
0
 10
653.9508815786937248
 20
107.7050510472778058
 30
0.0
 11
653.9585964413488455
 21
107.7576832154529001
 31
0.0
  0
LINE
  5
A53A
  8
0
 10
653.8431054895289662
 20
107.7055742765225972
 30
0.0
 11
653.8358555032488084
 21
107.7576832154529001
 31
0.0
  0
ARC
  5
A53B
  8
0
 10
653.9429661617640477
 20
107.7062112950233939
 30
0.0
 40
0.008
 50
273.2668415935643793
 51
351.6609275078072869
  0
ARC
  5
A53C
  8
0
 10
653.8510291657241851
 20
107.7066767081761043
 30
0.0
 40
0.008
 50
187.9207905453486092
 51
266.1530658922022212
  0
ARC
  5
A53D
  8
0
 10
653.3120479149796438
 20
108.4459715721090021
 30
0.0
 40
0.7489643715480426
 50
266.1530658921827239
 51
273.2668415935905273
  0
ARC
  5
A53E
  8
0
 10
653.3068947144611229
 20
107.3119762456351935
 30
0.0
 40
0.3875905218276245
 50
85.8041627657487851
 51
93.779483082360386
  0
ARC
  5
A53F
  8
0
 10
653.3096916457233192
 20
108.0817615401729057
 30
0.0
 40
0.3840851128602681
 50
265.7677091147061219
 51
273.8159367334034187
  0
LINE
  5
A540
  8
0
 10
653.3621881155060009
 20
107.7050510472778058
 30
0.0
 11
653.3699029781611216
 21
107.7576832154529001
 31
0.0
  0
LINE
  5
A541
  8
0
 10
653.2544120263412424
 20
107.7055742765225972
 30
0.0
 11
653.2471620400610846
 21
107.7576832154529001
 31
0.0
  0
LINE
  5
A542
  8
0
 10
653.4348830380563413
 20
107.7054693791912996
 30
0.0
 11
653.4425262744199472
 21
107.7576832154529001
 31
0.0
  0
LINE
  5
A543
  8
0
 10
653.4269673970554777
 20
107.6986280972528931
 30
0.0
 11
653.3568212494534464
 21
107.6986280972528931
 31
0.0
  0
ARC
  5
A544
  8
0
 10
653.3542726985764375
 20
107.7062112950233939
 30
0.0
 40
0.008
 50
273.2668415935643793
 51
351.6609275078072869
  0
ARC
  5
A545
  8
0
 10
653.2623357025364612
 20
107.7066767081761043
 30
0.0
 40
0.008
 50
187.9207905453486092
 51
266.1530658922022212
  0
ARC
  5
A546
  8
0
 10
653.4269673970554777
 20
107.7066280972529029
 30
0.0
 40
0.008
 50
270.0
 51
351.6719999755306958
  0
ARC
  5
A547
  8
0
 10
652.8078581497163668
 20
108.4459715721090021
 30
0.0
 40
0.7489643715480426
 50
266.1530658921827239
 51
273.2668415935905273
  0
ARC
  5
A548
  8
0
 10
652.802704949197846
 20
107.3119762456351935
 30
0.0
 40
0.3875905218276245
 50
85.8041627657487851
 51
93.779483082360386
  0
ARC
  5
A549
  8
0
 10
652.8055018804600422
 20
108.0817615401729057
 30
0.0
 40
0.3840851128602681
 50
265.7677091147061219
 51
273.8159367334034187
  0
LINE
  5
A54A
  8
0
 10
652.857998350242724
 20
107.7050510472778058
 30
0.0
 11
652.8657132128978446
 21
107.7576832154529001
 31
0.0
  0
LINE
  5
A54B
  8
0
 10
652.7502222610778517
 20
107.7055742765225972
 30
0.0
 11
652.7429722747979213
 21
107.7576832154529001
 31
0.0
  0
LINE
  5
A54C
  8
0
 10
652.7530036265717399
 20
107.6986280972528931
 30
0.0
 11
652.6609466239253834
 21
107.6986280972528931
 31
0.0
  0
ARC
  5
A54D
  8
0
 10
652.8500829333131605
 20
107.7062112950233939
 30
0.0
 40
0.008
 50
273.2668415935643793
 51
351.6609275078072869
  0
ARC
  5
A54E
  8
0
 10
652.7581459372732979
 20
107.7066767081761043
 30
0.0
 40
0.008
 50
187.9207905453486092
 51
266.1530658922022212
  0
ARC
  5
A54F
  8
0
 10
652.7530036265717399
 20
107.7066280972529029
 30
0.0
 40
0.008
 50
270.0
 51
289.2897514865654784
  0
LINE
  5
A550
  8
0
 10
652.6530108692561498
 20
107.7056162683007017
 30
0.0
 11
652.6463722007523529
 21
107.7576832154529001
 31
0.0
  0
ARC
  5
A551
  8
0
 10
652.6609466239253834
 20
107.7066280972529029
 30
0.0
 40
0.008
 50
187.2661521827770059
 51
269.9999999999935199
  0
ARC
  5
A552
  8
0
 10
652.8729209426827538
 20
95.827162846310685
 30
0.0
 40
11.8716230528088094
 50
89.3244084498751363
 51
89.7754574752640337
  0
LINE
  5
A553
  8
0
 10
652.9120588435844184
 20
107.7055742765225972
 30
0.0
 11
652.9048088573041468
 21
107.7576832154529001
 31
0.0
  0
ARC
  5
A554
  8
0
 10
652.9199825197797509
 20
107.7066767081761043
 30
0.0
 40
0.008
 50
187.9207905453486092
 51
266.1530658922022212
  0
LINE
  5
A555
  8
0
 10
653.2627999664107392
 20
107.6986280972528931
 30
0.0
 11
653.2537239578138042
 21
107.6986280972528931
 31
0.0
  0
LINE
  5
A556
  8
0
 10
653.2458083168127132
 20
107.7054693791934028
 30
0.0
 11
653.2381650804632045
 21
107.7576832154529001
 31
0.0
  0
ARC
  5
A557
  8
0
 10
653.2537239578138042
 20
107.7066280972529029
 30
0.0
 40
0.008
 50
188.3280000096443132
 51
270.0
  0
LINE
  5
A558
  8
0
 10
653.5771456144060494
 20
107.6986280972528931
 30
0.0
 11
653.4851078552069339
 21
107.6986280972528931
 31
0.0
  0
LINE
  5
A559
  8
0
 10
653.4771922142058429
 20
107.7054693791934028
 30
0.0
 11
653.4695489778563342
 21
107.7576832154529001
 31
0.0
  0
LINE
  5
A55A
  8
0
 10
653.5927044919377522
 20
107.7576832154529001
 30
0.0
 11
653.585061255403275
 21
107.7054693791665017
 31
0.0
  0
ARC
  5
A55B
  8
0
 10
653.5771456144060494
 20
107.7066280972529029
 30
0.0
 40
0.008
 50
270.0
 51
351.6719997957856094
  0
ARC
  5
A55C
  8
0
 10
653.4851078552069339
 20
107.7066280972529029
 30
0.0
 40
0.008
 50
188.3280000096443132
 51
270.0
  0
LINE
  5
A55D
  8
0
 10
654.1414049836084814
 20
107.6986280972528931
 30
0.0
 11
654.0493672244092522
 21
107.6986280972528931
 31
0.0
  0
LINE
  5
A55E
  8
0
 10
654.0414515834082749
 20
107.7054693791934028
 30
0.0
 11
654.0338083470586525
 21
107.7576832154529001
 31
0.0
  0
LINE
  5
A55F
  8
0
 10
654.1569638611400705
 20
107.7576832154529001
 30
0.0
 11
654.1493206246057071
 21
107.7054693791665017
 31
0.0
  0
ARC
  5
A560
  8
0
 10
654.1414049836084814
 20
107.7066280972529029
 30
0.0
 40
0.008
 50
270.0
 51
351.6719997957856094
  0
ARC
  5
A561
  8
0
 10
654.0493672244092522
 20
107.7066280972529029
 30
0.0
 40
0.008
 50
188.3280000096443132
 51
270.0
  0
ARC
  5
A562
  8
0
 10
655.2251187554521721
 20
108.4459715721090021
 30
0.0
 40
0.7489643715480426
 50
266.1530658921827239
 51
273.2668415935905273
  0
ARC
  5
A563
  8
0
 10
655.2199655549336512
 20
107.3119762456351935
 30
0.0
 40
0.3875905218276245
 50
85.8041627657487851
 51
93.779483082360386
  0
ARC
  5
A564
  8
0
 10
655.2227624861958475
 20
108.0817615401729057
 30
0.0
 40
0.3840851128602681
 50
265.7677091147061219
 51
273.8159367334034187
  0
LINE
  5
A565
  8
0
 10
655.2752589559785292
 20
107.7050510472778058
 30
0.0
 11
655.2829738186336499
 21
107.7576832154529001
 31
0.0
  0
LINE
  5
A566
  8
0
 10
655.167482866813657
 20
107.7055742765225972
 30
0.0
 11
655.1602328805336128
 21
107.7576832154529001
 31
0.0
  0
ARC
  5
A567
  8
0
 10
655.2673435390488521
 20
107.7062112950233939
 30
0.0
 40
0.008
 50
273.2668415935643793
 51
351.6609275078072869
  0
ARC
  5
A568
  8
0
 10
655.1754065430091032
 20
107.7066767081761043
 30
0.0
 40
0.008
 50
187.9207905453486092
 51
266.1530658922022212
  0
LINE
  5
A569
  8
0
 10
652.0376773680094402
 20
107.7035463396895949
 30
0.0
 11
652.0473343671701514
 21
107.7576832154529001
 31
0.0
  0
ARC
  5
A56A
  8
0
 10
652.0299001342289102
 20
107.7049336517394948
 30
0.0
 40
0.0079
 50
268.0029716614462814
 51
349.8858929185421971
  0
LINE
  5
A56B
  8
0
 10
652.6609466239253834
 20
107.6986280972528931
 30
0.0
 11
652.5718994191307729
 21
107.6986280972528931
 31
0.0
  0
LINE
  5
A56C
  8
0
 10
652.5639636644614257
 20
107.7056162683007017
 30
0.0
 11
652.5573249959577424
 21
107.7576832154529001
 31
0.0
  0
ARC
  5
A56D
  8
0
 10
652.5718994191307729
 20
107.7066280972529029
 30
0.0
 40
0.008
 50
187.2661521827770059
 51
269.9999999999935199
  0
LINE
  5
A56E
  8
0
 10
653.0207932855146282
 20
107.7046108499726955
 30
0.0
 11
653.0292925458702484
 21
107.7576832154529001
 31
0.0
  0
ARC
  5
A56F
  8
0
 10
653.0129926807447873
 20
107.7058600758224998
 30
0.0
 40
0.0079
 50
269.3244084498882103
 51
350.901637077743203
  0
LINE
  5
A570
  8
0
 10
654.6249423521153403
 20
107.7054693791912996
 30
0.0
 11
654.6325855884789462
 21
107.7576832154529001
 31
0.0
  0
ARC
  5
A571
  8
0
 10
654.6170267111144767
 20
107.7066280972529029
 30
0.0
 40
0.008
 50
270.0
 51
351.6719999755306958
  0
LINE
  5
A572
  8
0
 10
654.7123066003177883
 20
107.7054693791912996
 30
0.0
 11
654.7199498366815078
 21
107.7576832154529001
 31
0.0
  0
LINE
  5
A573
  8
0
 10
654.7043909593170383
 20
107.6986280972528931
 30
0.0
 11
654.5935843376179264
 21
107.6986280972527936
 31
0.0
  0
ARC
  5
A574
  8
0
 10
654.7043909593170383
 20
107.7066280972529029
 30
0.0
 40
0.008
 50
270.0
 51
351.6719999755306958
  0
LINE
  5
A575
  8
0
 10
653.9737987005722744
 20
107.7054693791912996
 30
0.0
 11
653.9814419369356528
 21
107.7576832154529001
 31
0.0
  0
ARC
  5
A576
  8
0
 10
653.9658830595714107
 20
107.7066280972529029
 30
0.0
 40
0.008
 50
270.0
 51
351.6719999755306958
  0
LINE
  5
A577
  8
0
 10
658.5124985260740686
 20
107.7072885699573987
 30
0.0
 11
658.5179064009809053
 21
107.7576832154529001
 31
0.0
  0
ARC
  5
A578
  8
0
 10
658.5046436233575378
 20
107.7081314835423029
 30
0.0
 40
0.0079
 50
271.9970283385796961
 51
353.8750000483290137
  0
LINE
  5
A579
  8
0
 10
658.5049189198950899
 20
107.7002362817199952
 30
0.0
 11
658.4132086219490247
 21
107.6970384499171018
 31
0.0
  0
LINE
  5
A57A
  8
0
 10
658.3712162955256417
 20
107.7072781389860978
 30
0.0
 11
658.3766643672156533
 21
107.7576832154529001
 31
0.0
  0
LINE
  5
A57B
  8
0
 10
658.2529073072150823
 20
107.7576832154529001
 30
0.0
 11
658.2635026041341462
 21
107.7034066378400041
 31
0.0
  0
ARC
  5
A57C
  8
0
 10
658.2712562523671522
 20
107.7049202226834979
 30
0.0
 40
0.0079
 50
191.0457655311558085
 51
271.9940630466953166
  0
LINE
  5
A57D
  8
0
 10
658.3636369290345556
 20
107.7002318560925005
 30
0.0
 11
658.2715311402949965
 21
107.6970250066240027
 31
0.0
  0
ARC
  5
A57E
  8
0
 10
658.3633620411065976
 20
107.7081270721520951
 30
0.0
 40
0.0079
 50
271.9940630466953166
 51
353.8310897902388206
  0
LINE
  5
A57F
  8
0
 10
658.1002164570302284
 20
107.7576832154529001
 30
0.0
 11
658.0946098062283909
 21
107.7068910443951069
 31
0.0
  0
LINE
  5
A580
  8
0
 10
657.9774126378301844
 20
107.7576832154529001
 30
0.0
 11
657.9869192673761518
 21
107.7035088221199999
 31
0.0
  0
ARC
  5
A581
  8
0
 10
657.9947003704156714
 20
107.7048742654503997
 30
0.0
 40
0.0079
 50
189.9530378720814099
 51
271.7941162307670879
  0
LINE
  5
A582
  8
0
 10
658.0870048343647341
 20
107.699861687277604
 30
0.0
 11
657.9949477045513504
 21
107.6969781381828
 31
0.0
  0
ARC
  5
A583
  8
0
 10
658.086757500229055
 20
107.7077578145452037
 30
0.0
 40
0.0079
 50
271.7941162307670879
 51
353.7009551920517083
  0
ARC
  5
A584
  8
0
 10
655.8940224564961454
 20
108.4459715721090021
 30
0.0
 40
0.7489643715480426
 50
266.7331584064094727
 51
273.8469341078172761
  0
ARC
  5
A585
  8
0
 10
655.8991756570146663
 20
107.3119762456351935
 30
0.0
 40
0.3875905218276245
 50
86.220516917639614
 51
94.1958372342512007
  0
ARC
  5
A586
  8
0
 10
655.8963787257525837
 20
108.0817615401729057
 30
0.0
 40
0.3840851128602681
 50
266.1840632665965813
 51
274.2322908852938781
  0
LINE
  5
A587
  8
0
 10
655.843882255969902
 20
107.7050510472778058
 30
0.0
 11
655.8361673933147813
 21
107.7576832154529001
 31
0.0
  0
LINE
  5
A588
  8
0
 10
655.9516583451346605
 20
107.7055742765225972
 30
0.0
 11
655.9589083314148183
 21
107.7576832154529001
 31
0.0
  0
LINE
  5
A589
  8
0
 10
655.8350269886651631
 20
107.7054693791912996
 30
0.0
 11
655.8273837523015573
 21
107.7576832154529001
 31
0.0
  0
ARC
  5
A58A
  8
0
 10
655.8517976728993517
 20
107.7062112950233939
 30
0.0
 40
0.008
 50
188.3390724921927131
 51
266.7331584064290269
  0
ARC
  5
A58B
  8
0
 10
655.943734668939328
 20
107.7066767081761043
 30
0.0
 40
0.008
 50
273.8469341077977219
 51
352.0792094546513908
  0
ARC
  5
A58C
  8
0
 10
655.8429426296661404
 20
107.7066280972529029
 30
0.0
 40
0.008
 50
188.3280000244691905
 51
270.0
  0
LINE
  5
A58D
  8
0
 10
656.421682256206509
 20
107.7054693791912996
 30
0.0
 11
656.4140390198429031
 21
107.7576832154529001
 31
0.0
  0
LINE
  5
A58E
  8
0
 10
656.4295978972071453
 20
107.6986280972528931
 30
0.0
 11
656.4973187469993263
 21
107.6986280972528931
 31
0.0
  0
ARC
  5
A58F
  8
0
 10
656.4295978972071453
 20
107.7066280972529029
 30
0.0
 40
0.008
 50
188.3280000244691905
 51
270.0
  0
ARC
  5
A590
  8
0
 10
656.5420920814731289
 20
108.4459715721090021
 30
0.0
 40
0.7489643715480426
 50
266.7331584064094727
 51
273.8469341078172761
  0
ARC
  5
A591
  8
0
 10
656.5472452819916498
 20
107.3119762456351935
 30
0.0
 40
0.3875905218276245
 50
86.220516917639614
 51
94.1958372342512007
  0
ARC
  5
A592
  8
0
 10
656.5444483507294535
 20
108.0817615401729057
 30
0.0
 40
0.3840851128602681
 50
266.1840632665965813
 51
274.2322908852938781
  0
LINE
  5
A593
  8
0
 10
656.4919518809467718
 20
107.7050510472778058
 30
0.0
 11
656.4842370182916511
 21
107.7576832154529001
 31
0.0
  0
LINE
  5
A594
  8
0
 10
656.5997279701115303
 20
107.7055742765225972
 30
0.0
 11
656.6069779563915745
 21
107.7576832154529001
 31
0.0
  0
ARC
  5
A595
  8
0
 10
656.4998672978763352
 20
107.7062112950233939
 30
0.0
 40
0.008
 50
188.3390724921927131
 51
266.7331584064290269
  0
ARC
  5
A596
  8
0
 10
656.5918042939159704
 20
107.7066767081761043
 30
0.0
 40
0.008
 50
273.8469341077977219
 51
352.0792094546513908
  0
ARC
  5
A597
  8
0
 10
657.1307855446608528
 20
108.4459715721090021
 30
0.0
 40
0.7489643715480426
 50
266.7331584064094727
 51
273.8469341078172761
  0
ARC
  5
A598
  8
0
 10
657.13593874517926
 20
107.3119762456351935
 30
0.0
 40
0.3875905218276245
 50
86.220516917639614
 51
94.1958372342512007
  0
ARC
  5
A599
  8
0
 10
657.1331418139170637
 20
108.0817615401729057
 30
0.0
 40
0.3840851128602681
 50
266.1840632665965813
 51
274.2322908852938781
  0
LINE
  5
A59A
  8
0
 10
657.0806453441344956
 20
107.7050510472778058
 30
0.0
 11
657.0729304814792613
 21
107.7576832154529001
 31
0.0
  0
LINE
  5
A59B
  8
0
 10
657.1884214332992542
 20
107.7055742765225972
 30
0.0
 11
657.1956714195792983
 21
107.7576832154529001
 31
0.0
  0
LINE
  5
A59C
  8
0
 10
657.0079504215840416
 20
107.7054693791912996
 30
0.0
 11
657.0003071852205494
 21
107.7576832154529001
 31
0.0
  0
LINE
  5
A59D
  8
0
 10
657.0158660625849052
 20
107.6986280972528931
 30
0.0
 11
657.0860122101870502
 21
107.6986280972528931
 31
0.0
  0
ARC
  5
A59E
  8
0
 10
657.0885607610639454
 20
107.7062112950233939
 30
0.0
 40
0.008
 50
188.3390724921927131
 51
266.7331584064356207
  0
ARC
  5
A59F
  8
0
 10
657.180497757103808
 20
107.7066767081761043
 30
0.0
 40
0.008
 50
273.8469341077977219
 51
352.0792094546513908
  0
ARC
  5
A5A0
  8
0
 10
657.0158660625849052
 20
107.7066280972529029
 30
0.0
 40
0.008
 50
188.3280000244691905
 51
270.0
  0
ARC
  5
A5A1
  8
0
 10
657.6349753099241298
 20
108.4459715721090021
 30
0.0
 40
0.7489643715480426
 50
266.7331584064094727
 51
273.8469341078172761
  0
ARC
  5
A5A2
  8
0
 10
657.6401285104425369
 20
107.3119762456351935
 30
0.0
 40
0.3875905218276245
 50
86.220516917639614
 51
94.1958372342512007
  0
ARC
  5
A5A3
  8
0
 10
657.6373315791804544
 20
108.0817615401729057
 30
0.0
 40
0.3840851128602681
 50
266.1840632665965813
 51
274.2322908852938781
  0
LINE
  5
A5A4
  8
0
 10
657.5848351093976589
 20
107.7050510472778058
 30
0.0
 11
657.5771202467425383
 21
107.7576832154529001
 31
0.0
  0
LINE
  5
A5A5
  8
0
 10
657.6926111985625312
 20
107.7055742765225972
 30
0.0
 11
657.6998611848424616
 21
107.7576832154529001
 31
0.0
  0
LINE
  5
A5A6
  8
0
 10
657.6898298330687567
 20
107.6986280972528931
 30
0.0
 11
657.7818868357149995
 21
107.6986280972528931
 31
0.0
  0
ARC
  5
A5A7
  8
0
 10
657.592750526327336
 20
107.7062112950233939
 30
0.0
 40
0.008
 50
188.3390724921927131
 51
266.7331584064356207
  0
ARC
  5
A5A8
  8
0
 10
657.684687522367085
 20
107.7066767081761043
 30
0.0
 40
0.008
 50
273.8469341077977219
 51
352.0792094546513908
  0
ARC
  5
A5A9
  8
0
 10
657.6898298330687567
 20
107.7066280972529029
 30
0.0
 40
0.008
 50
250.7102485134346921
 51
270.0
  0
LINE
  5
A5AA
  8
0
 10
657.7898225903843468
 20
107.7056162683007017
 30
0.0
 11
657.79646125888803
 21
107.7576832154529001
 31
0.0
  0
ARC
  5
A5AB
  8
0
 10
657.7818868357149995
 20
107.7066280972529029
 30
0.0
 40
0.008
 50
270.0000000000064801
 51
352.7338478172230225
  0
ARC
  5
A5AC
  8
0
 10
657.5699125169577428
 20
95.827162846310685
 30
0.0
 40
11.8716230528088094
 50
90.224542524735952
 51
90.6755915501248637
  0
LINE
  5
A5AD
  8
0
 10
657.5307746160560782
 20
107.7055742765225972
 30
0.0
 11
657.5380246023361224
 21
107.7576832154529001
 31
0.0
  0
ARC
  5
A5AE
  8
0
 10
657.5228509398607457
 20
107.7066767081761043
 30
0.0
 40
0.008
 50
273.8469341077977219
 51
352.0792094546513908
  0
LINE
  5
A5AF
  8
0
 10
657.1800334932296437
 20
107.6986280972528931
 30
0.0
 11
657.1891095018265787
 21
107.6986280972528931
 31
0.0
  0
LINE
  5
A5B0
  8
0
 10
657.1970251428276697
 20
107.7054693791934028
 30
0.0
 11
657.2046683791771784
 21
107.7576832154529001
 31
0.0
  0
ARC
  5
A5B1
  8
0
 10
657.1891095018265787
 20
107.7066280972529029
 30
0.0
 40
0.008
 50
270.0
 51
351.6719999903555731
  0
LINE
  5
A5B2
  8
0
 10
656.8656878452343335
 20
107.6986280972528931
 30
0.0
 11
656.957725604433449
 21
107.6986280972528931
 31
0.0
  0
LINE
  5
A5B3
  8
0
 10
656.9656412454346537
 20
107.7054693791934028
 30
0.0
 11
656.9732844817840487
 21
107.7576832154529001
 31
0.0
  0
LINE
  5
A5B4
  8
0
 10
656.8501289677026307
 20
107.7576832154529001
 30
0.0
 11
656.8577722042372216
 21
107.7054693791665017
 31
0.0
  0
ARC
  5
A5B5
  8
0
 10
656.8656878452343335
 20
107.7066280972529029
 30
0.0
 40
0.008
 50
188.3280002042143906
 51
270.0
  0
ARC
  5
A5B6
  8
0
 10
656.957725604433449
 20
107.7066280972529029
 30
0.0
 40
0.008
 50
270.0
 51
351.6719999903555731
  0
LINE
  5
A5B7
  8
0
 10
656.3014284760319015
 20
107.6986280972528931
 30
0.0
 11
656.3934662352311307
 21
107.6986280972528931
 31
0.0
  0
LINE
  5
A5B8
  8
0
 10
656.4013818762322217
 20
107.7054693791934028
 30
0.0
 11
656.4090251125817304
 21
107.7576832154529001
 31
0.0
  0
LINE
  5
A5B9
  8
0
 10
656.2858695985001987
 20
107.7576832154529001
 30
0.0
 11
656.2935128350346758
 21
107.7054693791665017
 31
0.0
  0
ARC
  5
A5BA
  8
0
 10
656.3014284760319015
 20
107.7066280972529029
 30
0.0
 40
0.008
 50
188.3280002042143906
 51
270.0
  0
ARC
  5
A5BB
  8
0
 10
656.3934662352311307
 20
107.7066280972529029
 30
0.0
 40
0.008
 50
270.0
 51
351.6719999903555731
  0
LINE
  5
A5BC
  8
0
 10
658.4051560916310564
 20
107.7035463396895949
 30
0.0
 11
658.3954990924702315
 21
107.7576832154529001
 31
0.0
  0
ARC
  5
A5BD
  8
0
 10
658.412933325411359
 20
107.7049336517394948
 30
0.0
 40
0.0079
 50
190.1141070814578029
 51
271.9970283385537186
  0
LINE
  5
A5BE
  8
0
 10
657.7818868357149995
 20
107.6986280972528931
 30
0.0
 11
657.8709340405097237
 21
107.6986280972528931
 31
0.0
  0
LINE
  5
A5BF
  8
0
 10
657.8788697951789572
 20
107.7056162683007017
 30
0.0
 11
657.8855084636827542
 21
107.7576832154529001
 31
0.0
  0
ARC
  5
A5C0
  8
0
 10
657.8709340405097237
 20
107.7066280972529029
 30
0.0
 40
0.008
 50
270.0000000000064801
 51
352.7338478172230225
  0
LINE
  5
A5C1
  8
0
 10
657.4220401741257547
 20
107.7046108499726955
 30
0.0
 11
657.4135409137702482
 21
107.7576832154529001
 31
0.0
  0
ARC
  5
A5C2
  8
0
 10
657.4298407788957093
 20
107.7058600758224998
 30
0.0
 40
0.0079
 50
189.0983629222567117
 51
270.6755915501119034
  0
LINE
  5
A5C3
  8
0
 10
655.8178911075250426
 20
107.7054693791912996
 30
0.0
 11
655.8102478711615504
 21
107.7576832154529001
 31
0.0
  0
ARC
  5
A5C4
  8
0
 10
655.8258067485259062
 20
107.7066280972529029
 30
0.0
 40
0.008
 50
188.3280000244691905
 51
270.0
  0
LINE
  5
A5C5
  8
0
 10
655.7305268593225946
 20
107.7054693791912996
 30
0.0
 11
655.7228836229588751
 21
107.7576832154529001
 31
0.0
  0
LINE
  5
A5C6
  8
0
 10
655.7384425003233446
 20
107.6986280972528931
 30
0.0
 11
655.8492491220224565
 21
107.6986280972527936
 31
0.0
  0
ARC
  5
A5C7
  8
0
 10
655.7384425003233446
 20
107.7066280972529029
 30
0.0
 40
0.008
 50
188.3280000244691905
 51
270.0
  0
LINE
  5
A5C8
  8
0
 10
656.4690347590682222
 20
107.7054693791912996
 30
0.0
 11
656.4613915227046164
 21
107.7576832154529001
 31
0.0
  0
ARC
  5
A5C9
  8
0
 10
656.4769504000690858
 20
107.7066280972529029
 30
0.0
 40
0.008
 50
188.3280000244691905
 51
270.0
  0
LINE
  5
A5CA
  8
0
 10
654.5029127928702337
 20
108.6553210106528979
 30
0.0
 11
654.5029127928702337
 21
108.0490217980529053
 31
0.0
  0
LINE
  5
A5CB
  8
0
 10
655.9399206668700799
 20
108.6553210106528979
 30
0.0
 11
655.9399206668700799
 21
108.0490217980529053
 31
0.0
  0
LINE
  5
A5CC
  8
0
 10
655.9103931077702327
 20
108.6553210106528979
 30
0.0
 11
655.9103931077702327
 21
109.1277619555528986
 31
0.0
  0
LINE
  5
A5CD
  8
0
 10
654.5324403518701502
 20
108.6553210106528979
 30
0.0
 11
654.5029127928702337
 21
108.6553210106528979
 31
0.0
  0
LINE
  5
A5CE
  8
0
 10
655.9103931077702327
 20
108.6553210106528979
 30
0.0
 11
655.9399206668700799
 21
108.6553210106528979
 31
0.0
  0
LINE
  5
A5CF
  8
0
 10
654.5324403518701502
 20
108.6553210106528979
 30
0.0
 11
654.5324403518701502
 21
109.1277619555528986
 31
0.0
  0
ARC
  5
A5D0
  8
0
 10
655.2214167298201346
 20
108.8285493571527951
 30
0.0
 40
0.5275590551000732
 50
34.5527111340209316
 51
50.6290105123983309
  0
ARC
  5
A5D1
  8
0
 10
655.600471847308313
 20
109.2904952866954034
 30
0.0
 40
0.0699999996509343
 50
111.912211612958302
 51
230.6290105123424894
  0
ARC
  5
A5D2
  8
0
 10
655.4891332694651283
 20
109.5672882176524041
 30
0.0
 40
0.2283464525550805
 50
291.9122116129582878
 51
324.9813713785162008
  0
ARC
  5
A5D3
  8
0
 10
655.2214176982203071
 20
108.8285493571527951
 30
0.0
 40
0.5275590551000732
 50
129.3709894876016051
 51
145.4472888659790897
  0
ARC
  5
A5D4
  8
0
 10
654.8423625807321287
 20
109.2904952866954034
 30
0.0
 40
0.0699999996509343
 50
309.3709894876574822
 51
68.0877883870417122
  0
ARC
  5
A5D5
  8
0
 10
654.9537030151205954
 20
109.5672905156895069
 30
0.0
 40
0.2283492774119558
 50
215.0184049738853957
 51
248.0875713904740962
  0
LINE
  5
A5D6
  8
0
 10
655.5560681994275001
 20
109.236381369760494
 30
0.0
 11
654.8867662286128279
 21
109.236381369760494
 31
0.0
  0
LINE
  5
A5D7
  8
0
 10
655.5743488605842231
 20
109.3554382579528976
 30
0.0
 11
654.8684855674562186
 21
109.3554382579528976
 31
0.0
  0
LINE
  5
A5D8
  8
0
 10
654.7666923203702254
 20
109.9348485697529014
 30
0.0
 11
654.7666923203702254
 21
109.4362546711907953
 31
0.0
  0
LINE
  5
A5D9
  8
0
 10
655.6761411392701575
 20
109.9348485697529014
 30
0.0
 11
655.6761411392701575
 21
109.4362532642031027
 31
0.0
  0
LINE
  5
A5DA
  8
0
 10
654.7666923203702254
 20
109.9348485697529014
 30
0.0
 11
654.7253537376701615
 21
109.9761871524527947
 31
0.0
  0
LINE
  5
A5DB
  8
0
 10
654.7253537376701615
 20
109.9761871524527947
 30
0.0
 11
654.7253537376701615
 21
110.0841399083528955
 31
0.0
  0
LINE
  5
A5DC
  8
0
 10
655.7174797219702214
 20
109.9761871524528942
 30
0.0
 11
655.6761411392701575
 21
109.9348485697529014
 31
0.0
  0
LINE
  5
A5DD
  8
0
 10
655.7174797219702214
 20
109.9761871524528942
 30
0.0
 11
655.7174797219702214
 21
110.0841399083528955
 31
0.0
  0
ARC
  5
A5DE
  8
0
 10
655.6974797219702396
 20
110.0841399083528955
 30
0.0
 40
0.02
 50
0.0000000000097707
 51
89.9999999999869686
  0
ARC
  5
A5DF
  8
0
 10
654.745353737670257
 20
110.0841399083528955
 30
0.0
 40
0.02
 50
89.9999999999934914
 51
179.9999999999951115
  0
ENDSEC
  0
EOF
