  0
SECTION
  2
HEADER
  9
$ACADVER
  1
AC1009
  9
$INSBASE
 10
3491.7325006579030742
 20
195.9022854859389042
 30
0.0
  9
$EXTMIN
 10
3490.7285605568217761
 20
195.8969097119700109
 30
0.0
  9
$EXTMAX
 10
3494.6301353601029405
 20
200.6718975487675038
 30
0.0
  9
$LIMMIN
 10
0.0
 20
0.0
  9
$LIMMAX
 10
11.6929133858000007
 20
8.2677165353999982
  9
$ORTHOMODE
 70
     0
  9
$REGENMODE
 70
     1
  9
$FILLMODE
 70
     1
  9
$QTEXTMODE
 70
     0
  9
$MIRRTEXT
 70
     0
  9
$DRAGMODE
 70
     2
  9
$LTSCALE
 40
0.6431102362
  9
$OSMODE
 70
  3839
  9
$ATTMODE
 70
     1
  9
$TEXTSIZE
 40
0.2
  9
$TRACEWID
 40
0.05
  9
$TEXTSTYLE
  7
STANDARD
  9
$CLAYER
  8
0
  9
$CELTYPE
  6
BYLAYER
  9
$CECOLOR
 62
   256
  9
$DIMSCALE
 40
1.0
  9
$DIMASZ
 40
0.1875
  9
$DIMEXO
 40
0.0625
  9
$DIMDLI
 40
0.4443307087
  9
$DIMRND
 40
0.0
  9
$DIMDLE
 40
0.0
  9
$DIMEXE
 40
0.125
  9
$DIMTP
 40
0.01
  9
$DIMTM
 40
0.01
  9
$DIMTXT
 40
2.0
  9
$DIMCEN
 40
0.1052362205
  9
$DIMTSZ
 40
0.0
  9
$DIMTOL
 70
     1
  9
$DIMLIM
 70
     0
  9
$DIMTIH
 70
     1
  9
$DIMTOH
 70
     1
  9
$DIMSE1
 70
     0
  9
$DIMSE2
 70
     0
  9
$DIMTAD
 70
     0
  9
$DIMZIN
 70
     0
  9
$DIMBLK
  1

  9
$DIMASO
 70
     1
  9
$DIMSHO
 70
     1
  9
$DIMPOST
  1
\X
  9
$DIMAPOST
  1

  9
$DIMALT
 70
     1
  9
$DIMALTD
 70
     2
  9
$DIMALTF
 40
25.3999999999999986
  9
$DIMLFAC
 40
1.0
  9
$DIMTOFL
 70
     0
  9
$DIMTVP
 40
0.0
  9
$DIMTIX
 70
     0
  9
$DIMSOXD
 70
     0
  9
$DIMSAH
 70
     0
  9
$DIMBLK1
  1

  9
$DIMBLK2
  1

  9
$DIMSTYLE
  2
STANDARD
  9
$DIMCLRD
 70
     0
  9
$DIMCLRE
 70
     0
  9
$DIMCLRT
 70
     0
  9
$DIMTFAC
 40
1.0
  9
$DIMGAP
 40
0.09
  9
$LUNITS
 70
     2
  9
$LUPREC
 70
     4
  9
$SKETCHINC
 40
0.1
  9
$FILLETRAD
 40
0.0
  9
$AUNITS
 70
     0
  9
$AUPREC
 70
     0
  9
$MENU
  1
.
  9
$ELEVATION
 40
0.0
  9
$PELEVATION
 40
0.0
  9
$THICKNESS
 40
0.0
  9
$LIMCHECK
 70
     0
  9
$BLIPMODE
 70
     0
  9
$CHAMFERA
 40
0.0
  9
$CHAMFERB
 40
0.0
  9
$SKPOLY
 70
     0
  9
$TDCREATE
 40
2458060.468368056230247
  9
$TDUPDATE
 40
2459029.6458101850003004
  9
$TDINDWG
 40
0.6838612269
  9
$TDUSRTIMER
 40
0.6838612269
  9
$USRTIMER
 70
     1
  9
$ANGBASE
 50
0.0
  9
$ANGDIR
 70
     0
  9
$PDMODE
 70
     0
  9
$PDSIZE
 40
0.3125
  9
$PLINEWID
 40
0.0
  9
$COORDS
 70
     1
  9
$SPLFRAME
 70
     0
  9
$SPLINETYPE
 70
     6
  9
$SPLINESEGS
 70
     8
  9
$ATTDIA
 70
     1
  9
$ATTREQ
 70
     1
  9
$HANDLING
 70
     1
  9
$HANDSEED
  5
9D7D
  9
$SURFTAB1
 70
     6
  9
$SURFTAB2
 70
     6
  9
$SURFTYPE
 70
     6
  9
$SURFU
 70
     6
  9
$SURFV
 70
     6
  9
$UCSNAME
  2

  9
$UCSORG
 10
0.0
 20
0.0
 30
0.0
  9
$UCSXDIR
 10
1.0
 20
0.0
 30
0.0
  9
$UCSYDIR
 10
0.0
 20
1.0
 30
0.0
  9
$PUCSNAME
  2

  9
$PUCSORG
 10
0.0
 20
0.0
 30
0.0
  9
$PUCSXDIR
 10
1.0
 20
0.0
 30
0.0
  9
$PUCSYDIR
 10
0.0
 20
1.0
 30
0.0
  9
$USERI1
 70
     0
  9
$USERI2
 70
     0
  9
$USERI3
 70
     0
  9
$USERI4
 70
     0
  9
$USERI5
 70
     0
  9
$USERR1
 40
0.0
  9
$USERR2
 40
0.0
  9
$USERR3
 40
0.0
  9
$USERR4
 40
0.0
  9
$USERR5
 40
0.0
  9
$WORLDVIEW
 70
     1
  9
$SHADEDGE
 70
     3
  9
$SHADEDIF
 70
    70
  9
$TILEMODE
 70
     1
  9
$MAXACTVP
 70
    64
  9
$PLIMCHECK
 70
     0
  9
$PEXTMIN
 10
1.0000000000000000E+20
 20
1.0000000000000000E+20
 30
1.0000000000000000E+20
  9
$PEXTMAX
 10
-1.0000000000000000E+20
 20
-1.0000000000000000E+20
 30
-1.0000000000000000E+20
  9
$PLIMMIN
 10
0.0
 20
0.0
  9
$PLIMMAX
 10
12.0
 20
9.0
  9
$UNITMODE
 70
     0
  9
$VISRETAIN
 70
     1
  9
$PLINEGEN
 70
     0
  9
$PSLTSCALE
 70
     1
  0
ENDSEC
  0
SECTION
  2
TABLES
  0
TABLE
  2
VPORT
 70
     1
  0
VPORT
  2
*ACTIVE
 70
     0
 10
0.0
 20
0.0
 11
1.0
 21
1.0
 12
0.0
 22
0.0
 13
0.0
 23
0.0
 14
1.0
 24
1.0
 15
0.0
 25
0.0
 16
0.0
 26
0.0
 36
25.5991645665365297
 17
3492.6793212890620453
 27
198.2843313208286986
 37
0.0
 40
6.1661737495416089
 41
3.314341846758349
 42
50.0
 43
0.0
 44
0.0
 50
0.0
 51
0.0
 71
     0
 72
   100
 73
     1
 74
     1
 75
     0
 76
     0
 77
     0
 78
     0
  0
ENDTAB
  0
TABLE
  2
LTYPE
 70
     2
  0
LTYPE
  2
CONTINUOUS
 70
     0
  3
Solid line
 72
    65
 73
     0
 40
0.0
  0
LTYPE
  2
PHANTOM2
 70
     0
  3
___ _ _ ___ _ _ ___ _ _ ___ _ _
 72
    65
 73
     6
 40
1.25
 49
0.625
 49
-0.125
 49
0.125
 49
-0.125
 49
0.125
 49
-0.125
  0
ENDTAB
  0
TABLE
  2
LAYER
 70
     2
  0
LAYER
  2
0
 70
     0
 62
   255
  6
CONTINUOUS
  0
LAYER
  2
DEFPOINTS
 70
     0
 62
     7
  6
CONTINUOUS
  0
ENDTAB
  0
TABLE
  2
STYLE
 70
     1
  0
STYLE
  2
STANDARD
 70
     0
 40
0.0
 41
0.8
 50
0.0
 71
     0
 42
0.2
  3
txt
  4

  0
ENDTAB
  0
TABLE
  2
VIEW
 70
     0
  0
ENDTAB
  0
TABLE
  2
UCS
 70
     0
  0
ENDTAB
  0
TABLE
  2
APPID
 70
     9
  0
APPID
  2
ACAD
 70
     0
  0
APPID
  2
ACAD_MLEADERVER
 70
     0
  0
APPID
  2
ACAD_EXEMPT_FROM_CAD_STANDARDS
 70
     0
  0
APPID
  2
ACAD_NAV_VCDISPLAY
 70
     0
  0
APPID
  2
ACAECLAYERSTANDARD
 70
     0
  0
APPID
  2
ACCMTRANSPARENCY
 70
     0
  0
APPID
  2
ACAD_DSTYLE_DIMJAG
 70
     0
  0
APPID
  2
ACAD_DSTYLE_DIMTALN
 70
     0
  0
APPID
  2
ACDBATTR
 70
     0
  0
ENDTAB
  0
TABLE
  2
DIMSTYLE
 70
     1
  0
DIMSTYLE
  2
STANDARD
 70
     0
  3

  4

  5

  6

  7

 40
1.0
 41
0.1875
 42
0.0625
 43
0.38
 44
0.125
 45
0.0
 46
0.0
 47
0.01
 48
0.01
140
0.15625
141
0.09
142
0.0
143
25.3999999999999986
144
1.0
145
0.0
146
1.0
147
0.09
 71
     1
 72
     0
 73
     1
 74
     1
 75
     0
 76
     0
 77
     0
 78
     4
170
     0
171
     2
172
     0
173
     0
174
     0
175
     0
176
     0
177
     0
178
     0
  0
ENDTAB
  0
ENDSEC
  0
SECTION
  2
BLOCKS
  0
BLOCK
  8
0
  2
$MODEL_SPACE
 70
     0
 10
0.0
 20
0.0
 30
0.0
  3
$MODEL_SPACE
  1

  0
ENDBLK
  5
21
  8
0
  0
BLOCK
 67
     1
  8
0
  2
$PAPER_SPACE
 70
     0
 10
0.0
 20
0.0
 30
0.0
  3
$PAPER_SPACE
  1

  0
ENDBLK
  5
1D
 67
     1
  8
0
  0
BLOCK
  8
0
  2
_FILLED
 70
     0
 10
0.0
 20
0.0
 30
0.0
  3
_FILLED
  1

  0
SOLID
  5
6F59
  8
0
  6
BYBLOCK
 62
     0
 10
0.0
 20
0.0
 30
0.0
 11
-1.0
 21
0.1666666667
 31
0.0
 12
-1.0
 22
-0.1666666667
 32
0.0
 13
-1.0
 23
-0.1666666667
 33
0.0
  0
ENDBLK
  5
6F5A
  8
0
  6
BYBLOCK
 62
     0
  0
ENDSEC
  0
SECTION
  2
ENTITIES
  0
ATTDEF
  5
3930
  8
DEFPOINTS
 10
3491.7324804320369367
 20
195.9002430453033128
 30
0.0
 40
0.001
  1
K-73050T-7ND
  3

  2
MODELNUMBER
 70
     0
1001
ACDBATTR
1070
     0
1070
     1
  0
ATTDEF
  5
3931
  8
DEFPOINTS
 10
3491.7324804320369367
 20
195.8985763786365908
 30
0.0
 40
0.001
  1
COMPOSED
  3

  2
TRADENAME
 70
     0
1001
ACDBATTR
1070
     0
1070
     1
  0
ATTDEF
  5
3932
  8
DEFPOINTS
 10
3491.7324804320369367
 20
195.8969097119700109
 30
0.0
 40
0.001
  1
BATHROOM SINK FAUCET
  3

  2
PRODUCT
 70
     0
1001
ACDBATTR
1070
     0
1070
     1
  0
LINE
  5
9A93
  8
0
 10
3492.7364376658028959
 20
195.9022854859389042
 30
0.0
 11
3490.7285605568217761
 21
195.9022854859389042
 31
0.0
  0
LINE
  5
9A94
  8
0
 10
3490.7285605568217761
 20
195.9022854859389042
 30
0.0
 11
3490.7285605568217761
 21
196.0400807615388885
 31
0.0
  0
ARC
  5
9A95
  8
0
 10
3490.7482508770272034
 20
196.0400754801474079
 30
0.0
 40
0.0196903209130639
 50
90.0063656465076036
 51
179.9846319696713124
  0
LINE
  5
9A96
  8
0
 10
3490.7482486894032263
 20
196.0597658009388908
 30
0.0
 11
3492.716752626402922
 21
196.0597658009388056
 31
0.0
  0
ARC
  5
9A97
  8
0
 10
3492.716752626402922
 20
196.0400807615386896
 30
0.0
 40
0.0196850394000023
 50
0.0000000005276159
 51
90.0
  0
LINE
  5
9A98
  8
0
 10
3492.7364376658028959
 20
196.0400807615388885
 30
0.0
 11
3492.7364376658038054
 21
195.9022854859389042
 31
0.0
  0
ARC
  5
9A99
  8
0
 10
3491.0750203429529392
 20
196.0912618638388949
 30
0.0
 40
0.0314960629999996
 50
180.0
 51
269.9999995764222263
  0
ARC
  5
9A9A
  8
0
 10
3491.0789694796658296
 20
199.8577700023980981
 30
0.0
 40
0.0354682339992342
 50
96.3927347612603853
 51
178.0786195909041965
  0
ARC
  5
9A9B
  8
0
 10
3491.7325109222529136
 20
189.3053054047751971
 30
0.0
 40
10.6081075331575008
 50
86.4466406724904033
 51
93.5534704192872937
  0
ARC
  5
9A9C
  8
0
 10
3492.3860791395040906
 20
199.8578130587291923
 30
0.0
 40
0.0354214706945353
 50
1.8504271626537829
 51
83.6757798096977155
  0
LINE
  5
9A9D
  8
0
 10
3492.4214821388941346
 20
199.8589568333389082
 30
0.0
 11
3492.4214821388941346
 21
199.6718370867390036
 31
0.0
  0
LINE
  5
9A9E
  8
0
 10
3492.4214821388941346
 20
197.9593613171387858
 30
0.0
 11
3492.4214821388941346
 21
196.0597658009388056
 31
0.0
  0
ARC
  5
9A9F
  8
0
 10
3492.3899809728532091
 20
196.0912618638388949
 30
0.0
 40
0.0314960629999979
 50
270.0
 51
359.9879438264038072
  0
ARC
  5
9AA0
  8
0
 10
3493.2741707367540585
 20
197.9468493264143945
 30
0.0
 40
0.8527803907409706
 50
170.838043797562193
 51
179.1593263724082874
  0
ARC
  5
9AA1
  8
0
 10
3492.5066413853760423
 20
198.062736413872102
 30
0.0
 40
0.0769871480703125
 50
94.3858990140677747
 51
165.0217797316348083
  0
ARC
  5
9AA2
  8
0
 10
3492.6155734484418645
 20
197.2226571705234051
 30
0.0
 40
0.9240026207088625
 50
88.5813543633451843
 51
97.1382102780173255
  0
ARC
  5
9AA3
  8
0
 10
3493.6006184065067828
 20
197.5029933424243893
 30
0.0
 40
0.6604951487391836
 50
78.7890376393489049
 51
102.2109623633840982
  0
ARC
  5
9AA4
  8
0
 10
3493.7698279866172015
 20
199.7038280310300991
 30
0.0
 40
1.348725303977339
 50
181.3591485240262955
 51
184.9275710379853024
  0
ARC
  5
9AA5
  8
0
 10
3492.5354518509147965
 20
199.5981985819637998
 30
0.0
 40
0.1098409777217997
 50
185.3393274952744889
 51
263.9898570264635964
  0
ARC
  5
9AA6
  8
0
 10
3492.6160423213091235
 20
200.483630205544614
 30
0.0
 40
0.9989228825342618
 50
264.7103557125643079
 51
271.2853260518635921
  0
ARC
  5
9AA7
  8
0
 10
3492.3877907143460106
 20
199.9224336463578027
 30
0.0
 40
0.0336987918610386
 50
289.765168125855098
 51
358.8019003819571822
  0
LINE
  5
9AA8
  8
0
 10
3492.4214821388941346
 20
199.9217290295833038
 30
0.0
 11
3492.4214821388941346
 21
200.6361161656386969
 31
0.0
  0
ARC
  5
9AA9
  8
0
 10
3492.389341818352932
 20
200.6359551026359895
 30
0.0
 40
0.032140724101485
 50
0.2871207533714633
 51
78.9940104141467287
  0
ARC
  5
9AAA
  8
0
 10
3492.2905764895190259
 20
199.4171857532128058
 30
0.0
 40
1.2547117955547551
 50
85.2041339155351665
 51
90.8542203908342287
  0
LINE
  5
9AAB
  8
0
 10
3492.2718707366020681
 20
200.6717581045390091
 30
0.0
 11
3491.1931305792031708
 21
200.6717581045390091
 31
0.0
  0
ARC
  5
9AAC
  8
0
 10
3491.0756570960788849
 20
200.6359591499239912
 30
0.0
 40
0.0321362928432414
 50
101.003164525621699
 51
179.7200556514160041
  0
ARC
  5
9AAD
  8
0
 10
3491.1744248262871224
 20
199.4171857532128058
 30
0.0
 40
1.2547117955547551
 50
89.1457796091657713
 51
94.7958660844648477
  0
LINE
  5
9AAE
  8
0
 10
3491.0435211868220904
 20
200.6361161656386969
 30
0.0
 11
3491.0435211868220904
 21
196.0597658009388908
 31
0.0
  0
ARC
  5
9AAF
  8
0
 10
3491.07717707501115
 20
199.9224357867886965
 30
0.0
 40
0.0336626866771353
 50
181.1515339020230044
 51
250.3691192741347891
  0
LINE
  5
9AB0
  8
0
 10
3494.6301353600219954
 20
198.1899743463092136
 30
0.0
 11
3494.6301353600219954
 21
199.4413746448092013
 31
0.0
  0
ARC
  5
9AB1
  8
0
 10
3494.5986447946120279
 20
199.4413769079355916
 30
0.0
 40
0.0314905654910824
 50
359.9958823352915829
 51
89.5042876891036627
  0
LINE
  5
9AB2
  8
0
 10
3494.5989172416648216
 20
199.4728662948388944
 30
0.0
 11
3493.2207583471531507
 21
199.4848933052938946
 31
0.0
  0
ARC
  5
9AB3
  8
0
 10
3493.2206896356137804
 20
199.477019586065893
 30
0.0
 40
0.0078740190346266
 50
89.5000099528639339
 51
180.0573928415579132
  0
LINE
  5
9AB4
  8
0
 10
3493.2128156205289997
 20
199.477011698709191
 30
0.0
 11
3493.2128156205289997
 21
198.1543229744125085
 31
0.0
  0
ARC
  5
9AB5
  8
0
 10
3493.2206898342501518
 20
198.1543231740675992
 30
0.0
 40
0.0078742137233848
 50
180.0014527666282049
 51
270.4985322742809899
  0
LINE
  5
9AB6
  8
0
 10
3493.2207583471531507
 20
198.1464492584125026
 30
0.0
 11
3493.4609158880980431
 21
198.1485450815270042
 31
0.0
  0
LINE
  5
9AB7
  8
0
 10
3493.7290332161860533
 20
198.1508849060080877
 30
0.0
 11
3494.5989172416529982
 21
198.1584762689124943
 31
0.0
  0
ARC
  5
9AB8
  8
0
 10
3494.5986336997680155
 20
198.189976653165786
 30
0.0
 40
0.0315016603388848
 50
270.5157179821446221
 51
359.9958042481285929
  0
ARC
  5
9AB9
  8
0
 10
3492.7955448606958271
 20
198.8157614420667869
 30
0.0
 40
0.7046216768361774
 50
53.6873425779938813
 51
69.3517102466798008
  0
LINE
  5
9ABA
  8
0
 10
3493.0440159185018274
 20
198.1562224630125115
 30
0.0
 11
3493.0440159186528035
 21
199.4751201007840109
 31
0.0
  0
ARC
  5
9ABB
  8
0
 10
3492.7953716621182139
 20
198.815860505761691
 30
0.0
 40
0.7049441918865
 50
290.6534551780674178
 51
306.3108628465918173
  0
LINE
  5
9ABC
  8
0
 10
3493.0440159185018274
 20
198.1562224630125115
 30
0.0
 11
3493.0317132563532141
 21
198.1562224630125115
 31
0.0
  0
LINE
  5
9ABD
  8
0
 10
3493.0317132563532141
 20
198.1562224630125115
 30
0.0
 11
3493.0317132563532141
 21
199.4751201007840109
 31
0.0
  0
LINE
  5
9ABE
  8
0
 10
3493.0317132563532141
 20
199.4751201007840109
 30
0.0
 11
3493.0440159186528035
 21
199.4751201007840109
 31
0.0
  0
ARC
  5
9ABF
  8
0
 10
3493.0111020406598072
 20
198.1678287840381074
 30
0.0
 40
0.0214654839495119
 50
272.4646583305316767
 51
343.7813254054839831
  0
LINE
  5
9AC0
  8
0
 10
3493.0120251231492148
 20
198.1463831569091951
 30
0.0
 11
3492.6384494502171947
 21
198.1463765714345016
 31
0.0
  0
ARC
  5
9AC1
  8
0
 10
3493.0118506517610513
 20
199.4648140436009101
 30
0.0
 40
0.0201525457743592
 50
9.7827204490383135
 51
89.5039516234144656
  0
LINE
  5
9AC2
  8
0
 10
3493.0120251238217861
 20
199.4849658341092038
 30
0.0
 11
3492.6384494502171947
 21
199.4849586650344975
 31
0.0
  0
LINE
  5
9AC3
  8
0
 10
3491.4511578979459046
 20
199.9604633356399859
 30
0.0
 11
3491.732500657853052
 21
199.9609235118390984
 31
0.0
  0
ARC
  5
9AC4
  8
0
 10
3491.7713955260360308
 20
209.2878493554445072
 30
0.0
 40
9.3369683264399193
 50
268.4864760191784967
 51
269.7613231448364104
  0
ARC
  5
9AC5
  8
0
 10
3491.5284677307140555
 20
200.4219074418288926
 30
0.0
 40
0.4678754890029837
 50
260.4890606870417855
 51
269.9527918854681729
  0
ARC
  5
9AC6
  8
0
 10
3491.455919303869905
 20
199.9559790302155875
 30
0.0
 40
0.006540640961408
 50
95.8905024315011332
 51
136.7166803967083126
  0
ARC
  5
9AC7
  8
0
 10
3491.559056589066131
 20
199.0381776752520011
 30
0.0
 40
0.9301185372277886
 50
90.6006423463646939
 51
96.4080097291800655
  0
ARC
  5
9AC8
  8
0
 10
3491.7245014811460351
 20
193.4940806354543952
 30
0.0
 40
6.4765344875836552
 50
89.9292338854439492
 51
91.6660713684701847
  0
LINE
  5
9AC9
  8
0
 10
3491.7285636500528199
 20
199.9537800801390972
 30
0.0
 11
3491.7285636500528199
 21
199.9517874877390966
 31
0.0
  0
ARC
  5
9ACA
  8
0
 10
3491.7318842908480292
 20
207.0996147439919923
 30
0.0
 40
7.1478280275820048
 50
269.5311528092541948
 51
270.0049406935689831
  0
LINE
  5
9ACB
  8
0
 10
3491.6733947874458863
 20
199.9520260254184905
 30
0.0
 11
3491.68817874455317
 21
199.9539515869390982
 31
0.0
  0
LINE
  5
9ACC
  8
0
 10
3491.68817874455317
 20
199.9539515869390982
 30
0.0
 11
3491.68817874455317
 21
199.9539515869390982
 31
0.0
  0
LINE
  5
9ACD
  8
0
 10
3491.68817874455317
 20
199.9539515869390982
 30
0.0
 11
3491.732500657853052
 21
199.9537633604365112
 31
0.0
  0
ARC
  5
9ACE
  8
0
 10
3491.4820024549130721
 20
199.9720268952104902
 30
0.0
 40
0.0133133495568216
 50
236.5122432488410027
 51
267.8012970424881019
  0
LINE
  5
9ACF
  8
0
 10
3491.4814916857530989
 20
199.958723347139113
 30
0.0
 11
3491.5366661649532034
 21
199.9592392997390959
 31
0.0
  0
ARC
  5
9AD0
  8
0
 10
3491.5397589301242078
 20
199.9752391904607123
 30
0.0
 40
0.0162960639269226
 50
241.4589020732840083
 51
259.0597029566579863
  0
LINE
  5
9AD1
  8
0
 10
3491.4873331015392068
 20
199.9582089857827043
 30
0.0
 11
3491.5407420554520286
 21
199.9587084285390972
 31
0.0
  0
LINE
  5
9AD2
  8
0
 10
3491.5407420554520286
 20
199.9587084285390972
 30
0.0
 11
3491.5566785935529879
 21
199.9574020877390979
 31
0.0
  0
LINE
  5
9AD3
  8
0
 10
3491.5566785935529879
 20
199.9574020877390979
 30
0.0
 11
3491.5080041036380862
 21
199.9564213340474907
 31
0.0
  0
LINE
  5
9AD4
  8
0
 10
3491.5080041036380862
 20
199.9564213340474907
 30
0.0
 11
3491.4873331015392068
 21
199.9582089857827043
 31
0.0
  0
LINE
  5
9AD5
  8
0
 10
3491.5120122135799647
 20
199.9561288793192091
 30
0.0
 11
3491.5606156014528096
 21
199.9571641046391051
 31
0.0
  0
LINE
  5
9AD6
  8
0
 10
3491.5558487994730967
 20
199.9573853680238926
 30
0.0
 11
3491.5850639686527757
 21
199.9560292707390943
 31
0.0
  0
LINE
  5
9AD7
  8
0
 10
3491.6333408173350108
 20
199.9577141084731977
 30
0.0
 11
3491.544673446653178
 21
199.9546196618391036
 31
0.0
  0
LINE
  5
9AD8
  8
0
 10
3491.544673446653178
 20
199.9546196618391036
 30
0.0
 11
3491.5120122135799647
 21
199.9561288793192091
 31
0.0
  0
LINE
  5
9AD9
  8
0
 10
3491.5447196026170786
 20
199.9538440231181085
 30
0.0
 11
3491.5961995085531271
 21
199.9556406459390985
 31
0.0
  0
LINE
  5
9ADA
  8
0
 10
3491.5832632967681093
 20
199.955966428196092
 30
0.0
 11
3491.6355358068531132
 21
199.9546500106391136
 31
0.0
  0
LINE
  5
9ADB
  8
0
 10
3491.6355358068531132
 20
199.9546500106391136
 30
0.0
 11
3491.5995543490848831
 21
199.9530341663368063
 31
0.0
  0
LINE
  5
9ADC
  8
0
 10
3491.60016912885294
 20
199.9530617746785026
 30
0.0
 11
3491.4843796847558224
 21
199.9561137993073885
 31
0.0
  0
LINE
  5
9ADD
  8
0
 10
3491.5931415719142024
 20
199.9523045665160055
 30
0.0
 11
3491.6359569261780962
 21
199.9542210815658052
 31
0.0
  0
LINE
  5
9ADE
  8
0
 10
3491.6359569261780962
 20
199.9542210815658052
 30
0.0
 11
3491.6729673142531283
 21
199.9540938335391047
 31
0.0
  0
LINE
  5
9ADF
  8
0
 10
3491.6729673142531283
 20
199.9540938335391047
 30
0.0
 11
3491.6581833571531206
 21
199.9521682719390867
 31
0.0
  0
LINE
  5
9AE0
  8
0
 10
3491.6581833571531206
 20
199.9521682719390867
 30
0.0
 11
3491.5117389261931748
 21
199.9543311161781105
 31
0.0
  0
ARC
  5
9AE1
  8
0
 10
3491.5599362513157757
 20
200.0374667653314873
 30
0.0
 40
0.0799831835016217
 50
253.8275134385638978
 51
271.3308637937552135
  0
LINE
  5
9AE2
  8
0
 10
3491.5613046974199278
 20
199.9574952891769897
 30
0.0
 11
3491.6143892699678872
 21
199.9585660961307951
 31
0.0
  0
ARC
  5
9AE3
  8
0
 10
3491.6114776081740274
 20
200.0246568086085972
 30
0.0
 40
0.0661548187980672
 50
255.363867602268698
 51
275.6788244858295229
  0
LINE
  5
9AE4
  8
0
 10
3491.6006696685531097
 20
199.960648712639113
 30
0.0
 11
3491.5376585399530995
 21
199.960648712639113
 31
0.0
  0
LINE
  5
9AE5
  8
0
 10
3491.7052242672530156
 20
199.960648712639113
 30
0.0
 11
3491.7154529137519603
 21
199.9600304144389895
 31
0.0
  0
LINE
  5
9AE6
  8
0
 10
3491.7154529137519603
 20
199.9600304144389895
 30
0.0
 11
3491.6976566220528184
 21
199.9589546695391107
 31
0.0
  0
LINE
  5
9AE7
  8
0
 10
3491.6976566220528184
 20
199.9589546695391107
 30
0.0
 11
3491.6696316837519589
 21
199.960648712639113
 31
0.0
  0
LINE
  5
9AE8
  8
0
 10
3491.6696316837519589
 20
199.960648712639113
 30
0.0
 11
3491.7052242672530156
 21
199.960648712639113
 31
0.0
  0
LINE
  5
9AE9
  8
0
 10
3491.5947616367529918
 20
199.960648712639113
 30
0.0
 11
3491.6637155980529315
 21
199.960648712639113
 31
0.0
  0
ARC
  5
9AEA
  8
0
 10
3491.6953602803100694
 20
200.2269381911227129
 30
0.0
 40
0.2681631448693593
 50
263.2230011519073969
 51
269.8586206831774916
  0
LINE
  5
9AEB
  8
0
 10
3491.6946985791510087
 20
199.9587758626389871
 30
0.0
 11
3491.6631756143519851
 21
199.9568703718391021
 31
0.0
  0
ARC
  5
9AEC
  8
0
 10
3491.6626977678579351
 20
200.4678794138723106
 30
0.0
 40
0.5110092654512127
 50
262.7786481742560909
 51
270.0535774852561985
  0
LINE
  5
9AED
  8
0
 10
3491.6384891477528072
 20
199.9548285333391107
 30
0.0
 11
3491.6670406961529807
 21
199.9565544088391107
 31
0.0
  0
LINE
  5
9AEE
  8
0
 10
3491.6670406961529807
 20
199.9565544088391107
 30
0.0
 11
3491.732500657853052
 21
199.9559422736300007
 31
0.0
  0
LINE
  5
9AEF
  8
0
 10
3491.7285636500528199
 20
199.9559790897390883
 30
0.0
 11
3491.7285636500528199
 21
199.9539862203390896
 31
0.0
  0
LINE
  5
9AF0
  8
0
 10
3491.6384891477528072
 20
199.9548285333391107
 30
0.0
 11
3491.732500657853052
 21
199.9539494042284105
 31
0.0
  0
LINE
  5
9AF1
  8
0
 10
3491.732500657853052
 20
199.9561832258804941
 30
0.0
 11
3491.6699947120528122
 21
199.9567329722391094
 31
0.0
  0
LINE
  5
9AF2
  8
0
 10
3491.6699947120528122
 20
199.9567329722391094
 30
0.0
 11
3491.7021087369980705
 21
199.9586285509045922
 31
0.0
  0
LINE
  5
9AF3
  8
0
 10
3491.6934283216219228
 20
199.9586990784897012
 30
0.0
 11
3491.732500657853052
 21
199.9583816193128882
 31
0.0
  0
LINE
  5
9AF4
  8
0
 10
3491.732500657853052
 20
199.9585877187136873
 30
0.0
 11
3491.6849495192791437
 21
199.9589772082894115
 31
0.0
  0
LINE
  5
9AF5
  8
0
 10
3491.7044757196858882
 20
199.9588172699210986
 30
0.0
 11
3491.732500657853052
 21
199.9605113130045879
 31
0.0
  0
LINE
  5
9AF6
  8
0
 10
3491.7222720113531977
 20
199.9598930148391105
 30
0.0
 11
3491.732500657853052
 21
199.9598239233112054
 31
0.0
  0
LINE
  5
9AF7
  8
0
 10
3491.7285636500528199
 20
199.9680669435389859
 30
0.0
 11
3491.7285636500528199
 21
199.9700595359389013
 31
0.0
  0
ARC
  5
9AF8
  8
0
 10
3491.7318842908398437
 20
192.8222322796860908
 30
0.0
 40
7.1478280275820048
 50
89.9950593063527862
 51
90.4688471906676028
  0
LINE
  5
9AF9
  8
0
 10
3491.6733947874458863
 20
199.9698209982595927
 30
0.0
 11
3491.68817874455317
 21
199.9678954367390133
 31
0.0
  0
LINE
  5
9AFA
  8
0
 10
3491.68817874455317
 20
199.9678954367390133
 30
0.0
 11
3491.68817874455317
 21
199.9678954367390133
 31
0.0
  0
LINE
  5
9AFB
  8
0
 10
3491.68817874455317
 20
199.9678954367390133
 30
0.0
 11
3491.732500657853052
 21
199.9680836632416003
 31
0.0
  0
ARC
  5
9AFC
  8
0
 10
3491.4820024549130721
 20
199.9498201284677918
 30
0.0
 40
0.0133133495568216
 50
92.1987029574336674
 51
123.4877567510965974
  0
LINE
  5
9AFD
  8
0
 10
3491.4814916857530989
 20
199.9631236765391975
 30
0.0
 11
3491.5366661649532034
 21
199.9626077239391861
 31
0.0
  0
ARC
  5
9AFE
  8
0
 10
3491.5397589301242078
 20
199.9466078332175982
 30
0.0
 40
0.0162960639269226
 50
100.9402970432624045
 51
118.5410979266570024
  0
LINE
  5
9AFF
  8
0
 10
3491.4873331015392068
 20
199.9636380378956062
 30
0.0
 11
3491.5407420554520286
 21
199.9631385951390996
 31
0.0
  0
LINE
  5
9B00
  8
0
 10
3491.5407420554520286
 20
199.9631385951390996
 30
0.0
 11
3491.5566785935529879
 21
199.964444935939099
 31
0.0
  0
LINE
  5
9B01
  8
0
 10
3491.5566785935529879
 20
199.964444935939099
 30
0.0
 11
3491.5080041036380862
 21
199.9654256896307913
 31
0.0
  0
LINE
  5
9B02
  8
0
 10
3491.5080041036380862
 20
199.9654256896307913
 30
0.0
 11
3491.4873331015392068
 21
199.9636380378956062
 31
0.0
  0
LINE
  5
9B03
  8
0
 10
3491.5120122135799647
 20
199.9657181443591014
 30
0.0
 11
3491.5606156014528096
 21
199.9646829190390918
 31
0.0
  0
LINE
  5
9B04
  8
0
 10
3491.5558487994730967
 20
199.9644616556543042
 30
0.0
 11
3491.5850639686527757
 21
199.9658177529391025
 31
0.0
  0
LINE
  5
9B05
  8
0
 10
3491.6333408173350108
 20
199.9641329152049138
 30
0.0
 11
3491.544673446653178
 21
199.9672273618392069
 31
0.0
  0
LINE
  5
9B06
  8
0
 10
3491.544673446653178
 20
199.9672273618392069
 30
0.0
 11
3491.5120122135799647
 21
199.9657181443591014
 31
0.0
  0
LINE
  5
9B07
  8
0
 10
3491.5447196026170786
 20
199.9680030005602021
 30
0.0
 11
3491.5961995085531271
 21
199.9662063777390983
 31
0.0
  0
LINE
  5
9B08
  8
0
 10
3491.5832632967681093
 20
199.9658805954821048
 30
0.0
 11
3491.6355358068531132
 21
199.967197013038998
 31
0.0
  0
LINE
  5
9B09
  8
0
 10
3491.6355358068531132
 20
199.967197013038998
 30
0.0
 11
3491.5995543490848831
 21
199.9688128573413906
 31
0.0
  0
LINE
  5
9B0A
  8
0
 10
3491.60016912885294
 20
199.9687852489996089
 30
0.0
 11
3491.4932875465710822
 21
199.9659680213669048
 31
0.0
  0
LINE
  5
9B0B
  8
0
 10
3491.5971518306478174
 20
199.969362948634199
 30
0.0
 11
3491.6359569261780962
 21
199.9676259421123916
 31
0.0
  0
LINE
  5
9B0C
  8
0
 10
3491.6359569261780962
 20
199.9676259421123916
 30
0.0
 11
3491.6729673142531283
 21
199.9677531901390068
 31
0.0
  0
LINE
  5
9B0D
  8
0
 10
3491.6729673142531283
 20
199.9677531901390068
 30
0.0
 11
3491.6581833571531206
 21
199.9696787517389964
 31
0.0
  0
LINE
  5
9B0E
  8
0
 10
3491.6581833571531206
 20
199.9696787517389964
 30
0.0
 11
3491.5268820390629116
 21
199.9677395567998985
 31
0.0
  0
ARC
  5
9B0F
  8
0
 10
3491.5599362513157757
 20
199.8843802583467095
 30
0.0
 40
0.0799831835016217
 50
88.6691362061927038
 51
106.1724865613820015
  0
LINE
  5
9B10
  8
0
 10
3491.5613046974199278
 20
199.9643517345012071
 30
0.0
 11
3491.6143892699678872
 21
199.963280927547288
 31
0.0
  0
ARC
  5
9B11
  8
0
 10
3491.6114776081740274
 20
199.8971902150695996
 30
0.0
 40
0.0661548187980672
 50
84.3211755140921042
 51
104.6361323976775992
  0
LINE
  5
9B12
  8
0
 10
3491.6006696685531097
 20
199.9611983110391122
 30
0.0
 11
3491.5376585399530995
 21
199.9611983110391975
 31
0.0
  0
LINE
  5
9B13
  8
0
 10
3491.7052242672530156
 20
199.9611983110389986
 30
0.0
 11
3491.7154529137519603
 21
199.9618166092390084
 31
0.0
  0
LINE
  5
9B14
  8
0
 10
3491.7154529137519603
 20
199.9618166092390084
 30
0.0
 11
3491.6976566220528184
 21
199.9628923541390009
 31
0.0
  0
LINE
  5
9B15
  8
0
 10
3491.6976566220528184
 20
199.9628923541390009
 30
0.0
 11
3491.6696316837519589
 21
199.9611983110389986
 31
0.0
  0
LINE
  5
9B16
  8
0
 10
3491.6696316837519589
 20
199.9611983110389986
 30
0.0
 11
3491.7052242672530156
 21
199.9611983110389986
 31
0.0
  0
LINE
  5
9B17
  8
0
 10
3491.5947616367529918
 20
199.9611983110391122
 30
0.0
 11
3491.6637155980529315
 21
199.9611983110389986
 31
0.0
  0
ARC
  5
9B18
  8
0
 10
3491.6953602803100694
 20
199.6949088325553987
 30
0.0
 40
0.2681631448693593
 50
90.141379316770383
 51
96.7769988480140029
  0
LINE
  5
9B19
  8
0
 10
3491.6946985791510087
 20
199.9630711610390961
 30
0.0
 11
3491.6631756143519851
 21
199.9649766518390095
 31
0.0
  0
ARC
  5
9B1A
  8
0
 10
3491.6626977678570256
 20
199.453967609805801
 30
0.0
 40
0.5110092654512127
 50
89.946422514691605
 51
97.2213518256651383
  0
LINE
  5
9B1B
  8
0
 10
3491.6384891477528072
 20
199.9670184903390009
 30
0.0
 11
3491.6670406961529807
 21
199.9652926148390009
 31
0.0
  0
LINE
  5
9B1C
  8
0
 10
3491.6670406961529807
 20
199.9652926148390009
 30
0.0
 11
3491.732500657853052
 21
199.9659047500481108
 31
0.0
  0
LINE
  5
9B1D
  8
0
 10
3491.7285636500528199
 20
199.9658679339389948
 30
0.0
 11
3491.7285636500528199
 21
199.9678608033389082
 31
0.0
  0
LINE
  5
9B1E
  8
0
 10
3491.6384891477528072
 20
199.9670184903390009
 30
0.0
 11
3491.732500657853052
 21
199.9678976194497011
 31
0.0
  0
LINE
  5
9B1F
  8
0
 10
3491.732500657853052
 20
199.965663797797589
 30
0.0
 11
3491.6699947120528122
 21
199.9651140514390022
 31
0.0
  0
LINE
  5
9B20
  8
0
 10
3491.6699947120528122
 20
199.9651140514390022
 30
0.0
 11
3491.7021087369980705
 21
199.9632184727734909
 31
0.0
  0
LINE
  5
9B21
  8
0
 10
3491.6934283216219228
 20
199.9631479451884104
 30
0.0
 11
3491.732500657853052
 21
199.9634654043651949
 31
0.0
  0
LINE
  5
9B22
  8
0
 10
3491.732500657853052
 20
199.9632593049643106
 30
0.0
 11
3491.6849495192791437
 21
199.9628698153887001
 31
0.0
  0
LINE
  5
9B23
  8
0
 10
3491.7044757196858882
 20
199.9630297537568993
 30
0.0
 11
3491.732500657853052
 21
199.9613357106734952
 31
0.0
  0
LINE
  5
9B24
  8
0
 10
3491.7222720113531977
 20
199.9619540088390011
 30
0.0
 11
3491.732500657853052
 21
199.9620231003667925
 31
0.0
  0
ARC
  5
9B25
  8
0
 10
3491.5597982216490891
 20
200.0658923927682054
 30
0.0
 40
0.1513869413828589
 50
187.4016511620334029
 51
224.1405673177825975
  0
ARC
  5
9B26
  8
0
 10
3491.7238576023851238
 20
193.1992808463946005
 30
0.0
 40
6.8584351667052443
 50
89.927790127915074
 51
92.1110630831606869
  0
ARC
  5
9B27
  8
0
 10
3491.71260181933485
 20
193.023705205728703
 30
0.0
 40
7.0351327009701352
 50
89.8379338346996263
 51
92.1124230132397344
  0
ARC
  5
9B28
  8
0
 10
3491.4888409902519015
 20
199.6032499268503955
 30
0.0
 40
0.4501564435936902
 50
92.2439128005521809
 51
100.1291946366928016
  0
ARC
  5
9B29
  8
0
 10
3491.5037093148389431
 20
199.1965323866743063
 30
0.0
 40
0.8590059224810568
 50
93.3652999938048538
 51
98.402307454689435
  0
ARC
  5
9B2A
  8
0
 10
3491.4138964560020213
 20
200.1692457912662064
 30
0.0
 40
0.128008750762261
 50
253.8026809098062984
 51
268.4597274653110048
  0
ARC
  5
9B2B
  8
0
 10
3491.9826406912070524
 20
200.2223478038204121
 30
0.0
 40
0.6295620777358861
 50
191.4377823588187084
 51
196.2367236016307004
  0
ARC
  5
9B2C
  8
0
 10
3491.6738913420681456
 20
196.5517059982279875
 30
0.0
 40
3.559175973525353
 50
89.0564517621778151
 51
94.9694170276135594
  0
ARC
  5
9B2D
  8
0
 10
3491.719230819438053
 20
191.2095509822406996
 30
0.0
 40
8.9045786599242351
 50
89.9146122414961724
 51
92.4760881319761125
  0
ARC
  5
9B2E
  8
0
 10
3491.4357152158468125
 20
198.9934674792471867
 30
0.0
 40
1.116940881353425
 50
95.1975629775000556
 51
97.7078755671600447
  0
ARC
  5
9B2F
  8
0
 10
3491.2869025060740569
 20
200.086594610529005
 30
0.0
 40
0.0137578968611213
 50
94.1435352751254015
 51
128.1949902813236122
  0
ARC
  5
9B30
  8
0
 10
3491.3724829721859351
 20
200.5618095761078052
 30
0.0
 40
0.4738376601310211
 50
258.5469501506411802
 51
269.407257690708775
  0
ARC
  5
9B31
  8
0
 10
3491.3047050974300873
 20
200.0618316730430024
 30
0.0
 40
0.0442471228801562
 50
112.3116737025932963
 51
126.4846145091866987
  0
ARC
  5
9B32
  8
0
 10
3491.3994421013189822
 20
201.2279543099230921
 30
0.0
 40
1.142001615343514
 50
263.0959971338953096
 51
268.4190412767412113
  0
ARC
  5
9B33
  8
0
 10
3491.2648611688259734
 20
200.1088767363974057
 30
0.0
 40
0.014889211864701
 50
233.5837091766713058
 51
259.5728098109109965
  0
ARC
  5
9B34
  8
0
 10
3491.3332978459447986
 20
199.7667428845909114
 30
0.0
 40
0.3390751407982058
 50
89.7915755513669183
 51
103.1735366995433054
  0
LINE
  5
9B35
  8
0
 10
3492.0138434178529678
 20
199.9604633358391084
 30
0.0
 11
3491.732500657853052
 21
199.9609235118390984
 31
0.0
  0
ARC
  5
9B36
  8
0
 10
3491.6683045409258739
 20
210.9423877585118987
 30
0.0
 40
10.9916131864143498
 50
270.3346358182379277
 51
271.4175650177688226
  0
ARC
  5
9B37
  8
0
 10
3491.9365335849911389
 20
200.4219074418288926
 30
0.0
 40
0.4678754890029837
 50
270.0472081145318271
 51
279.5109393129582145
  0
ARC
  5
9B38
  8
0
 10
3492.0090820118348347
 20
199.9559790302155875
 30
0.0
 40
0.006540640961408
 50
43.2833196032916874
 51
84.1094975684988668
  0
ARC
  5
9B39
  8
0
 10
3491.9059447266390634
 20
199.0381776752520011
 30
0.0
 40
0.9301185372277886
 50
83.5919902708199487
 51
89.3993576536353345
  0
ARC
  5
9B3A
  8
0
 10
3491.7404998345600688
 20
193.4940806354543952
 30
0.0
 40
6.4765344875836552
 50
88.3339286315298153
 51
90.0707661145560508
  0
LINE
  5
9B3B
  8
0
 10
3491.7364376656528293
 20
199.9537800801390972
 30
0.0
 11
3491.7364376656528293
 21
199.9517874877390966
 31
0.0
  0
ARC
  5
9B3C
  8
0
 10
3491.7331170248580747
 20
207.0996147439919923
 30
0.0
 40
7.1478280275820048
 50
269.9950593064309032
 51
270.4688471907456915
  0
LINE
  5
9B3D
  8
0
 10
3491.7916065282588534
 20
199.9520260254184905
 30
0.0
 11
3491.776822571152934
 21
199.9539515869390982
 31
0.0
  0
LINE
  5
9B3E
  8
0
 10
3491.776822571152934
 20
199.9539515869390982
 30
0.0
 11
3491.776822571152934
 21
199.9539515869390982
 31
0.0
  0
LINE
  5
9B3F
  8
0
 10
3491.776822571152934
 20
199.9539515869390982
 30
0.0
 11
3491.732500657853052
 21
199.9537633604365112
 31
0.0
  0
ARC
  5
9B40
  8
0
 10
3491.9829988607930318
 20
199.9720268952104902
 30
0.0
 40
0.0133133495568216
 50
272.1987029575118981
 51
303.4877567511589973
  0
LINE
  5
9B41
  8
0
 10
3491.9835096299530051
 20
199.958723347139113
 30
0.0
 11
3491.9283351507529005
 21
199.9592392997390959
 31
0.0
  0
ARC
  5
9B42
  8
0
 10
3491.9252423855809866
 20
199.9752391904607123
 30
0.0
 40
0.0162960639269226
 50
280.9402970433420137
 51
298.5410979267160201
  0
LINE
  5
9B43
  8
0
 10
3491.9776682141659876
 20
199.9582089857827043
 30
0.0
 11
3491.9242592602531658
 21
199.9587084285390972
 31
0.0
  0
LINE
  5
9B44
  8
0
 10
3491.9242592602531658
 20
199.9587084285390972
 30
0.0
 11
3491.908322722153116
 21
199.9574020877390979
 31
0.0
  0
LINE
  5
9B45
  8
0
 10
3491.908322722153116
 20
199.9574020877390979
 30
0.0
 11
3491.9569972120671082
 21
199.9564213340474907
 31
0.0
  0
LINE
  5
9B46
  8
0
 10
3491.9569972120671082
 20
199.9564213340474907
 30
0.0
 11
3491.9776682141659876
 21
199.9582089857827043
 31
0.0
  0
LINE
  5
9B47
  8
0
 10
3491.9529891021261392
 20
199.9561288793192091
 30
0.0
 11
3491.9043857142528395
 21
199.9571641046391051
 31
0.0
  0
LINE
  5
9B48
  8
0
 10
3491.9091525162320977
 20
199.9573853680238926
 30
0.0
 11
3491.8799373470528735
 21
199.9560292707390943
 31
0.0
  0
LINE
  5
9B49
  8
0
 10
3491.8316604983710931
 20
199.9577141084731977
 30
0.0
 11
3491.920327869052926
 21
199.9546196618391036
 31
0.0
  0
LINE
  5
9B4A
  8
0
 10
3491.920327869052926
 20
199.9546196618391036
 30
0.0
 11
3491.9529891021261392
 21
199.9561288793192091
 31
0.0
  0
LINE
  5
9B4B
  8
0
 10
3491.9202817130890253
 20
199.9538440231181085
 30
0.0
 11
3491.8688018071529768
 21
199.9556406459390985
 31
0.0
  0
LINE
  5
9B4C
  8
0
 10
3491.8817380189379946
 20
199.955966428196092
 30
0.0
 11
3491.8294655088520813
 21
199.9546500106391136
 31
0.0
  0
LINE
  5
9B4D
  8
0
 10
3491.8294655088520813
 20
199.9546500106391136
 30
0.0
 11
3491.8654469666198565
 21
199.9530341663368063
 31
0.0
  0
LINE
  5
9B4E
  8
0
 10
3491.8648321868531639
 20
199.9530617746785026
 30
0.0
 11
3491.9806216309489173
 21
199.9561137993073885
 31
0.0
  0
LINE
  5
9B4F
  8
0
 10
3491.8718597437919016
 20
199.9523045665160055
 30
0.0
 11
3491.8290443895280077
 21
199.9542210815658052
 31
0.0
  0
LINE
  5
9B50
  8
0
 10
3491.8290443895280077
 20
199.9542210815658052
 30
0.0
 11
3491.7920340014520661
 21
199.9540938335391047
 31
0.0
  0
LINE
  5
9B51
  8
0
 10
3491.7920340014520661
 20
199.9540938335391047
 30
0.0
 11
3491.8068179585529833
 21
199.9521682719390867
 31
0.0
  0
LINE
  5
9B52
  8
0
 10
3491.8068179585529833
 20
199.9521682719390867
 30
0.0
 11
3491.9532623895120196
 21
199.9543311161781105
 31
0.0
  0
ARC
  5
9B53
  8
0
 10
3491.9050650643889639
 20
200.0374667653314873
 30
0.0
 40
0.0799831835016217
 50
268.6691362062447865
 51
286.1724865614360738
  0
LINE
  5
9B54
  8
0
 10
3491.9036966182861761
 20
199.9574952891769897
 30
0.0
 11
3491.8506120457382167
 21
199.9585660961307951
 31
0.0
  0
ARC
  5
9B55
  8
0
 10
3491.853523707531167
 20
200.0246568086085972
 30
0.0
 40
0.0661548187980672
 50
264.3211755141705908
 51
284.6361323977312736
  0
LINE
  5
9B56
  8
0
 10
3491.8643316471520848
 20
199.960648712639113
 30
0.0
 11
3491.9273427757530044
 21
199.960648712639113
 31
0.0
  0
LINE
  5
9B57
  8
0
 10
3491.7597770484530884
 20
199.960648712639113
 30
0.0
 11
3491.7495484019541436
 21
199.9600304144389895
 31
0.0
  0
LINE
  5
9B58
  8
0
 10
3491.7495484019541436
 20
199.9600304144389895
 30
0.0
 11
3491.7673446936528308
 21
199.9589546695391107
 31
0.0
  0
LINE
  5
9B59
  8
0
 10
3491.7673446936528308
 20
199.9589546695391107
 30
0.0
 11
3491.7953696319527808
 21
199.960648712639113
 31
0.0
  0
LINE
  5
9B5A
  8
0
 10
3491.7953696319527808
 20
199.960648712639113
 30
0.0
 11
3491.7597770484530884
 21
199.960648712639113
 31
0.0
  0
LINE
  5
9B5B
  8
0
 10
3491.8702396789531122
 20
199.960648712639113
 30
0.0
 11
3491.8012857176531725
 21
199.960648712639113
 31
0.0
  0
ARC
  5
9B5C
  8
0
 10
3491.7696410353951251
 20
200.2269381911227129
 30
0.0
 40
0.2681631448693593
 50
270.1413793168225084
 51
276.7769988480926031
  0
LINE
  5
9B5D
  8
0
 10
3491.7703027365550952
 20
199.9587758626389871
 30
0.0
 11
3491.8018257013532093
 21
199.9568703718391021
 31
0.0
  0
ARC
  5
9B5E
  8
0
 10
3491.8023035478481688
 20
200.4678794138723106
 30
0.0
 40
0.5110092654512127
 50
269.9464225147436878
 51
277.2213518257439091
  0
LINE
  5
9B5F
  8
0
 10
3491.826512167952842
 20
199.9548285333391107
 30
0.0
 11
3491.7979606195531233
 21
199.9565544088391107
 31
0.0
  0
LINE
  5
9B60
  8
0
 10
3491.7979606195531233
 20
199.9565544088391107
 30
0.0
 11
3491.732500657853052
 21
199.9559422736300007
 31
0.0
  0
LINE
  5
9B61
  8
0
 10
3491.7364376656528293
 20
199.9559790897390883
 30
0.0
 11
3491.7364376656528293
 21
199.9539862203390896
 31
0.0
  0
LINE
  5
9B62
  8
0
 10
3491.826512167952842
 20
199.9548285333391107
 30
0.0
 11
3491.732500657853052
 21
199.9539494042284105
 31
0.0
  0
LINE
  5
9B63
  8
0
 10
3491.732500657853052
 20
199.9561832258804941
 30
0.0
 11
3491.7950066036519274
 21
199.9567329722391094
 31
0.0
  0
LINE
  5
9B64
  8
0
 10
3491.7950066036519274
 20
199.9567329722391094
 30
0.0
 11
3491.7628925787080334
 21
199.9586285509045922
 31
0.0
  0
LINE
  5
9B65
  8
0
 10
3491.7715729940828169
 20
199.9586990784897012
 30
0.0
 11
3491.732500657853052
 21
199.9583816193128882
 31
0.0
  0
LINE
  5
9B66
  8
0
 10
3491.732500657853052
 20
199.9585877187136873
 30
0.0
 11
3491.7800517964260507
 21
199.9589772082894115
 31
0.0
  0
LINE
  5
9B67
  8
0
 10
3491.7605255960188515
 20
199.9588172699210986
 30
0.0
 11
3491.732500657853052
 21
199.9605113130045879
 31
0.0
  0
LINE
  5
9B68
  8
0
 10
3491.7427293043519967
 20
199.9598930148391105
 30
0.0
 11
3491.732500657853052
 21
199.9598239233112054
 31
0.0
  0
LINE
  5
9B69
  8
0
 10
3491.7364376656528293
 20
199.9680669435389859
 30
0.0
 11
3491.7364376656528293
 21
199.9700595359389013
 31
0.0
  0
ARC
  5
9B6A
  8
0
 10
3491.7331170248648959
 20
192.8222322796860908
 30
0.0
 40
7.1478280275820048
 50
89.531152809332383
 51
90.0049406936472565
  0
LINE
  5
9B6B
  8
0
 10
3491.7916065282588534
 20
199.9698209982595927
 30
0.0
 11
3491.776822571152934
 21
199.9678954367390133
 31
0.0
  0
LINE
  5
9B6C
  8
0
 10
3491.776822571152934
 20
199.9678954367390133
 30
0.0
 11
3491.776822571152934
 21
199.9678954367390133
 31
0.0
  0
LINE
  5
9B6D
  8
0
 10
3491.776822571152934
 20
199.9678954367390133
 30
0.0
 11
3491.732500657853052
 21
199.9680836632416003
 31
0.0
  0
ARC
  5
9B6E
  8
0
 10
3491.9829988607930318
 20
199.9498201284677918
 30
0.0
 40
0.0133133495568216
 50
56.5122432489033173
 51
87.8012970425663468
  0
LINE
  5
9B6F
  8
0
 10
3491.9835096299530051
 20
199.9631236765391975
 30
0.0
 11
3491.9283351507529005
 21
199.9626077239391861
 31
0.0
  0
ARC
  5
9B70
  8
0
 10
3491.9252423855809866
 20
199.9466078332175982
 30
0.0
 40
0.0162960639269226
 50
61.4589020733430118
 51
79.0597029567375529
  0
LINE
  5
9B71
  8
0
 10
3491.9776682141659876
 20
199.9636380378956062
 30
0.0
 11
3491.9242592602531658
 21
199.9631385951390996
 31
0.0
  0
LINE
  5
9B72
  8
0
 10
3491.9242592602531658
 20
199.9631385951390996
 30
0.0
 11
3491.908322722153116
 21
199.964444935939099
 31
0.0
  0
LINE
  5
9B73
  8
0
 10
3491.908322722153116
 20
199.964444935939099
 30
0.0
 11
3491.9569972120671082
 21
199.9654256896307913
 31
0.0
  0
LINE
  5
9B74
  8
0
 10
3491.9569972120671082
 20
199.9654256896307913
 30
0.0
 11
3491.9776682141659876
 21
199.9636380378956062
 31
0.0
  0
LINE
  5
9B75
  8
0
 10
3491.9529891021261392
 20
199.9657181443591014
 30
0.0
 11
3491.9043857142528395
 21
199.9646829190390918
 31
0.0
  0
LINE
  5
9B76
  8
0
 10
3491.9091525162320977
 20
199.9644616556543042
 30
0.0
 11
3491.8799373470528735
 21
199.9658177529391025
 31
0.0
  0
LINE
  5
9B77
  8
0
 10
3491.8316604983710931
 20
199.9641329152049138
 30
0.0
 11
3491.920327869052926
 21
199.9672273618392069
 31
0.0
  0
LINE
  5
9B78
  8
0
 10
3491.920327869052926
 20
199.9672273618392069
 30
0.0
 11
3491.9529891021261392
 21
199.9657181443591014
 31
0.0
  0
LINE
  5
9B79
  8
0
 10
3491.9202817130890253
 20
199.9680030005602021
 30
0.0
 11
3491.8688018071529768
 21
199.9662063777390983
 31
0.0
  0
LINE
  5
9B7A
  8
0
 10
3491.8817380189379946
 20
199.9658805954821048
 30
0.0
 11
3491.8294655088520813
 21
199.967197013038998
 31
0.0
  0
LINE
  5
9B7B
  8
0
 10
3491.8294655088520813
 20
199.967197013038998
 30
0.0
 11
3491.8654469666198565
 21
199.9688128573413906
 31
0.0
  0
LINE
  5
9B7C
  8
0
 10
3491.8648321868531639
 20
199.9687852489996089
 30
0.0
 11
3491.9717137691341122
 21
199.9659680213669048
 31
0.0
  0
LINE
  5
9B7D
  8
0
 10
3491.8678494850569223
 20
199.969362948634199
 30
0.0
 11
3491.8290443895280077
 21
199.9676259421123916
 31
0.0
  0
LINE
  5
9B7E
  8
0
 10
3491.8290443895280077
 20
199.9676259421123916
 30
0.0
 11
3491.7920340014520661
 21
199.9677531901390068
 31
0.0
  0
LINE
  5
9B7F
  8
0
 10
3491.7920340014520661
 20
199.9677531901390068
 30
0.0
 11
3491.8068179585529833
 21
199.9696787517389964
 31
0.0
  0
LINE
  5
9B80
  8
0
 10
3491.8068179585529833
 20
199.9696787517389964
 30
0.0
 11
3491.9381192766431923
 21
199.9677395567998985
 31
0.0
  0
ARC
  5
9B81
  8
0
 10
3491.9050650643889639
 20
199.8843802583467095
 30
0.0
 40
0.0799831835016217
 50
73.827513438618027
 51
91.3308637938073247
  0
LINE
  5
9B82
  8
0
 10
3491.9036966182848118
 20
199.9643517345012071
 30
0.0
 11
3491.8506120457382167
 21
199.963280927547288
 31
0.0
  0
ARC
  5
9B83
  8
0
 10
3491.853523707531167
 20
199.8971902150695996
 30
0.0
 40
0.0661548187980672
 50
75.3638676023224008
 51
95.6788244859078816
  0
LINE
  5
9B84
  8
0
 10
3491.8643316471520848
 20
199.9611983110391122
 30
0.0
 11
3491.9273427757530044
 21
199.9611983110391975
 31
0.0
  0
LINE
  5
9B85
  8
0
 10
3491.7597770484530884
 20
199.9611983110389986
 30
0.0
 11
3491.7495484019541436
 21
199.9618166092390084
 31
0.0
  0
LINE
  5
9B86
  8
0
 10
3491.7495484019541436
 20
199.9618166092390084
 30
0.0
 11
3491.7673446936528308
 21
199.9628923541390009
 31
0.0
  0
LINE
  5
9B87
  8
0
 10
3491.7673446936528308
 20
199.9628923541390009
 30
0.0
 11
3491.7953696319527808
 21
199.9611983110389986
 31
0.0
  0
LINE
  5
9B88
  8
0
 10
3491.7953696319527808
 20
199.9611983110389986
 30
0.0
 11
3491.7597770484530884
 21
199.9611983110389986
 31
0.0
  0
LINE
  5
9B89
  8
0
 10
3491.8702396789531122
 20
199.9611983110391122
 30
0.0
 11
3491.8012857176531725
 21
199.9611983110389986
 31
0.0
  0
ARC
  5
9B8A
  8
0
 10
3491.7696410353951251
 20
199.6949088325553987
 30
0.0
 40
0.2681631448693593
 50
83.2230011519859829
 51
89.8586206832296455
  0
LINE
  5
9B8B
  8
0
 10
3491.7703027365550952
 20
199.9630711610390961
 30
0.0
 11
3491.8018257013532093
 21
199.9649766518390095
 31
0.0
  0
ARC
  5
9B8C
  8
0
 10
3491.8023035478481688
 20
199.453967609805801
 30
0.0
 40
0.5110092654512127
 50
82.7786481743348475
 51
90.053577485308395
  0
LINE
  5
9B8D
  8
0
 10
3491.826512167952842
 20
199.9670184903390009
 30
0.0
 11
3491.7979606195531233
 21
199.9652926148390009
 31
0.0
  0
LINE
  5
9B8E
  8
0
 10
3491.7979606195531233
 20
199.9652926148390009
 30
0.0
 11
3491.732500657853052
 21
199.9659047500481108
 31
0.0
  0
LINE
  5
9B8F
  8
0
 10
3491.7364376656528293
 20
199.9658679339389948
 30
0.0
 11
3491.7364376656528293
 21
199.9678608033389082
 31
0.0
  0
LINE
  5
9B90
  8
0
 10
3491.826512167952842
 20
199.9670184903390009
 30
0.0
 11
3491.732500657853052
 21
199.9678976194497011
 31
0.0
  0
LINE
  5
9B91
  8
0
 10
3491.732500657853052
 20
199.965663797797589
 30
0.0
 11
3491.7950066036519274
 21
199.9651140514390022
 31
0.0
  0
LINE
  5
9B92
  8
0
 10
3491.7950066036519274
 20
199.9651140514390022
 30
0.0
 11
3491.7628925787080334
 21
199.9632184727734909
 31
0.0
  0
LINE
  5
9B93
  8
0
 10
3491.7715729940828169
 20
199.9631479451884104
 30
0.0
 11
3491.732500657853052
 21
199.9634654043651949
 31
0.0
  0
LINE
  5
9B94
  8
0
 10
3491.732500657853052
 20
199.9632593049643106
 30
0.0
 11
3491.7800517964260507
 21
199.9628698153887001
 31
0.0
  0
LINE
  5
9B95
  8
0
 10
3491.7605255960188515
 20
199.9630297537568993
 30
0.0
 11
3491.732500657853052
 21
199.9613357106734952
 31
0.0
  0
LINE
  5
9B96
  8
0
 10
3491.7427293043519967
 20
199.9619540088390011
 30
0.0
 11
3491.732500657853052
 21
199.9620231003667925
 31
0.0
  0
ARC
  5
9B97
  8
0
 10
3491.905232600994168
 20
200.0658803417979925
 30
0.0
 40
0.1513573740654432
 50
315.8549276525855021
 51
352.6014950157575072
  0
ARC
  5
9B98
  8
0
 10
3491.741144969771085
 20
193.1992808463946005
 30
0.0
 40
6.8584351667052443
 50
87.8889369168392847
 51
90.072209872084926
  0
ARC
  5
9B99
  8
0
 10
3491.7524007528199945
 20
193.023705205728703
 30
0.0
 40
7.0351327009701352
 50
87.8875769867602656
 51
90.1620661653003737
  0
ARC
  5
9B9A
  8
0
 10
3491.9761615819038525
 20
199.6032499268503955
 30
0.0
 40
0.4501564435936902
 50
79.87080536330717
 51
87.7560871994478333
  0
ARC
  5
9B9B
  8
0
 10
3491.9612932573168109
 20
199.1965323866743063
 30
0.0
 40
0.8590059224810568
 50
81.597692545310565
 51
86.634700006195132
  0
ARC
  5
9B9C
  8
0
 10
3492.0511061161528232
 20
200.1692457912662064
 30
0.0
 40
0.128008750762261
 50
271.5402725346891089
 51
286.1973190901936164
  0
ARC
  5
9B9D
  8
0
 10
3491.4823618809491563
 20
200.2223478038204121
 30
0.0
 40
0.6295620777358861
 50
343.7632763983676796
 51
348.5622176411811779
  0
ARC
  5
9B9E
  8
0
 10
3491.7911112300871537
 20
196.5517059982279875
 30
0.0
 40
3.559175973525353
 50
85.0305829723864548
 51
90.9435482378221991
  0
ARC
  5
9B9F
  8
0
 10
3491.7457717527167915
 20
191.2095509822406996
 30
0.0
 40
8.9045786599242351
 50
87.5239118680238875
 51
90.0853877585038418
  0
ARC
  5
9BA0
  8
0
 10
3492.029287356308032
 20
198.9934674792471867
 30
0.0
 40
1.116940881353425
 50
82.2921244328399553
 51
84.8024370224999444
  0
ARC
  5
9BA1
  8
0
 10
3492.1781000660807877
 20
200.086594610529005
 30
0.0
 40
0.0137578968611213
 50
51.8050097186763381
 51
85.8564647248745842
  0
ARC
  5
9BA2
  8
0
 10
3492.092519599969819
 20
200.5618095761078052
 30
0.0
 40
0.4738376601310211
 50
270.592742309291225
 51
281.4530498493588198
  0
ARC
  5
9BA3
  8
0
 10
3492.1602974747252119
 20
200.0618316730430024
 30
0.0
 40
0.0442471228801436
 50
53.5153854908123208
 51
67.6883262973782536
  0
ARC
  5
9BA4
  8
0
 10
3492.0655604708358624
 20
201.2279543099230921
 30
0.0
 40
1.142001615343514
 50
271.5809587232587887
 51
276.9040028661048041
  0
ARC
  5
9BA5
  8
0
 10
3492.2001414033297806
 20
200.1088767363974057
 30
0.0
 40
0.014889211864701
 50
280.4271901890888898
 51
306.4162908233287226
  0
ARC
  5
9BA6
  8
0
 10
3492.1317047262100459
 20
199.7667428845909114
 30
0.0
 40
0.3390751407982058
 50
76.826463300456652
 51
90.2084244486330817
  0
ARC
  5
9BA7
  8
0
 10
3491.0750133630308483
 20
200.1482637701554097
 30
0.0
 40
0.0314921784899506
 50
180.0218062618598935
 51
270.0126989369529724
  0
ARC
  5
9BA8
  8
0
 10
3491.1635285775910233
 20
199.1429278234631965
 30
0.0
 40
0.9778586691333041
 50
88.2652616709701334
 51
95.1930798828478828
  0
LINE
  5
9BA9
  8
0
 10
3491.1931305792031708
 20
200.1208935802389988
 30
0.0
 11
3492.2718707366020681
 21
200.1208935802389988
 31
0.0
  0
ARC
  5
9BAA
  8
0
 10
3492.290619032874929
 20
198.9633309050045114
 30
0.0
 40
1.1577144923119591
 50
85.0759660171904244
 51
90.9279016667034909
  0
ARC
  5
9BAB
  8
0
 10
3492.3924920671947802
 20
200.1456684744624113
 30
0.0
 40
0.0290037760050378
 50
265.0536709164891249
 51
358.2386081738968073
  0
ENDSEC
  0
EOF
