  0
SECTION
  2
HEADER
  9
$ACADVER
  1
AC1009
  9
$INSBASE
 10
3511.1212257629258602
 20
196.0395097670833024
 30
0.0
  9
$EXTMIN
 10
3504.4924982940328846
 20
196.0344951635308064
 30
0.0
  9
$EXTMAX
 10
3512.1251584603369338
 20
200.8089823856832083
 30
0.0
  9
$LIMMIN
 10
0.0
 20
0.0
  9
$LIMMAX
 10
11.6929133858000007
 20
8.2677165353999982
  9
$ORTHOMODE
 70
     0
  9
$REGENMODE
 70
     1
  9
$FILLMODE
 70
     1
  9
$QTEXTMODE
 70
     0
  9
$MIRRTEXT
 70
     0
  9
$DRAGMODE
 70
     2
  9
$LTSCALE
 40
0.6431102362
  9
$OSMODE
 70
  3839
  9
$ATTMODE
 70
     1
  9
$TEXTSIZE
 40
0.2
  9
$TRACEWID
 40
0.05
  9
$TEXTSTYLE
  7
STANDARD
  9
$CLAYER
  8
0
  9
$CELTYPE
  6
BYLAYER
  9
$CECOLOR
 62
   256
  9
$DIMSCALE
 40
1.0
  9
$DIMASZ
 40
0.1875
  9
$DIMEXO
 40
0.0625
  9
$DIMDLI
 40
0.4443307087
  9
$DIMRND
 40
0.0
  9
$DIMDLE
 40
0.0
  9
$DIMEXE
 40
0.125
  9
$DIMTP
 40
0.01
  9
$DIMTM
 40
0.01
  9
$DIMTXT
 40
2.0
  9
$DIMCEN
 40
0.1052362205
  9
$DIMTSZ
 40
0.0
  9
$DIMTOL
 70
     1
  9
$DIMLIM
 70
     0
  9
$DIMTIH
 70
     1
  9
$DIMTOH
 70
     1
  9
$DIMSE1
 70
     0
  9
$DIMSE2
 70
     0
  9
$DIMTAD
 70
     0
  9
$DIMZIN
 70
     0
  9
$DIMBLK
  1

  9
$DIMASO
 70
     1
  9
$DIMSHO
 70
     1
  9
$DIMPOST
  1
\X
  9
$DIMAPOST
  1

  9
$DIMALT
 70
     1
  9
$DIMALTD
 70
     2
  9
$DIMALTF
 40
25.3999999999999986
  9
$DIMLFAC
 40
1.0
  9
$DIMTOFL
 70
     0
  9
$DIMTVP
 40
0.0
  9
$DIMTIX
 70
     0
  9
$DIMSOXD
 70
     0
  9
$DIMSAH
 70
     0
  9
$DIMBLK1
  1

  9
$DIMBLK2
  1

  9
$DIMSTYLE
  2
STANDARD
  9
$DIMCLRD
 70
     0
  9
$DIMCLRE
 70
     0
  9
$DIMCLRT
 70
     0
  9
$DIMTFAC
 40
1.0
  9
$DIMGAP
 40
0.09
  9
$LUNITS
 70
     2
  9
$LUPREC
 70
     4
  9
$SKETCHINC
 40
0.1
  9
$FILLETRAD
 40
0.0
  9
$AUNITS
 70
     0
  9
$AUPREC
 70
     0
  9
$MENU
  1
.
  9
$ELEVATION
 40
0.0
  9
$PELEVATION
 40
0.0
  9
$THICKNESS
 40
0.0
  9
$LIMCHECK
 70
     0
  9
$BLIPMODE
 70
     0
  9
$CHAMFERA
 40
0.0
  9
$CHAMFERB
 40
0.0
  9
$SKPOLY
 70
     0
  9
$TDCREATE
 40
2458060.468368056230247
  9
$TDUPDATE
 40
2459029.6461574072018266
  9
$TDINDWG
 40
0.6812686343
  9
$TDUSRTIMER
 40
0.6812686343
  9
$USRTIMER
 70
     1
  9
$ANGBASE
 50
0.0
  9
$ANGDIR
 70
     0
  9
$PDMODE
 70
     0
  9
$PDSIZE
 40
0.3125
  9
$PLINEWID
 40
0.0
  9
$COORDS
 70
     1
  9
$SPLFRAME
 70
     0
  9
$SPLINETYPE
 70
     6
  9
$SPLINESEGS
 70
     8
  9
$ATTDIA
 70
     1
  9
$ATTREQ
 70
     1
  9
$HANDLING
 70
     1
  9
$HANDSEED
  5
9968
  9
$SURFTAB1
 70
     6
  9
$SURFTAB2
 70
     6
  9
$SURFTYPE
 70
     6
  9
$SURFU
 70
     6
  9
$SURFV
 70
     6
  9
$UCSNAME
  2

  9
$UCSORG
 10
0.0
 20
0.0
 30
0.0
  9
$UCSXDIR
 10
1.0
 20
0.0
 30
0.0
  9
$UCSYDIR
 10
0.0
 20
1.0
 30
0.0
  9
$PUCSNAME
  2

  9
$PUCSORG
 10
0.0
 20
0.0
 30
0.0
  9
$PUCSXDIR
 10
1.0
 20
0.0
 30
0.0
  9
$PUCSYDIR
 10
0.0
 20
1.0
 30
0.0
  9
$USERI1
 70
     0
  9
$USERI2
 70
     0
  9
$USERI3
 70
     0
  9
$USERI4
 70
     0
  9
$USERI5
 70
     0
  9
$USERR1
 40
0.0
  9
$USERR2
 40
0.0
  9
$USERR3
 40
0.0
  9
$USERR4
 40
0.0
  9
$USERR5
 40
0.0
  9
$WORLDVIEW
 70
     1
  9
$SHADEDGE
 70
     3
  9
$SHADEDIF
 70
    70
  9
$TILEMODE
 70
     1
  9
$MAXACTVP
 70
    64
  9
$PLIMCHECK
 70
     0
  9
$PEXTMIN
 10
1.0000000000000000E+20
 20
1.0000000000000000E+20
 30
1.0000000000000000E+20
  9
$PEXTMAX
 10
-1.0000000000000000E+20
 20
-1.0000000000000000E+20
 30
-1.0000000000000000E+20
  9
$PLIMMIN
 10
0.0
 20
0.0
  9
$PLIMMAX
 10
12.0
 20
9.0
  9
$UNITMODE
 70
     0
  9
$VISRETAIN
 70
     1
  9
$PLINEGEN
 70
     0
  9
$PSLTSCALE
 70
     1
  0
ENDSEC
  0
SECTION
  2
TABLES
  0
TABLE
  2
VPORT
 70
     1
  0
VPORT
  2
*ACTIVE
 70
     0
 10
0.0
 20
0.0
 11
1.0
 21
1.0
 12
0.0
 22
0.0
 13
0.0
 23
0.0
 14
1.0
 24
1.0
 15
0.0
 25
0.0
 16
0.0
 26
0.0
 36
37.3767247667940978
 17
3508.3088378906259095
 27
198.4217351916286987
 37
0.0
 40
9.0030820537839702
 41
3.314341846758349
 42
50.0
 43
0.0
 44
0.0
 50
0.0
 51
0.0
 71
     0
 72
   100
 73
     1
 74
     1
 75
     0
 76
     0
 77
     0
 78
     0
  0
ENDTAB
  0
TABLE
  2
LTYPE
 70
     2
  0
LTYPE
  2
CONTINUOUS
 70
     0
  3
Solid line
 72
    65
 73
     0
 40
0.0
  0
LTYPE
  2
PHANTOM2
 70
     0
  3
___ _ _ ___ _ _ ___ _ _ ___ _ _
 72
    65
 73
     6
 40
1.25
 49
0.625
 49
-0.125
 49
0.125
 49
-0.125
 49
0.125
 49
-0.125
  0
ENDTAB
  0
TABLE
  2
LAYER
 70
     2
  0
LAYER
  2
0
 70
     0
 62
   255
  6
CONTINUOUS
  0
LAYER
  2
DEFPOINTS
 70
     0
 62
     7
  6
CONTINUOUS
  0
ENDTAB
  0
TABLE
  2
STYLE
 70
     1
  0
STYLE
  2
STANDARD
 70
     0
 40
0.0
 41
0.8
 50
0.0
 71
     0
 42
0.2
  3
txt
  4

  0
ENDTAB
  0
TABLE
  2
VIEW
 70
     0
  0
ENDTAB
  0
TABLE
  2
UCS
 70
     0
  0
ENDTAB
  0
TABLE
  2
APPID
 70
     9
  0
APPID
  2
ACAD
 70
     0
  0
APPID
  2
ACAD_MLEADERVER
 70
     0
  0
APPID
  2
ACAD_EXEMPT_FROM_CAD_STANDARDS
 70
     0
  0
APPID
  2
ACAD_NAV_VCDISPLAY
 70
     0
  0
APPID
  2
ACAECLAYERSTANDARD
 70
     0
  0
APPID
  2
ACCMTRANSPARENCY
 70
     0
  0
APPID
  2
ACAD_DSTYLE_DIMJAG
 70
     0
  0
APPID
  2
ACAD_DSTYLE_DIMTALN
 70
     0
  0
APPID
  2
ACDBATTR
 70
     0
  0
ENDTAB
  0
TABLE
  2
DIMSTYLE
 70
     1
  0
DIMSTYLE
  2
STANDARD
 70
     0
  3

  4

  5

  6

  7

 40
1.0
 41
0.1875
 42
0.0625
 43
0.38
 44
0.125
 45
0.0
 46
0.0
 47
0.01
 48
0.01
140
0.15625
141
0.09
142
0.0
143
25.3999999999999986
144
1.0
145
0.0
146
1.0
147
0.09
 71
     1
 72
     0
 73
     1
 74
     1
 75
     0
 76
     0
 77
     0
 78
     4
170
     0
171
     2
172
     0
173
     0
174
     0
175
     0
176
     0
177
     0
178
     0
  0
ENDTAB
  0
ENDSEC
  0
SECTION
  2
BLOCKS
  0
BLOCK
  8
0
  2
$MODEL_SPACE
 70
     0
 10
0.0
 20
0.0
 30
0.0
  3
$MODEL_SPACE
  1

  0
ENDBLK
  5
21
  8
0
  0
BLOCK
 67
     1
  8
0
  2
$PAPER_SPACE
 70
     0
 10
0.0
 20
0.0
 30
0.0
  3
$PAPER_SPACE
  1

  0
ENDBLK
  5
1D
 67
     1
  8
0
  0
BLOCK
  8
0
  2
_FILLED
 70
     0
 10
0.0
 20
0.0
 30
0.0
  3
_FILLED
  1

  0
SOLID
  5
6F59
  8
0
  6
BYBLOCK
 62
     0
 10
0.0
 20
0.0
 30
0.0
 11
-1.0
 21
0.1666666667
 31
0.0
 12
-1.0
 22
-0.1666666667
 32
0.0
 13
-1.0
 23
-0.1666666667
 33
0.0
  0
ENDBLK
  5
6F5A
  8
0
  6
BYBLOCK
 62
     0
  0
ENDSEC
  0
SECTION
  2
ENTITIES
  0
ATTDEF
  5
3930
  8
DEFPOINTS
 10
3511.1103453925461508
 20
196.0378284968641083
 30
0.0
 40
0.001
  1
K-73050T-7ND
  3

  2
MODELNUMBER
 70
     0
1001
ACDBATTR
1070
     0
1070
     1
  0
ATTDEF
  5
3931
  8
DEFPOINTS
 10
3511.1103453925461508
 20
196.0361618301975
 30
0.0
 40
0.001
  1
COMPOSED
  3

  2
TRADENAME
 70
     0
1001
ACDBATTR
1070
     0
1070
     1
  0
ATTDEF
  5
3932
  8
DEFPOINTS
 10
3511.1103453925461508
 20
196.0344951635308064
 30
0.0
 40
0.001
  1
BATHROOM SINK FAUCET
  3

  2
PRODUCT
 70
     0
1001
ACDBATTR
1070
     0
1070
     1
  0
LINE
  5
97A7
  8
0
 10
3512.1251584457759236
 20
196.0395097670833024
 30
0.0
 11
3510.117293080077161
 21
196.0395097670833024
 31
0.0
  0
LINE
  5
97A8
  8
0
 10
3510.117293080077161
 20
196.0395097670833024
 30
0.0
 11
3510.117293080077161
 21
196.1773050426832867
 31
0.0
  0
ARC
  5
97A9
  8
0
 10
3510.1369781194780444
 20
196.1773050426832867
 30
0.0
 40
0.0196850394014305
 50
90.0006904045749536
 51
180.0000000000032117
  0
LINE
  5
97AA
  8
0
 10
3510.1369778822759145
 20
196.1969900820832038
 30
0.0
 11
3512.105473406334113
 21
196.1970138021252126
 31
0.0
  0
ARC
  5
97AB
  8
0
 10
3512.1054736436030907
 20
196.1773289853923075
 30
0.0
 40
0.019684816734298
 50
359.9303109326688173
 51
90.0006906102539546
  0
ARC
  5
97AC
  8
0
 10
3511.7789916451051795
 20
196.2278356669469872
 30
0.0
 40
0.0308368702327628
 50
271.5360708869081918
 51
358.8036210448790939
  0
ARC
  5
97AD
  8
0
 10
3511.779018975209965
 20
199.9738999517460059
 30
0.0
 40
0.0308100085351846
 50
358.7621003762287728
 51
88.4109913677833958
  0
ARC
  5
97AE
  8
0
 10
3378.0762661152211876
 20
-3524.7324208168070072
 30
0.0
 40
3727.1360667021490372
 50
87.9441865651315169
 51
88.0558134347277957
  0
ARC
  5
97AF
  8
0
 10
3504.523969285819021
 20
200.2895700381552047
 30
0.0
 40
0.0314709917865247
 50
178.954989456557314
 51
268.0186721938276264
  0
ARC
  5
97B0
  8
0
 10
6622.0212471774830192
 20
91.7908315349820043
 30
0.0
 40
3119.4162223537891805
 50
177.9977532603570864
 51
178.0067402455293859
  0
ARC
  5
97B1
  8
0
 10
3504.5411623064769628
 20
200.7773291298333049
 30
0.0
 40
0.0316535849743578
 50
90.2612802540701153
 51
176.7298326552756862
  0
LINE
  5
97B2
  8
0
 10
3504.5410179602758944
 20
200.8089823856832083
 30
0.0
 11
3511.778937196329025
 21
200.5562478903453041
 31
0.0
  0
ARC
  5
97B3
  8
0
 10
3511.7778317627098659
 20
200.5247570549435068
 30
0.0
 40
0.0315102316365196
 50
0.0729808945810766
 51
87.9895520750538225
  0
LINE
  5
97B4
  8
0
 10
3511.8093419687847927
 20
200.5247971913076981
 30
0.0
 11
3511.8098113935848232
 21
200.0362972038078055
 31
0.0
  0
ARC
  5
97B5
  8
0
 10
3511.778285985697039
 20
200.0362815493361097
 30
0.0
 40
0.0315254117736584
 50
269.9463442396794903
 51
0.0284511807754756
  0
LINE
  5
97B6
  8
0
 10
3505.4407381688761234
 20
200.0881863223833079
 30
0.0
 11
3504.8780890024358996
 21
200.1078344642833997
 31
0.0
  0
ARC
  5
97B7
  8
0
 10
3504.9964800515708703
 20
200.2116786205313019
 30
0.0
 40
0.1574803140145057
 50
185.7728192206419067
 51
221.254921740131806
  0
LINE
  5
97B8
  8
0
 10
3505.5165512366370422
 20
200.172205840183409
 30
0.0
 11
3504.8083215167362141
 21
200.1969377669834103
 31
0.0
  0
ARC
  5
97B9
  8
0
 10
3504.9182846171661367
 20
200.3692156579662935
 30
0.0
 40
0.6298695915338742
 50
341.7732299430629155
 51
346.6477901902508165
  0
ARC
  5
97BA
  8
0
 10
3505.4189242917368574
 20
200.3517442418836936
 30
0.0
 40
0.6299212598011157
 50
189.4069333023340107
 51
194.2265034275999938
  0
ARC
  5
97BB
  8
0
 10
3505.3298793155358908
 20
200.2000360619834112
 30
0.0
 40
0.157480315000028
 50
314.7450784215121757
 51
350.2271807375191202
  0
ARC
  5
97BC
  8
0
 10
3510.4654689384401536
 20
200.0184517901209915
 30
0.0
 40
0.0332310719366544
 50
91.2880117593472988
 51
178.8078095721436114
  0
ARC
  5
97BD
  8
0
 10
3510.4637411230760335
 20
196.2284861449832079
 30
0.0
 40
0.0314960630000041
 50
179.9999999999984084
 51
269.9920122607009034
  0
CIRCLE
  5
97BE
  8
0
 10
3511.1212214379770558
 20
198.9528955629832012
 30
0.0
 40
0.5525436999999993
  0
CIRCLE
  5
97BF
  8
0
 10
3511.1212214379770558
 20
198.9528955629832012
 30
0.0
 40
0.3195317864000007
  0
LINE
  5
97C0
  8
0
 10
3512.1251584457759236
 20
196.0395097670833024
 30
0.0
 11
3512.1251584457759236
 21
196.1773050426832867
 31
0.0
  0
LINE
  5
97C2
  8
0
 10
3511.8098217930541978
 20
199.9732343402274068
 30
0.0
 11
3511.8098217930541978
 21
196.2271918166987064
 31
0.0
  0
LINE
  5
97C4
  8
0
 10
3510.432245060076184
 20
200.0191432006832883
 30
0.0
 11
3510.432245060076184
 21
196.2284861449832079
 31
0.0
  0
CIRCLE
  5
97CF
  8
0
 10
3511.1212214379770558
 20
198.9528955630426026
 30
0.0
 40
0.6692220234857392
  0
ENDSEC
  0
EOF
