  0
SECTION
  2
HEADER
  9
$ACADVER
  1
AC1009
  9
$INSBASE
 10
4743.7979833934496128
 20
262.2973550793242907
 30
0.0
  9
$EXTMIN
 10
4742.7940432923669505
 20
255.668605154612294
 30
0.0
  9
$EXTMAX
 10
4746.6956180956503886
 20
263.9720007269684743
 30
0.0
  9
$LIMMIN
 10
0.0
 20
0.0
  9
$LIMMAX
 10
11.6929133858000007
 20
8.2677165353999982
  9
$ORTHOMODE
 70
     0
  9
$REGENMODE
 70
     1
  9
$FILLMODE
 70
     1
  9
$QTEXTMODE
 70
     0
  9
$MIRRTEXT
 70
     0
  9
$DRAGMODE
 70
     2
  9
$LTSCALE
 40
0.6431102362
  9
$OSMODE
 70
  3839
  9
$ATTMODE
 70
     1
  9
$TEXTSIZE
 40
0.2
  9
$TRACEWID
 40
0.05
  9
$TEXTSTYLE
  7
STANDARD
  9
$CLAYER
  8
0
  9
$CELTYPE
  6
BYLAYER
  9
$CECOLOR
 62
   256
  9
$DIMSCALE
 40
1.0
  9
$DIMASZ
 40
0.1875
  9
$DIMEXO
 40
0.0625
  9
$DIMDLI
 40
0.4443307087
  9
$DIMRND
 40
0.0
  9
$DIMDLE
 40
0.0
  9
$DIMEXE
 40
0.125
  9
$DIMTP
 40
0.01
  9
$DIMTM
 40
0.01
  9
$DIMTXT
 40
2.0
  9
$DIMCEN
 40
0.1052362205
  9
$DIMTSZ
 40
0.0
  9
$DIMTOL
 70
     1
  9
$DIMLIM
 70
     0
  9
$DIMTIH
 70
     1
  9
$DIMTOH
 70
     1
  9
$DIMSE1
 70
     0
  9
$DIMSE2
 70
     0
  9
$DIMTAD
 70
     0
  9
$DIMZIN
 70
     0
  9
$DIMBLK
  1

  9
$DIMASO
 70
     1
  9
$DIMSHO
 70
     1
  9
$DIMPOST
  1
\X
  9
$DIMAPOST
  1

  9
$DIMALT
 70
     1
  9
$DIMALTD
 70
     2
  9
$DIMALTF
 40
25.3999999999999986
  9
$DIMLFAC
 40
1.0
  9
$DIMTOFL
 70
     0
  9
$DIMTVP
 40
0.0
  9
$DIMTIX
 70
     0
  9
$DIMSOXD
 70
     0
  9
$DIMSAH
 70
     0
  9
$DIMBLK1
  1

  9
$DIMBLK2
  1

  9
$DIMSTYLE
  2
STANDARD
  9
$DIMCLRD
 70
     0
  9
$DIMCLRE
 70
     0
  9
$DIMCLRT
 70
     0
  9
$DIMTFAC
 40
1.0
  9
$DIMGAP
 40
0.09
  9
$LUNITS
 70
     2
  9
$LUPREC
 70
     4
  9
$SKETCHINC
 40
0.1
  9
$FILLETRAD
 40
0.0
  9
$AUNITS
 70
     0
  9
$AUPREC
 70
     0
  9
$MENU
  1
.
  9
$ELEVATION
 40
0.0
  9
$PELEVATION
 40
0.0
  9
$THICKNESS
 40
0.0
  9
$LIMCHECK
 70
     0
  9
$BLIPMODE
 70
     0
  9
$CHAMFERA
 40
0.0
  9
$CHAMFERB
 40
0.0
  9
$SKPOLY
 70
     0
  9
$TDCREATE
 40
2458060.468368056230247
  9
$TDUPDATE
 40
2460537.5571527779102325
  9
$TDINDWG
 40
0.3637917824
  9
$TDUSRTIMER
 40
0.3637917824
  9
$USRTIMER
 70
     1
  9
$ANGBASE
 50
0.0
  9
$ANGDIR
 70
     0
  9
$PDMODE
 70
     0
  9
$PDSIZE
 40
0.3125
  9
$PLINEWID
 40
0.0
  9
$COORDS
 70
     1
  9
$SPLFRAME
 70
     0
  9
$SPLINETYPE
 70
     6
  9
$SPLINESEGS
 70
     8
  9
$ATTDIA
 70
     1
  9
$ATTREQ
 70
     1
  9
$HANDLING
 70
     1
  9
$HANDSEED
  5
D24F
  9
$SURFTAB1
 70
     6
  9
$SURFTAB2
 70
     6
  9
$SURFTYPE
 70
     6
  9
$SURFU
 70
     6
  9
$SURFV
 70
     6
  9
$UCSNAME
  2

  9
$UCSORG
 10
0.0
 20
0.0
 30
0.0
  9
$UCSXDIR
 10
1.0
 20
0.0
 30
0.0
  9
$UCSYDIR
 10
0.0
 20
1.0
 30
0.0
  9
$PUCSNAME
  2

  9
$PUCSORG
 10
0.0
 20
0.0
 30
0.0
  9
$PUCSXDIR
 10
1.0
 20
0.0
 30
0.0
  9
$PUCSYDIR
 10
0.0
 20
1.0
 30
0.0
  9
$USERI1
 70
     0
  9
$USERI2
 70
     0
  9
$USERI3
 70
     0
  9
$USERI4
 70
     0
  9
$USERI5
 70
     0
  9
$USERR1
 40
0.0
  9
$USERR2
 40
0.0
  9
$USERR3
 40
0.0
  9
$USERR4
 40
0.0
  9
$USERR5
 40
0.0
  9
$WORLDVIEW
 70
     1
  9
$SHADEDGE
 70
     3
  9
$SHADEDIF
 70
    70
  9
$TILEMODE
 70
     1
  9
$MAXACTVP
 70
    64
  9
$PLIMCHECK
 70
     0
  9
$PEXTMIN
 10
1.0000000000000000E+20
 20
1.0000000000000000E+20
 30
1.0000000000000000E+20
  9
$PEXTMAX
 10
-1.0000000000000000E+20
 20
-1.0000000000000000E+20
 30
-1.0000000000000000E+20
  9
$PLIMMIN
 10
0.0
 20
0.0
  9
$PLIMMAX
 10
12.0
 20
9.0
  9
$UNITMODE
 70
     0
  9
$VISRETAIN
 70
     1
  9
$PLINEGEN
 70
     0
  9
$PSLTSCALE
 70
     1
  0
ENDSEC
  0
SECTION
  2
TABLES
  0
TABLE
  2
VPORT
 70
     1
  0
VPORT
  2
*ACTIVE
 70
     0
 10
0.0
 20
0.0
 11
1.0
 21
1.0
 12
105.4834741912740981
 22
13.4106883778021295
 13
0.0
 23
0.0
 14
1.0
 24
1.0
 15
0.0
 25
0.0
 16
0.0
 26
0.0
 36
96.5308727129206972
 17
4639.2613565027349978
 27
246.4096145629883097
 37
0.0
 40
8.3628470919673799
 41
2.2831541218637992
 42
50.0
 43
0.0
 44
0.0
 50
0.0
 51
0.0
 71
     0
 72
   100
 73
     1
 74
     1
 75
     0
 76
     0
 77
     0
 78
     0
  0
ENDTAB
  0
TABLE
  2
LTYPE
 70
     3
  0
LTYPE
  2
CONTINUOUS
 70
     0
  3
Solid line
 72
    65
 73
     0
 40
0.0
  0
LTYPE
  2
PHANTOM2
 70
     0
  3
___ _ _ ___ _ _ ___ _ _ ___ _ _
 72
    65
 73
     6
 40
1.25
 49
0.625
 49
-0.125
 49
0.125
 49
-0.125
 49
0.125
 49
-0.125
  0
ENDTAB
  0
TABLE
  2
LAYER
 70
     2
  0
LAYER
  2
0
 70
     0
 62
   255
  6
CONTINUOUS
  0
LAYER
  2
DEFPOINTS
 70
     0
 62
     7
  6
CONTINUOUS
  0
ENDTAB
  0
TABLE
  2
STYLE
 70
     1
  0
STYLE
  2
STANDARD
 70
     0
 40
0.0
 41
0.8
 50
0.0
 71
     0
 42
0.2
  3
txt
  4

  0
ENDTAB
  0
TABLE
  2
VIEW
 70
     0
  0
ENDTAB
  0
TABLE
  2
UCS
 70
     0
  0
ENDTAB
  0
TABLE
  2
APPID
 70
     9
  0
APPID
  2
ACAD
 70
     0
  0
APPID
  2
ACAD_MLEADERVER
 70
     0
  0
APPID
  2
ACAD_EXEMPT_FROM_CAD_STANDARDS
 70
     0
  0
APPID
  2
ACAD_NAV_VCDISPLAY
 70
     0
  0
APPID
  2
ACAECLAYERSTANDARD
 70
     0
  0
APPID
  2
ACCMTRANSPARENCY
 70
     0
  0
APPID
  2
ACAD_DSTYLE_DIMJAG
 70
     0
  0
APPID
  2
ACAD_DSTYLE_DIMTALN
 70
     0
  0
APPID
  2
ACDBATTR
 70
     0
  0
ENDTAB
  0
TABLE
  2
DIMSTYLE
 70
     2
  0
DIMSTYLE
  2
STANDARD
 70
     0
  3

  4

  5

  6

  7

 40
1.0
 41
0.1875
 42
0.0625
 43
0.38
 44
0.125
 45
0.0
 46
0.0
 47
0.01
 48
0.01
140
0.15625
141
0.09
142
0.0
143
25.3999999999999986
144
1.0
145
0.0
146
1.0
147
0.09
 71
     1
 72
     0
 73
     1
 74
     1
 75
     0
 76
     0
 77
     0
 78
     4
170
     0
171
     2
172
     0
173
     0
174
     0
175
     0
176
     0
177
     0
178
     0
  0
ENDTAB
  0
ENDSEC
  0
SECTION
  2
BLOCKS
  0
BLOCK
  8
0
  2
$MODEL_SPACE
 70
     0
 10
0.0
 20
0.0
 30
0.0
  3
$MODEL_SPACE
  1

  0
ENDBLK
  5
21
  8
0
  0
BLOCK
 67
     1
  8
0
  2
$PAPER_SPACE
 70
     0
 10
0.0
 20
0.0
 30
0.0
  3
$PAPER_SPACE
  1

  0
ENDBLK
  5
1D
 67
     1
  8
0
  0
BLOCK
  8
0
  2
_FILLED
 70
     0
 10
0.0
 20
0.0
 30
0.0
  3
_FILLED
  1

  0
SOLID
  5
CB9B
  8
0
  6
BYBLOCK
 62
     0
 10
0.0
 20
0.0
 30
0.0
 11
-1.0
 21
0.1666666667
 31
0.0
 12
-1.0
 22
-0.1666666667
 32
0.0
 13
-1.0
 23
-0.1666666667
 33
0.0
  0
ENDBLK
  5
CB9C
  8
0
  6
BYBLOCK
 62
     0
  0
ENDSEC
  0
SECTION
  2
ENTITIES
  0
LINE
  5
CDC5
  8
0
 10
4744.3373503789680399
 20
255.668605154612294
 30
0.0
 11
4743.2586102215682331
 21
255.6686308234363025
 31
0.0
  0
ARC
  5
CDC6
  8
0
 10
4743.2585814263993598
 20
255.8182122988858964
 30
0.0
 40
0.1495814782211943
 50
180.4176610911621879
 51
270.0110297190013853
  0
LINE
  5
CDC7
  8
0
 10
4743.1090039223681742
 20
255.8171219252029971
 30
0.0
 11
4743.1090039223681742
 21
262.2969461657210104
 31
0.0
  0
ARC
  5
CDC8
  8
0
 10
4743.7979833934496128
 20
262.2973550793242907
 30
0.0
 40
0.688979592377134
 50
0.0001950464074814
 51
180.034005397680005
  0
LINE
  5
CDC9
  8
0
 10
4744.486962985772152
 20
262.2973574247499755
 30
0.0
 11
4744.4869667631073753
 21
255.8181523362144105
 31
0.0
  0
ARC
  5
CDCA
  8
0
 10
4744.3373195753292748
 20
255.8182523726578097
 30
0.0
 40
0.149647221215858
 50
270.0117938611771251
 51
359.9616988114918854
  0
LINE
  5
CDCB
  8
0
 10
4744.7039321857628238
 20
261.6280887737704006
 30
0.0
 11
4744.5454697926206791
 21
261.627191718030474
 31
0.0
  0
LINE
  5
CDCC
  8
0
 10
4744.4870149793678138
 20
261.5672071258128994
 30
0.0
 11
4744.5454697926206791
 21
261.627191718030474
 31
0.0
  0
LINE
  5
CDCD
  8
0
 10
4743.8090920287068002
 20
262.9862456098971961
 30
0.0
 11
4744.7039321857628238
 21
262.9666708673703965
 31
0.0
  0
ARC
  5
CDCE
  8
0
 10
4743.7979803002681365
 20
262.2973582929209897
 30
0.0
 40
1.003937007899999
 50
108.3099526270373048
 51
226.6554822001155003
  0
ARC
  5
CDCF
  8
0
 10
4743.7979803002681365
 20
262.2973582929209897
 30
0.0
 40
1.0039370079000021
 50
42.0799348029736393
 51
83.8088256743461955
  0
ARC
  5
CDD0
  8
0
 10
4743.7979803002681365
 20
262.2973582929209897
 30
0.0
 40
1.0039370079000021
 50
96.1908191920395979
 51
108.3099526270373048
  0
LINE
  5
CDD1
  8
0
 10
4746.6956180955676246
 20
261.6716865486450274
 30
0.0
 11
4746.6956180955676246
 21
262.9230868471449867
 31
0.0
  0
ARC
  5
CDD2
  8
0
 10
4746.6641275301581118
 20
262.9230891102714054
 30
0.0
 40
0.0314905654910824
 50
359.9958823352915829
 51
89.5042876890776142
  0
LINE
  5
CDD3
  8
0
 10
4746.6643999772122697
 20
262.9545784971747935
 30
0.0
 11
4745.2862410826992345
 21
262.9666055076298221
 31
0.0
  0
ARC
  5
CDD4
  8
0
 10
4745.286172369797896
 20
262.9587317917491873
 30
0.0
 40
0.007874015699186
 50
89.4999998304614337
 51
180.057417223837092
  0
LINE
  5
CDD5
  8
0
 10
4745.2782983580518703
 20
262.9587239010450048
 30
0.0
 11
4745.2782983540992063
 21
261.6360351767482939
 31
0.0
  0
ARC
  5
CDD6
  8
0
 10
4745.2868309175164541
 20
261.6366883839388038
 30
0.0
 40
0.0085575299058155
 50
184.3777181907790919
 51
265.2369074134415996
  0
LINE
  5
CDD7
  8
0
 10
4745.2861203350676078
 20
261.6281604069998252
 30
0.0
 11
4746.6643999771986273
 21
261.6401884712483934
 31
0.0
  0
ARC
  5
CDD8
  8
0
 10
4746.6641164353140994
 20
261.6716888555015998
 30
0.0
 40
0.0315016603388848
 50
270.5157179821184741
 51
359.9958042481285929
  0
ARC
  5
CDD9
  8
0
 10
4744.8610275970113435
 20
262.2974736456134792
 30
0.0
 40
0.7046216754054808
 50
53.6876549115126096
 51
69.3517102696200141
  0
LINE
  5
CDDA
  8
0
 10
4745.109498654048366
 20
261.6379346653483822
 30
0.0
 11
4745.1094986541993421
 21
262.9568323030912893
 31
0.0
  0
ARC
  5
CDDB
  8
0
 10
4744.8608543976642977
 20
262.2975727080976185
 30
0.0
 40
0.7049441918865
 50
290.6534551780442257
 51
306.3105506552096813
  0
LINE
  5
CDDC
  8
0
 10
4745.109498654048366
 20
261.6379346653483822
 30
0.0
 11
4745.0971959918979337
 21
261.6379346653483822
 31
0.0
  0
LINE
  5
CDDD
  8
0
 10
4745.0971959918979337
 20
261.6379346653483822
 30
0.0
 11
4745.0971959918979337
 21
262.9568323031484169
 31
0.0
  0
LINE
  5
CDDE
  8
0
 10
4745.0971959918979337
 20
262.9568323031484169
 30
0.0
 11
4745.1094986541993421
 21
262.9568323030912893
 31
0.0
  0
ARC
  5
CDDF
  8
0
 10
4745.0765847762068006
 20
261.6495409863738928
 30
0.0
 40
0.0214654839495119
 50
272.4646583305056993
 51
343.7813254054839831
  0
LINE
  5
CDE0
  8
0
 10
4745.0775078586948439
 20
261.6280953592449805
 30
0.0
 11
4744.7039321857628238
 21
261.6280887737704006
 31
0.0
  0
ARC
  5
CDE1
  8
0
 10
4745.0773333873075899
 20
262.9465262459368091
 30
0.0
 40
0.0201525457743592
 50
9.7827204490351036
 51
89.5039516234405141
  0
LINE
  5
CDE2
  8
0
 10
4745.07750785936787
 20
262.9666780364451029
 30
0.0
 11
4744.7039321857628238
 21
262.9666708673703965
 31
0.0
  0
LINE
  5
CDE3
  8
0
 10
4743.6897156768991408
 20
262.9777747882363883
 30
0.0
 11
4743.6897156768991408
 21
263.9523156876243206
 31
0.0
  0
ARC
  5
CDE4
  8
0
 10
4743.7094007162440903
 20
263.9523156876243206
 30
0.0
 40
0.0196850393441879
 50
89.9961610134147492
 51
180.0000000000015916
  0
LINE
  5
CDE5
  8
0
 10
4743.7094020351987638
 20
263.9720007269243069
 30
0.0
 11
4743.8865647513011936
 21
263.9719888564986832
 31
0.0
  0
ARC
  5
CDE6
  8
0
 10
4743.8865634321691687
 20
263.9523011733621729
 30
0.0
 40
0.0196876831807778
 50
0.0422399137839718
 51
89.9961610134147492
  0
LINE
  5
CDE7
  8
0
 10
4743.9062511099991752
 20
263.9523156876243206
 30
0.0
 11
4743.9062511099991752
 21
262.9841202426063091
 31
0.0
  0
ATTDEF
  5
CFEA
  8
DEFPOINTS
 10
4743.7853836760041304
 20
262.294581198112212
 30
0.0
 40
0.001
  1
K-73050T-7
  3

  2
MODELNUMBER
 70
     0
1001
ACDBATTR
1070
     0
1070
     1
  0
ATTDEF
  5
CFEB
  8
DEFPOINTS
 10
4743.7853836760041304
 20
262.2929145314456036
 30
0.0
 40
0.001
  1
COMPOSED
  3

  2
TRADENAME
 70
     0
1001
ACDBATTR
1070
     0
1070
     1
  0
ATTDEF
  5
CFEC
  8
DEFPOINTS
 10
4743.7853836760041304
 20
262.2912478647788816
 30
0.0
 40
0.001
  1
BATHROOM SINK FAUCET
  3

  2
PRODUCT
 70
     0
1001
ACDBATTR
1070
     0
1070
     1
  0
ENDSEC
  0
EOF
