  0
SECTION
  2
HEADER
  9
$ACADVER
  1
AC1009
  9
$INSBASE
 10
577.6805378879158752
 20
20.5491480448178692
 30
0.0
  9
$EXTMIN
 10
576.6766008800159398
 20
13.9204109545178696
 30
0.0
  9
$EXTMAX
 10
580.5297504863159475
 20
21.8055700071044107
 30
0.0
  9
$LIMMIN
 10
0.0
 20
0.0
  9
$LIMMAX
 10
11.6929133858000007
 20
8.2677165353999982
  9
$ORTHOMODE
 70
     1
  9
$REGENMODE
 70
     1
  9
$FILLMODE
 70
     1
  9
$QTEXTMODE
 70
     0
  9
$MIRRTEXT
 70
     0
  9
$DRAGMODE
 70
     2
  9
$LTSCALE
 40
0.6431102362
  9
$OSMODE
 70
    23
  9
$ATTMODE
 70
     1
  9
$TEXTSIZE
 40
0.2
  9
$TRACEWID
 40
0.05
  9
$TEXTSTYLE
  7
STANDARD
  9
$CLAYER
  8
0
  9
$CELTYPE
  6
BYLAYER
  9
$CECOLOR
 62
   256
  9
$DIMSCALE
 40
1.0
  9
$DIMASZ
 40
0.1875
  9
$DIMEXO
 40
0.0625
  9
$DIMDLI
 40
0.4443307087
  9
$DIMRND
 40
0.0
  9
$DIMDLE
 40
0.0
  9
$DIMEXE
 40
0.125
  9
$DIMTP
 40
0.01
  9
$DIMTM
 40
0.01
  9
$DIMTXT
 40
2.0
  9
$DIMCEN
 40
0.1052362205
  9
$DIMTSZ
 40
0.0
  9
$DIMTOL
 70
     1
  9
$DIMLIM
 70
     0
  9
$DIMTIH
 70
     1
  9
$DIMTOH
 70
     1
  9
$DIMSE1
 70
     0
  9
$DIMSE2
 70
     0
  9
$DIMTAD
 70
     0
  9
$DIMZIN
 70
     0
  9
$DIMBLK
  1

  9
$DIMASO
 70
     1
  9
$DIMSHO
 70
     1
  9
$DIMPOST
  1
\X
  9
$DIMAPOST
  1

  9
$DIMALT
 70
     1
  9
$DIMALTD
 70
     2
  9
$DIMALTF
 40
25.3999999999999986
  9
$DIMLFAC
 40
1.0
  9
$DIMTOFL
 70
     0
  9
$DIMTVP
 40
0.0
  9
$DIMTIX
 70
     0
  9
$DIMSOXD
 70
     0
  9
$DIMSAH
 70
     0
  9
$DIMBLK1
  1

  9
$DIMBLK2
  1

  9
$DIMSTYLE
  2
STANDARD
  9
$DIMCLRD
 70
     0
  9
$DIMCLRE
 70
     0
  9
$DIMCLRT
 70
     0
  9
$DIMTFAC
 40
1.0
  9
$DIMGAP
 40
0.09
  9
$LUNITS
 70
     2
  9
$LUPREC
 70
     4
  9
$SKETCHINC
 40
0.1
  9
$FILLETRAD
 40
0.0
  9
$AUNITS
 70
     0
  9
$AUPREC
 70
     0
  9
$MENU
  1
.
  9
$ELEVATION
 40
0.0
  9
$PELEVATION
 40
0.0
  9
$THICKNESS
 40
0.0
  9
$LIMCHECK
 70
     0
  9
$BLIPMODE
 70
     0
  9
$CHAMFERA
 40
0.0
  9
$CHAMFERB
 40
0.0
  9
$SKPOLY
 70
     0
  9
$TDCREATE
 40
2458106.4931018520146608
  9
$TDUPDATE
 40
2459754.4540046299807727
  9
$TDINDWG
 40
0.2097670833
  9
$TDUSRTIMER
 40
0.2097670833
  9
$USRTIMER
 70
     1
  9
$ANGBASE
 50
0.0
  9
$ANGDIR
 70
     0
  9
$PDMODE
 70
     0
  9
$PDSIZE
 40
0.3125
  9
$PLINEWID
 40
0.0
  9
$COORDS
 70
     1
  9
$SPLFRAME
 70
     0
  9
$SPLINETYPE
 70
     6
  9
$SPLINESEGS
 70
     8
  9
$ATTDIA
 70
     1
  9
$ATTREQ
 70
     1
  9
$HANDLING
 70
     1
  9
$HANDSEED
  5
23BD
  9
$SURFTAB1
 70
     6
  9
$SURFTAB2
 70
     6
  9
$SURFTYPE
 70
     6
  9
$SURFU
 70
     6
  9
$SURFV
 70
     6
  9
$UCSNAME
  2

  9
$UCSORG
 10
0.0
 20
0.0
 30
0.0
  9
$UCSXDIR
 10
1.0
 20
0.0
 30
0.0
  9
$UCSYDIR
 10
0.0
 20
1.0
 30
0.0
  9
$PUCSNAME
  2

  9
$PUCSORG
 10
0.0
 20
0.0
 30
0.0
  9
$PUCSXDIR
 10
1.0
 20
0.0
 30
0.0
  9
$PUCSYDIR
 10
0.0
 20
1.0
 30
0.0
  9
$USERI1
 70
     0
  9
$USERI2
 70
     0
  9
$USERI3
 70
     0
  9
$USERI4
 70
     0
  9
$USERI5
 70
     0
  9
$USERR1
 40
0.0
  9
$USERR2
 40
0.0
  9
$USERR3
 40
0.0
  9
$USERR4
 40
0.0
  9
$USERR5
 40
0.0
  9
$WORLDVIEW
 70
     1
  9
$SHADEDGE
 70
     3
  9
$SHADEDIF
 70
    70
  9
$TILEMODE
 70
     1
  9
$MAXACTVP
 70
    64
  9
$PLIMCHECK
 70
     0
  9
$PEXTMIN
 10
1.0000000000000000E+20
 20
1.0000000000000000E+20
 30
1.0000000000000000E+20
  9
$PEXTMAX
 10
-1.0000000000000000E+20
 20
-1.0000000000000000E+20
 30
-1.0000000000000000E+20
  9
$PLIMMIN
 10
0.0
 20
0.0
  9
$PLIMMAX
 10
12.0
 20
9.0
  9
$UNITMODE
 70
     0
  9
$VISRETAIN
 70
     1
  9
$PLINEGEN
 70
     0
  9
$PSLTSCALE
 70
     1
  0
ENDSEC
  0
SECTION
  2
TABLES
  0
TABLE
  2
VPORT
 70
     1
  0
VPORT
  2
*ACTIVE
 70
     0
 10
0.0
 20
0.0
 11
1.0
 21
1.0
 12
305.0489652130834202
 22
35.4682776386166267
 13
0.0
 23
0.0
 14
1.0
 24
1.0
 15
0.0
 25
0.0
 16
-0.0000000000000568
 26
0.0
 36
193.9250709296327955
 17
273.5742015565131169
 27
-17.6059607340214797
 37
0.0
 40
7.9378350774970103
 41
2.005224660397074
 42
50.0
 43
0.0
 44
0.0
 50
0.0
 51
0.0
 71
     0
 72
   100
 73
     1
 74
     1
 75
     0
 76
     0
 77
     0
 78
     0
  0
ENDTAB
  0
TABLE
  2
LTYPE
 70
     2
  0
LTYPE
  2
CONTINUOUS
 70
     0
  3
Solid line
 72
    65
 73
     0
 40
0.0
  0
LTYPE
  2
PHANTOM2
 70
     0
  3
___ _ _ ___ _ _ ___ _ _ ___ _ _
 72
    65
 73
     6
 40
1.25
 49
0.625
 49
-0.125
 49
0.125
 49
-0.125
 49
0.125
 49
-0.125
  0
ENDTAB
  0
TABLE
  2
LAYER
 70
     2
  0
LAYER
  2
0
 70
     0
 62
   255
  6
CONTINUOUS
  0
LAYER
  2
DEFPOINTS
 70
     0
 62
     7
  6
CONTINUOUS
  0
ENDTAB
  0
TABLE
  2
STYLE
 70
     1
  0
STYLE
  2
STANDARD
 70
     0
 40
0.0
 41
0.8
 50
0.0
 71
     0
 42
0.2
  3
txt
  4

  0
ENDTAB
  0
TABLE
  2
VIEW
 70
     0
  0
ENDTAB
  0
TABLE
  2
UCS
 70
     0
  0
ENDTAB
  0
TABLE
  2
APPID
 70
     9
  0
APPID
  2
ACAD
 70
     0
  0
APPID
  2
ACAD_MLEADERVER
 70
     0
  0
APPID
  2
ACAD_EXEMPT_FROM_CAD_STANDARDS
 70
     0
  0
APPID
  2
ACAD_NAV_VCDISPLAY
 70
     0
  0
APPID
  2
ACAD_DSTYLE_DIMJAG
 70
     0
  0
APPID
  2
ACAD_DSTYLE_DIMTALN
 70
     0
  0
APPID
  2
ACAECLAYERSTANDARD
 70
     0
  0
APPID
  2
ACCMTRANSPARENCY
 70
     0
  0
APPID
  2
ACDBATTR
 70
     0
  0
ENDTAB
  0
TABLE
  2
DIMSTYLE
 70
     1
  0
DIMSTYLE
  2
STANDARD
 70
     0
  3

  4

  5

  6

  7

 40
1.0
 41
0.1875
 42
0.0625
 43
0.38
 44
0.125
 45
0.0
 46
0.0
 47
0.01
 48
0.01
140
0.15625
141
0.09
142
0.0
143
25.3999999999999986
144
1.0
145
0.0
146
1.0
147
0.09
 71
     1
 72
     0
 73
     1
 74
     1
 75
     0
 76
     0
 77
     0
 78
     4
170
     0
171
     2
172
     0
173
     0
174
     0
175
     0
176
     0
177
     0
178
     0
  0
ENDTAB
  0
ENDSEC
  0
SECTION
  2
BLOCKS
  0
BLOCK
  8
0
  2
$MODEL_SPACE
 70
     0
 10
0.0
 20
0.0
 30
0.0
  3
$MODEL_SPACE
  1

  0
ENDBLK
  5
21
  8
0
  0
BLOCK
 67
     1
  8
0
  2
$PAPER_SPACE
 70
     0
 10
0.0
 20
0.0
 30
0.0
  3
$PAPER_SPACE
  1

  0
ENDBLK
  5
1D
 67
     1
  8
0
  0
ENDSEC
  0
SECTION
  2
ENTITIES
  0
ATTDEF
  5
FAA
  8
DEFPOINTS
 10
577.6807107287452254
 20
20.5526882489601483
 30
0.0
 40
0.001
  1
K-73050T-B7ACH
  3

  2
MODELNUMBER
 70
     0
1001
ACDBATTR
1070
     0
1070
     1
  0
ATTDEF
  5
FAB
  8
DEFPOINTS
 10
577.6807107287452254
 20
20.5510215822934796
 30
0.0
 40
0.001
  1

  3

  2
TRADENAME
 70
     0
1001
ACDBATTR
1070
     0
1070
     1
  0
ATTDEF
  5
FAC
  8
DEFPOINTS
 10
577.6807107287452254
 20
20.5493549156268216
 30
0.0
 40
0.001
  1
BATHROOM SINK FAUCET
  3

  2
PRODUCT
 70
     0
1001
ACDBATTR
1070
     0
1070
     1
  0
ARC
  5
2298
  8
0
 10
577.6805378879158752
 20
20.5491480448178692
 30
0.0
 40
1.003937007899999
 50
313.335922279366514
 51
318.1376201750858854
  0
ARC
  5
2299
  8
0
 10
577.6805378879158752
 20
20.5491480448178692
 30
0.0
 40
1.003937007899999
 50
41.8858965051754808
 51
74.0697345343007498
  0
ARC
  5
229A
  8
0
 10
577.6805378879158752
 20
20.5491480448178692
 30
0.0
 40
1.003937007899999
 50
92.2485939311994372
 51
226.664077720633486
  0
LINE
  5
229B
  8
0
 10
576.9915615157659659
 20
14.0686388774562907
 30
0.0
 11
576.9915615157659659
 21
20.5491480448178692
 31
0.0
  0
ARC
  5
229C
  8
0
 10
577.6805378879158752
 20
20.5491480448178692
 30
0.0
 40
0.68897637215
 50
0.0
 51
180.0
  0
LINE
  5
229D
  8
0
 10
578.2199600405124329
 20
13.9204109545178696
 30
0.0
 11
577.1411157353192038
 21
13.9204109545178696
 31
0.0
  0
ARC
  5
229E
  8
0
 10
577.1411601142427799
 20
14.0700158837249294
 30
0.0
 40
0.1496049357893553
 50
180.5273740547891066
 51
269.9830037342114224
  0
LINE
  5
229F
  8
0
 10
578.3695142600658983
 20
14.0686388774562907
 30
0.0
 11
578.3695142600658983
 21
20.5491480448178692
 31
0.0
  0
ARC
  5
22A0
  8
0
 10
578.2199156615888569
 20
14.0700158837249294
 30
0.0
 40
0.1496049357893553
 50
270.0169962657885776
 51
359.4726259452107797
  0
LINE
  5
22A1
  8
0
 10
578.5863215930581873
 20
21.2184394143178707
 30
0.0
 11
578.9600654470159498
 21
21.2184394143178707
 31
0.0
  0
LINE
  5
22A2
  8
0
 10
578.9797504863159929
 20
21.2085968637178688
 30
0.0
 11
578.9797504863159929
 21
19.8945296659178688
 31
0.0
  0
LINE
  5
22A3
  8
0
 10
579.1124276517158478
 20
21.210565367788579
 30
0.0
 11
579.1124276517158478
 21
19.8877307218471593
 31
0.0
  0
LINE
  5
22A4
  8
0
 10
579.3289630847159515
 20
21.2204078873178794
 30
0.0
 11
579.3289630847159515
 21
19.8778882023178696
 31
0.0
  0
LINE
  5
22A5
  8
0
 10
578.9797504863159929
 20
21.2085968637178688
 30
0.0
 11
578.9920531487158541
 21
21.2085968637178688
 31
0.0
  0
LINE
  5
22A6
  8
0
 10
578.9920531487158541
 20
21.2085968637178688
 30
0.0
 11
578.9920531487158541
 21
19.8945296659178688
 31
0.0
  0
ARC
  5
22A7
  8
0
 10
578.9600654470159498
 20
21.1987543749178791
 30
0.0
 40
0.0196850393999958
 50
0.0
 51
90.0
  0
ARC
  5
22A8
  8
0
 10
578.7435501381705762
 20
20.5492003217850403
 30
0.0
 40
0.704668394184902
 50
58.4342453870503817
 51
69.3503652954302652
  0
LINE
  5
22A9
  8
0
 10
579.1222701712451908
 20
21.2204078873178794
 30
0.0
 11
579.3289630847159515
 21
21.2204078873178794
 31
0.0
  0
ARC
  5
22AA
  8
0
 10
579.1222701712451908
 20
21.210565367788579
 30
0.0
 40
0.0098425195292906
 50
89.999999006258335
 51
180.0000009937438961
  0
LINE
  5
22AB
  8
0
 10
579.3486481241159254
 20
21.2381244228178687
 30
0.0
 11
579.3289630847159515
 21
21.2184393834178699
 31
0.0
  0
LINE
  5
22AC
  8
0
 10
579.3486481241159254
 20
21.2381244228178687
 30
0.0
 11
580.5100654469159736
 21
21.2381244228178687
 31
0.0
  0
LINE
  5
22AD
  8
0
 10
580.5297504863159475
 20
19.8798567062178684
 30
0.0
 11
580.5297504863159475
 21
21.2184393834178699
 31
0.0
  0
ARC
  5
22AE
  8
0
 10
579.3688748199264182
 20
21.2360145866678707
 30
0.0
 40
0.0028663320588436
 50
312.6018465561799076
 51
47.3981534438201209
  0
ARC
  5
22AF
  8
0
 10
579.5347577474491345
 20
21.1458190907678691
 30
0.0
 40
0.1861082884677913
 50
151.7510671304875132
 51
208.2489328695122026
  0
ARC
  5
22B0
  8
0
 10
579.8848087440369454
 20
20.8936362337678716
 30
0.0
 40
0.5361592850445484
 50
163.4675227718454096
 51
196.5324772281545052
  0
ARC
  5
22B1
  8
0
 10
580.0597914153581769
 20
20.5491480448678701
 30
0.0
 40
0.7111432912423357
 50
165.6567914666092918
 51
194.3432085333905945
  0
ARC
  5
22B2
  8
0
 10
579.3548827661026053
 20
21.0519692514178693
 30
0.0
 40
0.0169429363753993
 50
340.1102475943877153
 51
19.8897524056179087
  0
ARC
  5
22B3
  8
0
 10
579.3410902140458347
 20
20.7331933800178803
 30
0.0
 40
0.0307500464169017
 50
345.1632896763996996
 51
14.8367103236002595
  0
LINE
  5
22B4
  8
0
 10
578.5025589075384005
 20
19.8798566753178712
 30
0.0
 11
578.9600654470159498
 21
19.8798566753178712
 31
0.0
  0
ARC
  5
22B5
  8
0
 10
578.9600654470159498
 20
19.8995417147178699
 30
0.0
 40
0.0196850393999958
 50
270.0
 51
0.0
  0
ARC
  5
22B6
  8
0
 10
578.7435501381705762
 20
20.5490957678507087
 30
0.0
 40
0.704668394184902
 50
292.3993252844463768
 51
301.5657546129496041
  0
LINE
  5
22B7
  8
0
 10
579.1222701712451908
 20
19.8778882023178696
 30
0.0
 11
579.3289630847159515
 21
19.8778882023178696
 31
0.0
  0
ARC
  5
22B8
  8
0
 10
579.1222701712451908
 20
19.8877307218471593
 30
0.0
 40
0.0098425195292906
 50
179.9999990062561039
 51
270.0000009937415939
  0
LINE
  5
22B9
  8
0
 10
579.3486481241159254
 20
19.8601716668178696
 30
0.0
 11
579.3289630847159515
 21
19.8798567062178684
 31
0.0
  0
ARC
  5
22BA
  8
0
 10
579.3688748199264182
 20
19.8622815029678712
 30
0.0
 40
0.0028663320588436
 50
312.6018465561799076
 51
47.3981534438201209
  0
ARC
  5
22BB
  8
0
 10
579.5347577474491345
 20
19.9524769988678692
 30
0.0
 40
0.1861082884677913
 50
151.7510671304877974
 51
208.2489328695124868
  0
ARC
  5
22BC
  8
0
 10
579.8848087440369454
 20
20.2046598558678703
 30
0.0
 40
0.5361592850445484
 50
163.4675227718454096
 51
196.5324772281545052
  0
ARC
  5
22BD
  8
0
 10
579.3548827661026053
 20
20.046326838217869
 30
0.0
 40
0.0169429363753993
 50
340.1102475943820878
 51
19.8897524056123416
  0
ARC
  5
22BE
  8
0
 10
579.3410902140458347
 20
20.3651027096178687
 30
0.0
 40
0.0307500464169017
 50
345.1632896763996996
 51
14.8367103236002595
  0
LINE
  5
22BF
  8
0
 10
579.3486481241159254
 20
19.8601716668178696
 30
0.0
 11
579.3289630847159515
 21
19.8798567062178684
 31
0.0
  0
LINE
  5
22C0
  8
0
 10
580.5100654469159736
 20
21.2381244228178687
 30
0.0
 11
580.5297504863159475
 21
21.2184393834178699
 31
0.0
  0
ARC
  5
22C1
  8
0
 10
580.4898387511054807
 20
21.2360145866678707
 30
0.0
 40
0.0028663320588436
 50
132.6018465561799076
 51
227.3981534438200924
  0
ARC
  5
22C2
  8
0
 10
580.3239558235827644
 20
21.1458190907678691
 30
0.0
 40
0.1861082884677913
 50
331.7510671304877974
 51
28.2489328695125117
  0
ARC
  5
22C3
  8
0
 10
579.9739048269949535
 20
20.8936362337678716
 30
0.0
 40
0.5361592850445484
 50
343.4675227718453812
 51
16.5324772281545407
  0
ARC
  5
22C4
  8
0
 10
579.7989221556734947
 20
20.5491480448678701
 30
0.0
 40
0.7111432912423357
 50
345.656791466609377
 51
14.3432085333906798
  0
ARC
  5
22C5
  8
0
 10
580.5038308049294073
 20
21.0519692514178693
 30
0.0
 40
0.0169429363753993
 50
160.1102475943820878
 51
199.8897524056123132
  0
ARC
  5
22C6
  8
0
 10
580.5176233569860642
 20
20.7331933800178803
 30
0.0
 40
0.0307500464169017
 50
165.1632896763996996
 51
194.8367103236001867
  0
ARC
  5
22C7
  8
0
 10
580.4898387511054807
 20
19.8622815029678712
 30
0.0
 40
0.0028663320588436
 50
132.6018465561799076
 51
227.3981534438200924
  0
ARC
  5
22C8
  8
0
 10
580.3239558235827644
 20
19.9524769988678692
 30
0.0
 40
0.1861082884677913
 50
331.7510671304875132
 51
28.2489328695121493
  0
ARC
  5
22C9
  8
0
 10
579.9739048269949535
 20
20.2046598558678703
 30
0.0
 40
0.5361592850445484
 50
343.4675227718453812
 51
16.5324772281545407
  0
ARC
  5
22CA
  8
0
 10
580.5038308049294073
 20
20.046326838217869
 30
0.0
 40
0.0169429363753993
 50
160.1102475943876016
 51
199.8897524056179122
  0
ARC
  5
22CB
  8
0
 10
580.5176233569860642
 20
20.3651027096178687
 30
0.0
 40
0.0307500464169017
 50
165.1632896763996996
 51
194.8367103236001867
  0
LINE
  5
22CC
  8
0
 10
580.5100654469159736
 20
19.8601716668178696
 30
0.0
 11
580.5297504863159475
 21
19.8798567062178684
 31
0.0
  0
LINE
  5
22CD
  8
0
 10
579.3718257024778495
 20
21.0519692514178693
 30
0.0
 11
580.4868878685539357
 21
21.0519692514178693
 31
0.0
  0
LINE
  5
22CE
  8
0
 10
579.3718402604627045
 20
20.7331933800178803
 30
0.0
 11
580.4868733105690808
 21
20.7331933800178803
 31
0.0
  0
LINE
  5
22CF
  8
0
 10
579.3718257024778495
 20
20.046326838217869
 30
0.0
 11
580.4868878685539357
 21
20.046326838217869
 31
0.0
  0
LINE
  5
22D0
  8
0
 10
579.3718402604627045
 20
20.3651027096178687
 30
0.0
 11
580.4868733105690808
 21
20.3651027096178687
 31
0.0
  0
LINE
  5
22D1
  8
0
 10
579.3486481241159254
 20
19.8601716668178696
 30
0.0
 11
580.5100654469159736
 21
19.8601716668178696
 31
0.0
  0
LINE
  5
22D2
  8
0
 10
578.9797504863159929
 20
19.8945296659178688
 30
0.0
 11
578.9920531487158541
 21
19.8945296659178688
 31
0.0
  0
LINE
  5
22D3
  8
0
 10
579.0119035750135481
 20
19.9023805345524707
 30
0.0
 11
579.0120707162761846
 21
19.8975942368494714
 31
0.0
  0
ARC
  5
22D4
  8
0
 10
578.74355789238939
 20
20.5518549623222704
 30
0.0
 40
0.7027278546563119
 50
290.7085975127786242
 51
292.4491215772883947
  0
LINE
  5
22D5
  8
0
 10
578.5025589075386279
 20
19.8798566753178712
 30
0.0
 11
578.3695140990158734
 21
19.8786402724178686
 31
0.0
  0
ARC
  5
22D6
  8
0
 10
578.6417502695627491
 20
42.8310816728548573
 30
0.0
 40
21.6127133357586096
 50
267.6572300651678233
 51
269.8530571955533901
  0
ARC
  5
22D7
  8
0
 10
577.6495969116995184
 20
17.990222347268169
 30
0.0
 40
3.2480293924748538
 50
88.0825741809088925
 51
89.1269575574443564
  0
LINE
  5
22D9
  8
0
 10
577.6411481241159436
 20
21.5009085378924816
 30
0.0
 11
577.6411481241159436
 21
21.5009085378917817
 31
0.0
  0
LINE
  5
22DA
  8
0
 10
577.6411481241159436
 20
21.5009681497180196
 30
0.0
 11
577.6411481241159436
 21
21.6609922380874593
 31
0.0
  0
LINE
  5
22DB
  8
0
 10
577.9560856704705429
 20
21.5000410842157095
 30
0.0
 11
577.9560856704705429
 21
21.6609922380874593
 31
0.0
  0
LINE
  5
22DC
  8
0
 10
577.7100654470159498
 20
21.3809649299388198
 30
0.0
 11
577.7100654470159498
 21
21.2376888198614218
 31
0.0
  0
LINE
  5
22DD
  8
0
 10
577.8871683477891565
 20
21.3809257539392199
 30
0.0
 11
577.8871683477891565
 21
21.2315450144677094
 31
0.0
  0
ARC
  5
22DE
  8
0
 10
577.7986481419015945
 20
21.6355828341824186
 30
0.0
 40
0.1699871729219892
 50
63.7148569438495329
 51
116.2851430561504031
  0
ARC
  5
22DF
  8
0
 10
577.8060945852585064
 20
21.6509267235076415
 30
0.0
 40
0.1529322943733091
 50
33.9279699221962403
 51
63.6705070413612191
  0
ARC
  5
22E0
  8
0
 10
577.8218128833207174
 20
21.6609922380874593
 30
0.0
 40
0.1342727871498452
 50
325.8922081312114187
 51
34.1077918687886523
  0
ARC
  5
22E1
  8
0
 10
577.7986481419015945
 20
21.6942120477466709
 30
0.0
 40
0.1770237851287995
 50
244.8343923247902865
 51
295.1656076752095146
  0
ARC
  5
22E2
  8
0
 10
577.8060945852585064
 20
21.6710577526672701
 30
0.0
 40
0.1529322943733091
 50
296.3294929586388093
 51
326.0720300778037881
  0
ARC
  5
22E3
  8
0
 10
577.7912016985447963
 20
21.6509267235076415
 30
0.0
 40
0.1529322943733091
 50
116.3294929586387951
 51
146.0720300778037881
  0
ARC
  5
22E4
  8
0
 10
577.7751210205872212
 20
21.6609922380874593
 30
0.0
 40
0.1339728964712807
 50
145.8053039906073991
 51
214.1946960093924872
  0
ARC
  5
22E5
  8
0
 10
577.7912016985447963
 20
21.6710577526672701
 30
0.0
 40
0.1529322943733091
 50
213.9279699221960982
 51
243.6705070413611907
  0
ARC
  5
22E6
  8
0
 10
577.8025800235034239
 20
21.5157199787054196
 30
0.0
 40
0.1591372603628494
 50
291.6287557024442094
 51
311.3569552371665168
  0
ARC
  5
22E7
  8
0
 10
577.8121056732067018
 20
21.5052294477201187
 30
0.0
 40
0.1449690964243248
 50
311.2706268325762835
 51
335.970055577044775
  0
ARC
  5
22E8
  8
0
 10
577.8229021420753497
 20
21.5005046169664986
 30
0.0
 40
0.1331843350338525
 50
335.9351531310725818
 51
359.8005882306317744
  0
ARC
  5
22E9
  8
0
 10
577.7947161674362633
 20
21.5157199787054196
 30
0.0
 40
0.1591372603628494
 50
228.6430447628335116
 51
248.3712442975557906
  0
ARC
  5
22EA
  8
0
 10
577.7851905177332128
 20
21.5052294477201187
 30
0.0
 40
0.1449690964243248
 50
204.0299444229551966
 51
228.7293731674236881
  0
ARC
  5
22EB
  8
0
 10
577.7757211563821329
 20
21.5009383438049007
 30
0.0
 40
0.1345730355669729
 50
179.9873098423879867
 51
204.0030581365803926
  0
ARC
  5
22EC
  8
0
 10
577.7986480954698436
 20
21.5258757763630904
 30
0.0
 40
0.1700273014517568
 50
248.4009826895654953
 51
291.5990173104344763
  0
ARC
  5
22ED
  8
0
 10
577.7986483970302061
 20
21.6666274400145191
 30
0.0
 40
0.1142576230229757
 50
66.0328067263803433
 51
113.9671932736195998
  0
ARC
  5
22EE
  8
0
 10
577.8035832254962543
 20
21.6783141544652302
 30
0.0
 40
0.1015742429672211
 50
27.4545976625977808
 51
65.8985772665602525
  0
ARC
  5
22EF
  8
0
 10
577.8157917579043215
 20
21.6859800963850589
 30
0.0
 40
0.0872142306118063
 50
333.3166155629492096
 51
26.6833844370507407
  0
ARC
  5
22F0
  8
0
 10
577.7986483970302061
 20
21.7046814315735013
 30
0.0
 40
0.1136627678556294
 50
245.8994378951720989
 51
294.1005621048281
  0
ARC
  5
22F1
  8
0
 10
577.8035832254962543
 20
21.693646038304891
 30
0.0
 40
0.1015742429672211
 50
294.1014227334397901
 51
332.5454023374023222
  0
ARC
  5
22F2
  8
0
 10
577.7937135685640442
 20
21.6783141544652302
 30
0.0
 40
0.1015742429672211
 50
114.1014227334397049
 51
152.5454023374022086
  0
ARC
  5
22F3
  8
0
 10
577.7815050361558633
 20
21.6859800963850589
 30
0.0
 40
0.0872142306118063
 50
153.3166155629492096
 51
206.6833844370507052
  0
ARC
  5
22F4
  8
0
 10
577.7937135685640442
 20
21.693646038304891
 30
0.0
 40
0.1015742429672211
 50
207.4545976625977062
 51
245.8985772665602099
  0
ENDSEC
  0
EOF
