  0
SECTION
  2
HEADER
  9
$ACADVER
  1
AC1009
  9
$INSBASE
 10
583.3223596313945336
 20
19.8881399211826704
 30
0.0
  9
$EXTMIN
 10
576.6501355727750706
 20
19.8864926281113803
 30
-0.0000000349181948
  9
$EXTMAX
 10
584.5894109073575464
 20
24.6593561692933889
 30
0.0000000814935746
  9
$LIMMIN
 10
0.0
 20
0.0
  9
$LIMMAX
 10
11.6929133858000007
 20
8.2677165353999982
  9
$ORTHOMODE
 70
     1
  9
$REGENMODE
 70
     1
  9
$FILLMODE
 70
     1
  9
$QTEXTMODE
 70
     0
  9
$MIRRTEXT
 70
     0
  9
$DRAGMODE
 70
     2
  9
$LTSCALE
 40
0.6431102362
  9
$OSMODE
 70
  4095
  9
$ATTMODE
 70
     1
  9
$TEXTSIZE
 40
0.2
  9
$TRACEWID
 40
0.05
  9
$TEXTSTYLE
  7
STANDARD
  9
$CLAYER
  8
0
  9
$CELTYPE
  6
BYLAYER
  9
$CECOLOR
 62
   256
  9
$DIMSCALE
 40
1.0
  9
$DIMASZ
 40
0.1875
  9
$DIMEXO
 40
0.0625
  9
$DIMDLI
 40
0.4443307087
  9
$DIMRND
 40
0.0
  9
$DIMDLE
 40
0.0
  9
$DIMEXE
 40
0.125
  9
$DIMTP
 40
0.01
  9
$DIMTM
 40
0.01
  9
$DIMTXT
 40
2.0
  9
$DIMCEN
 40
0.1052362205
  9
$DIMTSZ
 40
0.0
  9
$DIMTOL
 70
     1
  9
$DIMLIM
 70
     0
  9
$DIMTIH
 70
     1
  9
$DIMTOH
 70
     1
  9
$DIMSE1
 70
     0
  9
$DIMSE2
 70
     0
  9
$DIMTAD
 70
     0
  9
$DIMZIN
 70
     0
  9
$DIMBLK
  1

  9
$DIMASO
 70
     1
  9
$DIMSHO
 70
     1
  9
$DIMPOST
  1
\X
  9
$DIMAPOST
  1

  9
$DIMALT
 70
     1
  9
$DIMALTD
 70
     2
  9
$DIMALTF
 40
25.3999999999999986
  9
$DIMLFAC
 40
1.0
  9
$DIMTOFL
 70
     0
  9
$DIMTVP
 40
0.0
  9
$DIMTIX
 70
     0
  9
$DIMSOXD
 70
     0
  9
$DIMSAH
 70
     0
  9
$DIMBLK1
  1

  9
$DIMBLK2
  1

  9
$DIMSTYLE
  2
STANDARD
  9
$DIMCLRD
 70
     0
  9
$DIMCLRE
 70
     0
  9
$DIMCLRT
 70
     0
  9
$DIMTFAC
 40
1.0
  9
$DIMGAP
 40
0.09
  9
$LUNITS
 70
     2
  9
$LUPREC
 70
     4
  9
$SKETCHINC
 40
0.1
  9
$FILLETRAD
 40
0.0
  9
$AUNITS
 70
     0
  9
$AUPREC
 70
     0
  9
$MENU
  1
.
  9
$ELEVATION
 40
0.0
  9
$PELEVATION
 40
0.0
  9
$THICKNESS
 40
0.0
  9
$LIMCHECK
 70
     0
  9
$BLIPMODE
 70
     0
  9
$CHAMFERA
 40
0.0
  9
$CHAMFERB
 40
0.0
  9
$SKPOLY
 70
     0
  9
$TDCREATE
 40
2458106.4931018520146608
  9
$TDUPDATE
 40
2460154.8701157411560416
  9
$TDINDWG
 40
0.2104846759
  9
$TDUSRTIMER
 40
0.2104846759
  9
$USRTIMER
 70
     1
  9
$ANGBASE
 50
0.0
  9
$ANGDIR
 70
     0
  9
$PDMODE
 70
     0
  9
$PDSIZE
 40
0.3125
  9
$PLINEWID
 40
0.0
  9
$COORDS
 70
     1
  9
$SPLFRAME
 70
     0
  9
$SPLINETYPE
 70
     6
  9
$SPLINESEGS
 70
     8
  9
$ATTDIA
 70
     1
  9
$ATTREQ
 70
     1
  9
$HANDLING
 70
     1
  9
$HANDSEED
  5
1FD7
  9
$SURFTAB1
 70
     6
  9
$SURFTAB2
 70
     6
  9
$SURFTYPE
 70
     6
  9
$SURFU
 70
     6
  9
$SURFV
 70
     6
  9
$UCSNAME
  2

  9
$UCSORG
 10
0.0
 20
0.0
 30
0.0
  9
$UCSXDIR
 10
1.0
 20
0.0
 30
0.0
  9
$UCSYDIR
 10
0.0
 20
1.0
 30
0.0
  9
$PUCSNAME
  2

  9
$PUCSORG
 10
0.0
 20
0.0
 30
0.0
  9
$PUCSXDIR
 10
1.0
 20
0.0
 30
0.0
  9
$PUCSYDIR
 10
0.0
 20
1.0
 30
0.0
  9
$USERI1
 70
     0
  9
$USERI2
 70
     0
  9
$USERI3
 70
     0
  9
$USERI4
 70
     0
  9
$USERI5
 70
     0
  9
$USERR1
 40
0.0
  9
$USERR2
 40
0.0
  9
$USERR3
 40
0.0
  9
$USERR4
 40
0.0
  9
$USERR5
 40
0.0
  9
$WORLDVIEW
 70
     1
  9
$SHADEDGE
 70
     3
  9
$SHADEDIF
 70
    70
  9
$TILEMODE
 70
     1
  9
$MAXACTVP
 70
    64
  9
$PLIMCHECK
 70
     0
  9
$PEXTMIN
 10
1.0000000000000000E+20
 20
1.0000000000000000E+20
 30
1.0000000000000000E+20
  9
$PEXTMAX
 10
-1.0000000000000000E+20
 20
-1.0000000000000000E+20
 30
-1.0000000000000000E+20
  9
$PLIMMIN
 10
0.0
 20
0.0
  9
$PLIMMAX
 10
12.0
 20
9.0
  9
$UNITMODE
 70
     0
  9
$VISRETAIN
 70
     1
  9
$PLINEGEN
 70
     0
  9
$PSLTSCALE
 70
     1
  0
ENDSEC
  0
SECTION
  2
TABLES
  0
TABLE
  2
VPORT
 70
     1
  0
VPORT
  2
*ACTIVE
 70
     0
 10
0.0
 20
0.0
 11
1.0
 21
1.0
 12
307.0455716835533053
 22
39.8788851327238731
 13
0.0
 23
0.0
 14
1.0
 24
1.0
 15
0.0
 25
0.0
 16
-0.0000000000000568
 26
0.0
 36
193.9250709296327955
 17
273.5742015565131169
 27
-17.6059607340214797
 37
0.0
 40
5.5787507765464239
 41
1.4307692307692299
 42
50.0
 43
0.0
 44
0.0
 50
0.0
 51
0.0
 71
     0
 72
   100
 73
     1
 74
     1
 75
     0
 76
     0
 77
     0
 78
     0
  0
ENDTAB
  0
TABLE
  2
LTYPE
 70
     2
  0
LTYPE
  2
CONTINUOUS
 70
     0
  3
Solid line
 72
    65
 73
     0
 40
0.0
  0
LTYPE
  2
PHANTOM2
 70
     0
  3
___ _ _ ___ _ _ ___ _ _ ___ _ _
 72
    65
 73
     6
 40
1.25
 49
0.625
 49
-0.125
 49
0.125
 49
-0.125
 49
0.125
 49
-0.125
  0
ENDTAB
  0
TABLE
  2
LAYER
 70
     2
  0
LAYER
  2
0
 70
     0
 62
   255
  6
CONTINUOUS
  0
LAYER
  2
DEFPOINTS
 70
     0
 62
     7
  6
CONTINUOUS
  0
ENDTAB
  0
TABLE
  2
STYLE
 70
     1
  0
STYLE
  2
STANDARD
 70
     0
 40
0.0
 41
0.8
 50
0.0
 71
     0
 42
0.2
  3
txt
  4

  0
ENDTAB
  0
TABLE
  2
VIEW
 70
     0
  0
ENDTAB
  0
TABLE
  2
UCS
 70
     0
  0
ENDTAB
  0
TABLE
  2
APPID
 70
     9
  0
APPID
  2
ACAD
 70
     0
  0
APPID
  2
ACAD_MLEADERVER
 70
     0
  0
APPID
  2
ACAD_EXEMPT_FROM_CAD_STANDARDS
 70
     0
  0
APPID
  2
ACAD_NAV_VCDISPLAY
 70
     0
  0
APPID
  2
ACAD_DSTYLE_DIMJAG
 70
     0
  0
APPID
  2
ACAD_DSTYLE_DIMTALN
 70
     0
  0
APPID
  2
ACAECLAYERSTANDARD
 70
     0
  0
APPID
  2
ACCMTRANSPARENCY
 70
     0
  0
APPID
  2
ACDBATTR
 70
     0
  0
ENDTAB
  0
TABLE
  2
DIMSTYLE
 70
     1
  0
DIMSTYLE
  2
STANDARD
 70
     0
  3

  4

  5

  6

  7

 40
1.0
 41
0.1875
 42
0.0625
 43
0.38
 44
0.125
 45
0.0
 46
0.0
 47
0.01
 48
0.01
140
0.15625
141
0.09
142
0.0
143
25.3999999999999986
144
1.0
145
0.0
146
1.0
147
0.09
 71
     1
 72
     0
 73
     1
 74
     1
 75
     0
 76
     0
 77
     0
 78
     4
170
     0
171
     2
172
     0
173
     0
174
     0
175
     0
176
     0
177
     0
178
     0
  0
ENDTAB
  0
ENDSEC
  0
SECTION
  2
BLOCKS
  0
BLOCK
  8
0
  2
$MODEL_SPACE
 70
     0
 10
0.0
 20
0.0
 30
0.0
  3
$MODEL_SPACE
  1

  0
ENDBLK
  5
21
  8
0
  0
BLOCK
 67
     1
  8
0
  2
$PAPER_SPACE
 70
     0
 10
0.0
 20
0.0
 30
0.0
  3
$PAPER_SPACE
  1

  0
ENDBLK
  5
1D
 67
     1
  8
0
  0
ENDSEC
  0
SECTION
  2
ENTITIES
  0
ATTDEF
  5
FAA
  8
DEFPOINTS
 10
583.3225324722236564
 20
19.8916801253249496
 30
0.0
 40
0.001
  1
K-73050T-B7
  3

  2
MODELNUMBER
 70
     0
1001
ACDBATTR
1070
     0
1070
     1
  0
ATTDEF
  5
FAB
  8
DEFPOINTS
 10
583.3225324722236564
 20
19.8900134586582915
 30
0.0
 40
0.001
  1
COMPOSED
  3

  2
TRADENAME
 70
     0
1001
ACDBATTR
1070
     0
1070
     1
  0
ATTDEF
  5
FAC
  8
DEFPOINTS
 10
583.3225324722236564
 20
19.8883467919916193
 30
0.0
 40
0.001
  1
BATHROOM SINK FAUCET
  3

  2
PRODUCT
 70
     0
1001
ACDBATTR
1070
     0
1070
     1
  0
LINE
  5
1EDE
  8
0
 10
584.3464926769072463
 20
21.8419203853105586
 30
0.0
 11
583.9953442090203453
 21
21.0713953964551095
 31
0.0
  0
ARC
  5
1EDF
  8
0
 10
582.6648390289051349
 20
23.8677739301910599
 30
0.0
 40
0.0314977468391321
 50
88.0364027737563362
 51
180.0010497931380087
  0
ARC
  5
1EE0
  8
0
 10
583.9793333194772913
 20
23.8850636894537693
 30
0.0
 40
0.0316565619710809
 50
268.1234418035219846
 51
359.7502256983253233
  0
ARC
  5
1EE1
  8
0
 10
583.9797206926151603
 20
23.8217843536971685
 30
0.0
 40
0.0316564061252775
 50
0.1220315869347788
 51
88.5163354606105344
  0
LINE
  5
1EE2
  8
0
 10
576.6936417275912845
 20
24.1393240886320903
 30
0.0
 11
576.7106792771912751
 21
24.6272156735320884
 31
0.0
  0
LINE
  5
1EE3
  8
0
 10
584.0109895806444911
 20
23.8849256867826689
 30
0.0
 11
584.0105130857326685
 21
24.3734239565002788
 31
0.0
  0
LINE
  5
1EE4
  8
0
 10
576.7240194072913937
 20
24.106748015432089
 30
0.0
 11
583.9782966853446169
 21
23.8534241049826683
 31
0.0
  0
LINE
  5
1EE5
  8
0
 10
576.7432553503913368
 20
24.657593353232091
 30
0.0
 11
583.9801077168325492
 21
24.4048758226002818
 31
0.0
  0
ARC
  5
1EE6
  8
0
 10
576.7251186040913353
 20
24.1382248919320901
 30
0.0
 40
0.031496063
 50
177.9999999999998863
 51
268.000000000002899
  0
ARC
  5
1EE7
  8
0
 10
576.7421561535913952
 20
24.6261164767320899
 30
0.0
 40
0.031496063
 50
88.0000000000028564
 51
177.9999999999998863
  0
ARC
  5
1EE8
  8
0
 10
583.9790005577766578
 20
24.3733827230831608
 30
0.0
 40
0.0315125549324413
 50
0.0749701652272117
 51
87.9865612528374754
  0
LINE
  5
1EE9
  8
0
 10
582.3184226235446204
 20
19.8881399211826704
 30
0.0
 11
584.3262966392444469
 21
19.8881399211826704
 31
0.0
  0
LINE
  5
1EEA
  8
0
 10
582.3381076628445498
 20
20.0456202361826712
 30
0.0
 11
584.3066115998444729
 21
20.0456202361826712
 31
0.0
  0
LINE
  5
1EEB
  8
0
 10
582.3184226235446204
 20
19.8881399211826704
 30
0.0
 11
582.3184226235446204
 21
20.0259351967826689
 31
0.0
  0
LINE
  5
1EEC
  8
0
 10
582.6333412820712283
 20
23.8677733530784195
 30
0.0
 11
582.6333832534445492
 21
20.0653052754826717
 31
0.0
  0
LINE
  5
1EED
  8
0
 10
584.0113360093446317
 20
21.1064861996151905
 30
0.0
 11
584.0113360093446317
 21
20.0653052754826717
 31
0.0
  0
LINE
  5
1EEE
  8
0
 10
584.0112990400275521
 20
21.53362533646591
 30
0.0
 11
584.011377026939499
 21
23.8218517771372191
 31
0.0
  0
LINE
  5
1EEF
  8
0
 10
584.3262966392444469
 20
19.8881399211826704
 30
0.0
 11
584.3262966392444469
 21
20.0259351967826689
 31
0.0
  0
ARC
  5
1EF0
  8
0
 10
584.3066115998444729
 20
20.0259351967826689
 30
0.0
 40
0.0196850394
 50
0.0
 51
90.0
  0
ARC
  5
1EF1
  8
0
 10
582.3381076628445498
 20
20.0259351967826689
 30
0.0
 40
0.0196850394
 50
90.0
 51
180.0
  0
ARC
  5
1EF2
  8
0
 10
582.6530682927445923
 20
20.0653052754826717
 30
0.0
 40
0.0196850394
 50
180.0
 51
270.0
  0
ARC
  5
1EF3
  8
0
 10
583.9916509699445442
 20
20.0653052754826717
 30
0.0
 40
0.0196850394
 50
270.0
 51
0.0
  0
CIRCLE
  5
1EF4
  8
0
 10
583.3223596313446251
 20
22.8015257170826686
 30
0.0
 40
0.6692913386
  0
CIRCLE
  5
1EF5
  8
0
 10
583.3223596313446251
 20
22.8015257170826686
 30
0.0
 40
0.5525437000000001
  0
CIRCLE
  5
1EF6
  8
0
 10
583.3223596313446251
 20
22.8015257170826686
 30
0.0
 40
0.4332331051499914
  0
LINE
  5
1EF8
  8
0
 10
577.0792271959445543
 20
23.9564646182826699
 30
0.0
 11
577.6418763623445329
 21
23.9368164764826687
 31
0.0
  0
LINE
  5
1EF9
  8
0
 10
577.0094597101444833
 20
24.0455679209826698
 30
0.0
 11
577.71768943014456
 21
24.0208359941826686
 31
0.0
  0
ARC
  5
1EFA
  8
0
 10
577.1193728065444475
 20
24.2178588648826683
 30
0.0
 40
0.6299212598000002
 50
341.7735272385207281
 51
346.5691841187168052
  0
ARC
  5
1EFB
  8
0
 10
577.6200624852446026
 20
24.2003743959826707
 30
0.0
 40
0.6299212598000002
 50
189.430825574187196
 51
194.226472757322
  0
ARC
  5
1EFC
  8
0
 10
577.5310175089446147
 20
24.048666216082669
 30
0.0
 40
0.157480315
 50
314.7450784215009776
 51
350.2271807233992718
  0
ARC
  5
1EFD
  8
0
 10
577.1976182460446125
 20
24.0603087748826709
 30
0.0
 40
0.157480315
 50
185.772819276600103
 51
221.2549215784991077
  0
ARC
  5
1EFE
  8
0
 10
585.2178083628292597
 20
21.2836593903545186
 30
0.0
 40
1.2407556610607131
 50
168.186796336751911
 51
190.5275552569582089
  0
ARC
  5
1EFF
  8
0
 10
582.7834614035930372
 20
21.3109724458641097
 30
0.0
 40
1.2407556610607131
 50
348.1867963367517973
 51
349.8362905442052124
  0
ARC
  5
1F00
  8
0
 10
582.7834614035930372
 20
21.3109724458641097
 30
0.0
 40
1.2407556610607131
 50
9.8027932896891201
 51
10.5275552569581805
  0
LINE
  5
1F01
  8
0
 10
583.9961124874705547
 20
21.5003014882612895
 30
0.0
 11
584.185279065894747
 21
21.9153896605831804
 31
0.0
  0
LINE
  5
1F02
  8
0
 10
584.1407661966945852
 20
21.9356753437826697
 30
0.0
 11
584.3909559323946041
 21
21.8216573123826691
 31
0.0
  0
LINE
  5
1F03
  8
0
 10
584.4174986363944981
 20
21.831540062582679
 30
0.0
 11
584.577037649494514
 21
22.1816164760826702
 31
0.0
  0
LINE
  5
1F04
  8
0
 10
584.5775718678944486
 20
22.1969144885826708
 30
0.0
 11
584.5541534800945556
 21
22.2595498118826782
 31
0.0
  0
LINE
  5
1F05
  8
0
 10
584.543713901194451
 20
22.2707448896826783
 30
0.0
 11
584.3795282627945653
 21
22.3455685958826784
 31
0.0
  0
LINE
  5
1F06
  8
0
 10
584.364230250294554
 20
22.3461028141826716
 30
0.0
 11
584.3015949269945395
 21
22.3226844263826685
 31
0.0
  0
LINE
  5
1F07
  8
0
 10
584.290399849194614
 20
22.3122448474826705
 30
0.0
 11
584.1308608360945982
 21
21.9621684339826793
 31
0.0
  0
ARC
  5
1F08
  8
0
 10
584.3992993178090956
 20
21.8398340274184193
 30
0.0
 40
0.0200001262412991
 50
245.344165735588291
 51
335.4998500457430737
  0
ARC
  5
1F09
  8
0
 10
584.5588384240830919
 20
22.1899103409853886
 30
0.0
 40
0.0200000000150742
 50
335.49999986355499
 51
20.4999998985052905
  0
ARC
  5
1F0A
  8
0
 10
584.5354200362542088
 20
22.2525456642418185
 30
0.0
 40
0.0200000000574208
 50
20.4999999864052391
 51
65.4999998001637636
  0
ARC
  5
1F0B
  8
0
 10
584.3712343979882462
 20
22.3273693697238507
 30
0.0
 40
0.0200000006551575
 50
65.5000010025720059
 51
110.4999995076157973
  0
ARC
  5
1F0C
  8
0
 10
584.3085990739800764
 20
22.3039509832449099
 30
0.0
 40
0.0199999991697988
 50
110.4999989331182064
 51
155.5000008534366032
  0
ARC
  5
1F0D
  8
0
 10
584.1490600613731203
 20
21.953874569137259
 30
0.0
 40
0.0199999998703174
 50
155.4999998549592135
 51
245.5000003803658046
  0
LINE
  5
1F0E
  8
0
 10
584.3015949269945395
 20
22.3226844263826685
 30
0.0
 11
584.5775718678944486
 21
22.1969144885826708
 31
0.0
  0
ENDSEC
  0
EOF
