  0
SECTION
  2
HEADER
  9
$ACADVER
  1
AC1009
  9
$INSBASE
 10
3482.8121437321037774
 20
200.7252675471630141
 30
0.0
  9
$EXTMIN
 10
3481.8082153743039271
 20
200.7206740916500962
 30
0.0
  9
$EXTMAX
 10
3483.8160720899040825
 20
212.0874482737629876
 30
0.0
  9
$LIMMIN
 10
0.0
 20
0.0
  9
$LIMMAX
 10
11.6929133858000007
 20
8.2677165353999982
  9
$ORTHOMODE
 70
     0
  9
$REGENMODE
 70
     1
  9
$FILLMODE
 70
     1
  9
$QTEXTMODE
 70
     0
  9
$MIRRTEXT
 70
     0
  9
$DRAGMODE
 70
     2
  9
$LTSCALE
 40
0.6431102362
  9
$OSMODE
 70
  4095
  9
$ATTMODE
 70
     1
  9
$TEXTSIZE
 40
0.2
  9
$TRACEWID
 40
0.05
  9
$TEXTSTYLE
  7
STANDARD
  9
$CLAYER
  8
0
  9
$CELTYPE
  6
BYLAYER
  9
$CECOLOR
 62
   256
  9
$DIMSCALE
 40
1.0
  9
$DIMASZ
 40
0.1875
  9
$DIMEXO
 40
0.0625
  9
$DIMDLI
 40
0.4443307087
  9
$DIMRND
 40
0.0
  9
$DIMDLE
 40
0.0
  9
$DIMEXE
 40
0.125
  9
$DIMTP
 40
0.01
  9
$DIMTM
 40
0.01
  9
$DIMTXT
 40
2.0
  9
$DIMCEN
 40
0.1052362205
  9
$DIMTSZ
 40
0.0
  9
$DIMTOL
 70
     1
  9
$DIMLIM
 70
     0
  9
$DIMTIH
 70
     1
  9
$DIMTOH
 70
     1
  9
$DIMSE1
 70
     0
  9
$DIMSE2
 70
     0
  9
$DIMTAD
 70
     0
  9
$DIMZIN
 70
     0
  9
$DIMBLK
  1

  9
$DIMASO
 70
     1
  9
$DIMSHO
 70
     1
  9
$DIMPOST
  1
\X
  9
$DIMAPOST
  1

  9
$DIMALT
 70
     1
  9
$DIMALTD
 70
     2
  9
$DIMALTF
 40
25.3999999999999986
  9
$DIMLFAC
 40
1.0
  9
$DIMTOFL
 70
     0
  9
$DIMTVP
 40
0.0
  9
$DIMTIX
 70
     0
  9
$DIMSOXD
 70
     0
  9
$DIMSAH
 70
     0
  9
$DIMBLK1
  1

  9
$DIMBLK2
  1

  9
$DIMSTYLE
  2
STANDARD
  9
$DIMCLRD
 70
     0
  9
$DIMCLRE
 70
     0
  9
$DIMCLRT
 70
     0
  9
$DIMTFAC
 40
1.0
  9
$DIMGAP
 40
0.09
  9
$LUNITS
 70
     2
  9
$LUPREC
 70
     4
  9
$SKETCHINC
 40
0.1
  9
$FILLETRAD
 40
0.0
  9
$AUNITS
 70
     0
  9
$AUPREC
 70
     0
  9
$MENU
  1
.
  9
$ELEVATION
 40
0.0
  9
$PELEVATION
 40
0.0
  9
$THICKNESS
 40
0.0
  9
$LIMCHECK
 70
     0
  9
$BLIPMODE
 70
     0
  9
$CHAMFERA
 40
0.0
  9
$CHAMFERB
 40
0.0
  9
$SKPOLY
 70
     0
  9
$TDCREATE
 40
2458060.468368056230247
  9
$TDUPDATE
 40
2459015.4055092590861022
  9
$TDINDWG
 40
0.6937686343
  9
$TDUSRTIMER
 40
0.6937686343
  9
$USRTIMER
 70
     1
  9
$ANGBASE
 50
0.0
  9
$ANGDIR
 70
     0
  9
$PDMODE
 70
     0
  9
$PDSIZE
 40
0.3125
  9
$PLINEWID
 40
0.0
  9
$COORDS
 70
     1
  9
$SPLFRAME
 70
     0
  9
$SPLINETYPE
 70
     6
  9
$SPLINESEGS
 70
     8
  9
$ATTDIA
 70
     1
  9
$ATTREQ
 70
     1
  9
$HANDLING
 70
     1
  9
$HANDSEED
  5
A695
  9
$SURFTAB1
 70
     6
  9
$SURFTAB2
 70
     6
  9
$SURFTYPE
 70
     6
  9
$SURFU
 70
     6
  9
$SURFV
 70
     6
  9
$UCSNAME
  2

  9
$UCSORG
 10
0.0
 20
0.0
 30
0.0
  9
$UCSXDIR
 10
1.0
 20
0.0
 30
0.0
  9
$UCSYDIR
 10
0.0
 20
1.0
 30
0.0
  9
$PUCSNAME
  2

  9
$PUCSORG
 10
0.0
 20
0.0
 30
0.0
  9
$PUCSXDIR
 10
1.0
 20
0.0
 30
0.0
  9
$PUCSYDIR
 10
0.0
 20
1.0
 30
0.0
  9
$USERI1
 70
     0
  9
$USERI2
 70
     0
  9
$USERI3
 70
     0
  9
$USERI4
 70
     0
  9
$USERI5
 70
     0
  9
$USERR1
 40
0.0
  9
$USERR2
 40
0.0
  9
$USERR3
 40
0.0
  9
$USERR4
 40
0.0
  9
$USERR5
 40
0.0
  9
$WORLDVIEW
 70
     1
  9
$SHADEDGE
 70
     3
  9
$SHADEDIF
 70
    70
  9
$TILEMODE
 70
     1
  9
$MAXACTVP
 70
    64
  9
$PLIMCHECK
 70
     0
  9
$PEXTMIN
 10
1.0000000000000000E+20
 20
1.0000000000000000E+20
 30
1.0000000000000000E+20
  9
$PEXTMAX
 10
-1.0000000000000000E+20
 20
-1.0000000000000000E+20
 30
-1.0000000000000000E+20
  9
$PLIMMIN
 10
0.0
 20
0.0
  9
$PLIMMAX
 10
12.0
 20
9.0
  9
$UNITMODE
 70
     0
  9
$VISRETAIN
 70
     1
  9
$PLINEGEN
 70
     0
  9
$PSLTSCALE
 70
     1
  0
ENDSEC
  0
SECTION
  2
TABLES
  0
TABLE
  2
VPORT
 70
     1
  0
VPORT
  2
*ACTIVE
 70
     0
 10
0.0
 20
0.0
 11
1.0
 21
1.0
 12
210.7828163074208021
 22
13.2621420373863099
 13
0.0
 23
0.0
 14
1.0
 24
1.0
 15
0.0
 25
0.0
 16
0.0
 26
0.0
 36
116.782910842256598
 17
3270.0277271544828182
 27
193.0425872802734091
 37
0.0
 40
29.3410966090763914
 41
2.6486111111111108
 42
50.0
 43
0.0
 44
0.0
 50
0.0
 51
0.0
 71
     0
 72
   100
 73
     1
 74
     1
 75
     0
 76
     0
 77
     0
 78
     0
  0
ENDTAB
  0
TABLE
  2
LTYPE
 70
     2
  0
LTYPE
  2
CONTINUOUS
 70
     0
  3
Solid line
 72
    65
 73
     0
 40
0.0
  0
LTYPE
  2
PHANTOM2
 70
     0
  3
___ _ _ ___ _ _ ___ _ _ ___ _ _
 72
    65
 73
     6
 40
1.25
 49
0.625
 49
-0.125
 49
0.125
 49
-0.125
 49
0.125
 49
-0.125
  0
ENDTAB
  0
TABLE
  2
LAYER
 70
     2
  0
LAYER
  2
0
 70
     0
 62
   255
  6
CONTINUOUS
  0
LAYER
  2
DEFPOINTS
 70
     0
 62
     7
  6
CONTINUOUS
  0
ENDTAB
  0
TABLE
  2
STYLE
 70
     1
  0
STYLE
  2
STANDARD
 70
     0
 40
0.0
 41
0.8
 50
0.0
 71
     0
 42
0.2
  3
txt
  4

  0
ENDTAB
  0
TABLE
  2
VIEW
 70
     0
  0
ENDTAB
  0
TABLE
  2
UCS
 70
     0
  0
ENDTAB
  0
TABLE
  2
APPID
 70
     9
  0
APPID
  2
ACAD
 70
     0
  0
APPID
  2
ACAD_MLEADERVER
 70
     0
  0
APPID
  2
ACAD_EXEMPT_FROM_CAD_STANDARDS
 70
     0
  0
APPID
  2
ACAD_NAV_VCDISPLAY
 70
     0
  0
APPID
  2
ACAECLAYERSTANDARD
 70
     0
  0
APPID
  2
ACCMTRANSPARENCY
 70
     0
  0
APPID
  2
ACAD_DSTYLE_DIMJAG
 70
     0
  0
APPID
  2
ACAD_DSTYLE_DIMTALN
 70
     0
  0
APPID
  2
ACDBATTR
 70
     0
  0
ENDTAB
  0
TABLE
  2
DIMSTYLE
 70
     1
  0
DIMSTYLE
  2
STANDARD
 70
     0
  3

  4

  5

  6

  7

 40
1.0
 41
0.1875
 42
0.0625
 43
0.38
 44
0.125
 45
0.0
 46
0.0
 47
0.01
 48
0.01
140
0.15625
141
0.09
142
0.0
143
25.3999999999999986
144
1.0
145
0.0
146
1.0
147
0.09
 71
     1
 72
     0
 73
     1
 74
     1
 75
     0
 76
     0
 77
     0
 78
     4
170
     0
171
     2
172
     0
173
     0
174
     0
175
     0
176
     0
177
     0
178
     0
  0
ENDTAB
  0
ENDSEC
  0
SECTION
  2
BLOCKS
  0
BLOCK
  8
0
  2
$MODEL_SPACE
 70
     0
 10
0.0
 20
0.0
 30
0.0
  3
$MODEL_SPACE
  1

  0
ENDBLK
  5
21
  8
0
  0
BLOCK
 67
     1
  8
0
  2
$PAPER_SPACE
 70
     0
 10
0.0
 20
0.0
 30
0.0
  3
$PAPER_SPACE
  1

  0
ENDBLK
  5
1D
 67
     1
  8
0
  0
BLOCK
  8
0
  2
_FILLED
 70
     0
 10
0.0
 20
0.0
 30
0.0
  3
_FILLED
  1

  0
SOLID
  5
A248
  8
0
  6
BYBLOCK
 62
     0
 10
0.0
 20
0.0
 30
0.0
 11
-1.0
 21
0.1666666667
 31
0.0
 12
-1.0
 22
-0.1666666667
 32
0.0
 13
-1.0
 23
-0.1666666667
 33
0.0
  0
ENDBLK
  5
A249
  8
0
  6
BYBLOCK
 62
     0
  0
ENDSEC
  0
SECTION
  2
ENTITIES
  0
ATTDEF
  5
3930
  8
DEFPOINTS
 10
3482.8122103666742078
 20
200.7240074249833981
 30
0.0
 40
0.001
  1
K-73053IN-4
  3

  2
MODELNUMBER
 70
     0
1001
ACDBATTR
1070
     0
1070
     1
  0
ATTDEF
  5
3931
  8
DEFPOINTS
 10
3482.8122103666742078
 20
200.7223407583167045
 30
0.0
 40
0.001
  1
COMPOSED
  3

  2
TRADENAME
 70
     0
1001
ACDBATTR
1070
     0
1070
     1
  0
ATTDEF
  5
3932
  8
DEFPOINTS
 10
3482.8122103666742078
 20
200.7206740916500962
 30
0.0
 40
0.001
  1
BATHROOM SINK FAUCET
  3

  2
PRODUCT
 70
     0
1001
ACDBATTR
1070
     0
1070
     1
  0
LINE
  5
A368
  8
0
 10
3481.8082153743039271
 20
200.7252675471630141
 30
0.0
 11
3481.8082153743039271
 21
200.8624793158697912
 31
0.0
  0
ARC
  5
A369
  8
0
 10
3481.8284928310199575
 20
200.8624793158697912
 30
0.0
 40
0.0202774567161894
 50
91.6986189105399347
 51
180.0
  0
ARC
  5
A36A
  8
0
 10
3481.9971831022039623
 20
200.9142439251629924
 30
0.0
 40
0.0314960629999996
 50
180.0
 51
270.0
  0
LINE
  5
A36B
  8
0
 10
3481.9656870392041128
 20
200.9142439251629924
 30
0.0
 11
3481.9656870392050223
 21
208.3827382691596029
 31
0.0
  0
ARC
  5
A36C
  8
0
 10
3482.0009161980678982
 20
208.382149971605287
 30
0.0
 40
0.0352340705604679
 50
96.010887472993133
 51
179.0432972182524907
  0
ARC
  5
A36D
  8
0
 10
3482.7788048140191677
 20
191.1540916404593986
 30
0.0
 40
17.288625830041159
 50
89.8895121739086136
 51
91.9232148227760746
  0
ARC
  5
A36E
  8
0
 10
3482.2563816923111517
 20
206.4039184716592956
 30
0.0
 40
2.029882984972045
 50
91.6312789512982562
 51
97.3349699196883336
  0
ARC
  5
A36F
  8
0
 10
3481.9974073965690877
 20
209.2010810030747052
 30
0.0
 40
0.0317205558061914
 50
103.1308812093198952
 51
180.2026670210530028
  0
ARC
  5
A370
  8
0
 10
3482.1289158446220426
 20
207.1695407794661037
 30
0.0
 40
2.067090959330474
 50
90.377586823331157
 51
93.8477932373671848
  0
ARC
  5
A371
  8
0
 10
3481.9970090147130577
 20
208.7130190585646972
 30
0.0
 40
0.0313220302252849
 50
179.8929043376186883
 51
270.3798767322920185
  0
ARC
  5
A372
  8
0
 10
3482.0968882447591568
 20
207.4915866921419934
 30
0.0
 40
1.194277468380796
 50
89.1169661852832178
 51
94.7873382388296761
  0
LINE
  5
A373
  8
0
 10
3482.5303690997288868
 20
208.5265017507446998
 30
0.0
 11
3482.8121437321037774
 21
208.5265017507446998
 31
0.0
  0
ARC
  5
A374
  8
0
 10
3482.8579202332011846
 20
216.9564343838908087
 30
0.0
 40
8.4405251891039228
 50
268.2789512975941761
 51
269.6892594817553004
  0
ARC
  5
A375
  8
0
 10
3482.6081108049661452
 20
208.9874856807344941
 30
0.0
 40
0.4678754890029837
 50
260.4890606870415013
 51
269.9527918854681729
  0
ARC
  5
A376
  8
0
 10
3482.5355623781210852
 20
208.5215572691213026
 30
0.0
 40
0.006540640961408
 50
95.8905024315009484
 51
136.7166803967130022
  0
ARC
  5
A377
  8
0
 10
3482.6386996633182207
 20
207.6037559141576025
 30
0.0
 40
0.9301185372277886
 50
90.6006423463646939
 51
96.408009729180236
  0
ARC
  5
A378
  8
0
 10
3482.8041445553972153
 20
202.0596588743601103
 30
0.0
 40
6.4765344875836552
 50
89.9292338854439492
 51
91.6660713684701847
  0
LINE
  5
A379
  8
0
 10
3482.8082067243040001
 20
208.5193583190448123
 30
0.0
 11
3482.8082067243040001
 21
208.5173657266448117
 31
0.0
  0
ARC
  5
A37A
  8
0
 10
3482.8115273650992094
 20
215.6651929828975938
 30
0.0
 40
7.1478280275820048
 50
269.5311528092541948
 51
270.0049406935689831
  0
LINE
  5
A37B
  8
0
 10
3482.753037861697976
 20
208.5176042643240919
 30
0.0
 11
3482.7678218188038954
 21
208.5195298258446996
 31
0.0
  0
LINE
  5
A37C
  8
0
 10
3482.7678218188038954
 20
208.5195298258446996
 30
0.0
 11
3482.7678218188038954
 21
208.5195298258446996
 31
0.0
  0
LINE
  5
A37D
  8
0
 10
3482.7678218188038954
 20
208.5195298258446996
 30
0.0
 11
3482.8121437321037774
 21
208.5193415993421127
 31
0.0
  0
ARC
  5
A37E
  8
0
 10
3482.5616455291637976
 20
208.5376051341160917
 30
0.0
 40
0.0133133495568216
 50
236.5122432488446123
 51
267.8012970424881019
  0
LINE
  5
A37F
  8
0
 10
3482.5611347600038243
 20
208.524301586044686
 30
0.0
 11
3482.6163092392048384
 21
208.5248175386448111
 31
0.0
  0
ARC
  5
A380
  8
0
 10
3482.6194020043758428
 20
208.540817429366399
 30
0.0
 40
0.0162960639269226
 50
241.458902073282502
 51
259.0597029566583274
  0
LINE
  5
A381
  8
0
 10
3482.5669761757908418
 20
208.5237872246883057
 30
0.0
 11
3482.6203851297041183
 21
208.5242866674448123
 31
0.0
  0
LINE
  5
A382
  8
0
 10
3482.6203851297041183
 20
208.5242866674448123
 30
0.0
 11
3482.6363216678041681
 21
208.522980326644813
 31
0.0
  0
LINE
  5
A383
  8
0
 10
3482.6363216678041681
 20
208.522980326644813
 30
0.0
 11
3482.5876471778888117
 21
208.5219995729530922
 31
0.0
  0
LINE
  5
A384
  8
0
 10
3482.5876471778888117
 20
208.5219995729530922
 30
0.0
 11
3482.5669761757908418
 21
208.5237872246883057
 31
0.0
  0
LINE
  5
A385
  8
0
 10
3482.591655287831145
 20
208.5217071182248958
 30
0.0
 11
3482.6402586757039899
 21
208.5227423435447065
 31
0.0
  0
LINE
  5
A386
  8
0
 10
3482.6354918737251865
 20
208.5229636069296077
 30
0.0
 11
3482.6647070429039559
 21
208.5216075096448094
 31
0.0
  0
LINE
  5
A387
  8
0
 10
3482.712983891586191
 20
208.5232923473787991
 30
0.0
 11
3482.6243165209039034
 21
208.5201979007447051
 31
0.0
  0
LINE
  5
A388
  8
0
 10
3482.6243165209039034
 20
208.5201979007447051
 30
0.0
 11
3482.591655287831145
 21
208.5217071182248958
 31
0.0
  0
LINE
  5
A389
  8
0
 10
3482.6243626768678041
 20
208.5194222620237099
 30
0.0
 11
3482.6758425828038526
 21
208.5212188848446999
 31
0.0
  0
LINE
  5
A38A
  8
0
 10
3482.6629063710188348
 20
208.5215446671016934
 30
0.0
 11
3482.7151788811038386
 21
208.5202282495446866
 31
0.0
  0
LINE
  5
A38B
  8
0
 10
3482.7151788811038386
 20
208.5202282495446866
 30
0.0
 11
3482.6791974233369729
 21
208.5186124052424077
 31
0.0
  0
LINE
  5
A38C
  8
0
 10
3482.6798122031041203
 20
208.5186400135841893
 30
0.0
 11
3482.5640227590079121
 21
208.5216920382131036
 31
0.0
  0
LINE
  5
A38D
  8
0
 10
3482.6727846461649278
 20
208.5178828054216922
 30
0.0
 11
3482.7156000004301859
 21
208.5197993204714066
 31
0.0
  0
LINE
  5
A38E
  8
0
 10
3482.7156000004301859
 20
208.5197993204714066
 30
0.0
 11
3482.7526103885038538
 21
208.5196720724447061
 31
0.0
  0
LINE
  5
A38F
  8
0
 10
3482.7526103885038538
 20
208.5196720724447061
 30
0.0
 11
3482.7378264314038461
 21
208.5177465108448018
 31
0.0
  0
LINE
  5
A390
  8
0
 10
3482.7378264314038461
 20
208.5177465108448018
 30
0.0
 11
3482.5913820004439003
 21
208.5199093550837119
 31
0.0
  0
ARC
  5
A391
  8
0
 10
3482.6395793255678655
 20
208.6030450042370887
 30
0.0
 40
0.0799831835016217
 50
253.8275134385633862
 51
271.3308637937552135
  0
LINE
  5
A392
  8
0
 10
3482.6409477716711081
 20
208.5230735280827048
 30
0.0
 11
3482.694032344218158
 21
208.5241443350365103
 31
0.0
  0
ARC
  5
A393
  8
0
 10
3482.6911206824261171
 20
208.5902350475141986
 30
0.0
 40
0.0661548187980672
 50
255.3638676022690959
 51
275.6788244858295229
  0
LINE
  5
A394
  8
0
 10
3482.6803127428038351
 20
208.526226951544686
 30
0.0
 11
3482.617301614203825
 21
208.526226951544686
 31
0.0
  0
LINE
  5
A395
  8
0
 10
3482.7848673415041958
 20
208.526226951544686
 30
0.0
 11
3482.79509598800405
 21
208.5256086533447046
 31
0.0
  0
LINE
  5
A396
  8
0
 10
3482.79509598800405
 20
208.5256086533447046
 30
0.0
 11
3482.7772996963039986
 21
208.5245329084447121
 31
0.0
  0
LINE
  5
A397
  8
0
 10
3482.7772996963039986
 20
208.5245329084447121
 30
0.0
 11
3482.7492747580040486
 21
208.526226951544686
 31
0.0
  0
LINE
  5
A398
  8
0
 10
3482.7492747580040486
 20
208.526226951544686
 30
0.0
 11
3482.7848673415041958
 21
208.526226951544686
 31
0.0
  0
LINE
  5
A399
  8
0
 10
3482.674404711004172
 20
208.526226951544686
 30
0.0
 11
3482.7433586723041117
 21
208.526226951544686
 31
0.0
  0
ARC
  5
A39A
  8
0
 10
3482.7750033545607948
 20
208.7925164300282859
 30
0.0
 40
0.2681631448693593
 50
263.2230011519073969
 51
269.8586206831774916
  0
LINE
  5
A39B
  8
0
 10
3482.774341653402189
 20
208.5243541015445885
 30
0.0
 11
3482.7428186886040749
 21
208.5224486107447035
 31
0.0
  0
ARC
  5
A39C
  8
0
 10
3482.7423408421091153
 20
209.0334576527779973
 30
0.0
 40
0.5110092654512127
 50
262.7786481742560909
 51
270.0535774852561985
  0
LINE
  5
A39D
  8
0
 10
3482.7181322220039874
 20
208.5204067722447121
 30
0.0
 11
3482.7466837704041609
 21
208.5221326477447121
 31
0.0
  0
LINE
  5
A39E
  8
0
 10
3482.7466837704041609
 20
208.5221326477447121
 30
0.0
 11
3482.8121437321037774
 21
208.5215205125356022
 31
0.0
  0
LINE
  5
A39F
  8
0
 10
3482.8082067243040001
 20
208.5215573286446897
 30
0.0
 11
3482.8082067243040001
 21
208.5195644592446911
 31
0.0
  0
LINE
  5
A3A0
  8
0
 10
3482.7181322220039874
 20
208.5204067722447121
 30
0.0
 11
3482.8121437321037774
 21
208.5195276431340119
 31
0.0
  0
LINE
  5
A3A1
  8
0
 10
3482.8121437321037774
 20
208.5217614647860955
 30
0.0
 11
3482.7496377863039925
 21
208.5223112111447108
 31
0.0
  0
LINE
  5
A3A2
  8
0
 10
3482.7496377863039925
 20
208.5223112111447108
 30
0.0
 11
3482.7817518112478865
 21
208.5242067898101936
 31
0.0
  0
LINE
  5
A3A3
  8
0
 10
3482.773071395873103
 20
208.5242773173953879
 30
0.0
 11
3482.8121437321037774
 21
208.5239598582184897
 31
0.0
  0
LINE
  5
A3A4
  8
0
 10
3482.8121437321037774
 20
208.5241659576194024
 30
0.0
 11
3482.7645925935307787
 21
208.5245554471950982
 31
0.0
  0
LINE
  5
A3A5
  8
0
 10
3482.7841187939379779
 20
208.5243955088268137
 30
0.0
 11
3482.8121437321037774
 21
208.5260895519101894
 31
0.0
  0
LINE
  5
A3A6
  8
0
 10
3482.8019150856039232
 20
208.5254712537447972
 30
0.0
 11
3482.8121437321037774
 21
208.5254021622168921
 31
0.0
  0
LINE
  5
A3A7
  8
0
 10
3482.8082067243040001
 20
208.5336451824445874
 30
0.0
 11
3482.8082067243040001
 21
208.535637774844588
 31
0.0
  0
ARC
  5
A3A8
  8
0
 10
3482.8115273650919335
 20
201.3878105185916922
 30
0.0
 40
7.1478280275820048
 50
89.9950593063527862
 51
90.4688471906676028
  0
LINE
  5
A3A9
  8
0
 10
3482.753037861697976
 20
208.5353992371651941
 30
0.0
 11
3482.7678218188038954
 21
208.5334736756445864
 31
0.0
  0
LINE
  5
A3AA
  8
0
 10
3482.7678218188038954
 20
208.5334736756445864
 30
0.0
 11
3482.7678218188038954
 21
208.5334736756445864
 31
0.0
  0
LINE
  5
A3AB
  8
0
 10
3482.7678218188038954
 20
208.5334736756445864
 30
0.0
 11
3482.8121437321037774
 21
208.5336619021472018
 31
0.0
  0
ARC
  5
A3AC
  8
0
 10
3482.5616455291637976
 20
208.515398367373507
 30
0.0
 40
0.0133133495568216
 50
92.1987029574337384
 51
123.4877567510931016
  0
LINE
  5
A3AD
  8
0
 10
3482.5611347600038243
 20
208.5287019154449126
 30
0.0
 11
3482.6163092392048384
 21
208.5281859628447876
 31
0.0
  0
ARC
  5
A3AE
  8
0
 10
3482.6194020043758428
 20
208.5121860721231997
 30
0.0
 40
0.0162960639269226
 50
100.9402970432627029
 51
118.5410979266577982
  0
LINE
  5
A3AF
  8
0
 10
3482.5669761757908418
 20
208.5292162768012929
 30
0.0
 11
3482.6203851297041183
 21
208.5287168340447863
 31
0.0
  0
LINE
  5
A3B0
  8
0
 10
3482.6203851297041183
 20
208.5287168340447863
 30
0.0
 11
3482.6363216678041681
 21
208.5300231748448141
 31
0.0
  0
LINE
  5
A3B1
  8
0
 10
3482.6363216678041681
 20
208.5300231748448141
 30
0.0
 11
3482.5876471778888117
 21
208.5310039285365065
 31
0.0
  0
LINE
  5
A3B2
  8
0
 10
3482.5876471778888117
 20
208.5310039285365065
 30
0.0
 11
3482.5669761757908418
 21
208.5292162768012929
 31
0.0
  0
LINE
  5
A3B3
  8
0
 10
3482.591655287831145
 20
208.5312963832647029
 30
0.0
 11
3482.6402586757039899
 21
208.5302611579448069
 31
0.0
  0
LINE
  5
A3B4
  8
0
 10
3482.6354918737251865
 20
208.5300398945599056
 30
0.0
 11
3482.6647070429039559
 21
208.5313959918447893
 31
0.0
  0
LINE
  5
A3B5
  8
0
 10
3482.712983891586191
 20
208.5297111541106005
 30
0.0
 11
3482.6243165209039034
 21
208.5328056007448083
 31
0.0
  0
LINE
  5
A3B6
  8
0
 10
3482.6243165209039034
 20
208.5328056007448083
 30
0.0
 11
3482.591655287831145
 21
208.5312963832647029
 31
0.0
  0
LINE
  5
A3B7
  8
0
 10
3482.6243626768678041
 20
208.5335812394658035
 30
0.0
 11
3482.6758425828038526
 21
208.5317846166446998
 31
0.0
  0
LINE
  5
A3B8
  8
0
 10
3482.6629063710188348
 20
208.5314588343877062
 30
0.0
 11
3482.7151788811038386
 21
208.5327752519447131
 31
0.0
  0
LINE
  5
A3B9
  8
0
 10
3482.7151788811038386
 20
208.5327752519447131
 30
0.0
 11
3482.6791974233369729
 21
208.5343910962471057
 31
0.0
  0
LINE
  5
A3BA
  8
0
 10
3482.6798122031041203
 20
208.5343634879052956
 30
0.0
 11
3482.5729306208218077
 21
208.5315462602725916
 31
0.0
  0
LINE
  5
A3BB
  8
0
 10
3482.6767949048989976
 20
208.5349411875399142
 30
0.0
 11
3482.7156000004301859
 21
208.5332041810179931
 31
0.0
  0
LINE
  5
A3BC
  8
0
 10
3482.7156000004301859
 20
208.5332041810179931
 30
0.0
 11
3482.7526103885038538
 21
208.5333314290446936
 31
0.0
  0
LINE
  5
A3BD
  8
0
 10
3482.7526103885038538
 20
208.5333314290446936
 30
0.0
 11
3482.7378264314038461
 21
208.5352569906447115
 31
0.0
  0
LINE
  5
A3BE
  8
0
 10
3482.7378264314038461
 20
208.5352569906447115
 30
0.0
 11
3482.6065251133131824
 21
208.5333177957055
 31
0.0
  0
ARC
  5
A3BF
  8
0
 10
3482.6395793255678655
 20
208.4499584972523962
 30
0.0
 40
0.0799831835016217
 50
88.6691362061927038
 51
106.1724865613815041
  0
LINE
  5
A3C0
  8
0
 10
3482.6409477716711081
 20
208.5299299734068086
 30
0.0
 11
3482.694032344218158
 21
208.5288591664530031
 31
0.0
  0
ARC
  5
A3C1
  8
0
 10
3482.6911206824261171
 20
208.4627684539752011
 30
0.0
 40
0.0661548187980672
 50
84.3211755140921042
 51
104.6361323976767039
  0
LINE
  5
A3C2
  8
0
 10
3482.6803127428038351
 20
208.5267765499447137
 30
0.0
 11
3482.617301614203825
 21
208.5267765499447989
 31
0.0
  0
LINE
  5
A3C3
  8
0
 10
3482.7848673415041958
 20
208.5267765499446
 30
0.0
 11
3482.79509598800405
 21
208.5273948481446098
 31
0.0
  0
LINE
  5
A3C4
  8
0
 10
3482.79509598800405
 20
208.5273948481446098
 30
0.0
 11
3482.7772996963039986
 21
208.5284705930446023
 31
0.0
  0
LINE
  5
A3C5
  8
0
 10
3482.7772996963039986
 20
208.5284705930446023
 30
0.0
 11
3482.7492747580040486
 21
208.5267765499446
 31
0.0
  0
LINE
  5
A3C6
  8
0
 10
3482.7492747580040486
 20
208.5267765499446
 30
0.0
 11
3482.7848673415041958
 21
208.5267765499446
 31
0.0
  0
LINE
  5
A3C7
  8
0
 10
3482.674404711004172
 20
208.5267765499447137
 30
0.0
 11
3482.7433586723041117
 21
208.5267765499446
 31
0.0
  0
ARC
  5
A3C8
  8
0
 10
3482.7750033545607948
 20
208.2604870714610001
 30
0.0
 40
0.2681631448693593
 50
90.141379316770383
 51
96.7769988480140029
  0
LINE
  5
A3C9
  8
0
 10
3482.774341653402189
 20
208.5286493999446975
 30
0.0
 11
3482.7428186886040749
 21
208.5305548907446962
 31
0.0
  0
ARC
  5
A3CA
  8
0
 10
3482.7423408421091153
 20
208.0195458487114024
 30
0.0
 40
0.5110092654512127
 50
89.946422514691605
 51
97.2213518256653515
  0
LINE
  5
A3CB
  8
0
 10
3482.7181322220039874
 20
208.5325967292446876
 30
0.0
 11
3482.7466837704041609
 21
208.5308708537446023
 31
0.0
  0
LINE
  5
A3CC
  8
0
 10
3482.7466837704041609
 20
208.5308708537446023
 30
0.0
 11
3482.8121437321037774
 21
208.5314829889537123
 31
0.0
  0
LINE
  5
A3CD
  8
0
 10
3482.8082067243040001
 20
208.5314461728445963
 30
0.0
 11
3482.8082067243040001
 21
208.5334390422445949
 31
0.0
  0
LINE
  5
A3CE
  8
0
 10
3482.7181322220039874
 20
208.5325967292446876
 30
0.0
 11
3482.8121437321037774
 21
208.5334758583553025
 31
0.0
  0
LINE
  5
A3CF
  8
0
 10
3482.8121437321037774
 20
208.5312420367031905
 30
0.0
 11
3482.7496377863039925
 21
208.5306922903446889
 31
0.0
  0
LINE
  5
A3D0
  8
0
 10
3482.7496377863039925
 20
208.5306922903446889
 30
0.0
 11
3482.7817518112478865
 21
208.5287967116790924
 31
0.0
  0
LINE
  5
A3D1
  8
0
 10
3482.773071395873103
 20
208.5287261840940118
 30
0.0
 11
3482.8121437321037774
 21
208.5290436432707963
 31
0.0
  0
LINE
  5
A3D2
  8
0
 10
3482.8121437321037774
 20
208.5288375438699973
 30
0.0
 11
3482.7645925935307787
 21
208.5284480542943868
 31
0.0
  0
LINE
  5
A3D3
  8
0
 10
3482.7841187939379779
 20
208.528607992662586
 30
0.0
 11
3482.8121437321037774
 21
208.5269139495790967
 31
0.0
  0
LINE
  5
A3D4
  8
0
 10
3482.8019150856039232
 20
208.5275322477446025
 30
0.0
 11
3482.8121437321037774
 21
208.5276013392723939
 31
0.0
  0
ARC
  5
A3D5
  8
0
 10
3482.645607461840882
 20
208.634219509383712
 30
0.0
 40
0.1577434487658658
 50
187.7777142435666917
 51
223.297296221699014
  0
ARC
  5
A3D6
  8
0
 10
3482.8035000484119337
 20
201.7657628081576036
 30
0.0
 40
6.8584351667052443
 50
89.927790127915074
 51
92.1110630831606869
  0
ARC
  5
A3D7
  8
0
 10
3482.7922442653621147
 20
201.5901871674917061
 30
0.0
 40
7.0351327009701352
 50
89.8379338346996263
 51
92.1124230132397344
  0
ARC
  5
A3D8
  8
0
 10
3482.568483436277802
 20
208.1697318886133132
 30
0.0
 40
0.4501564435936902
 50
92.2439128005521809
 51
100.1291946366928016
  0
ARC
  5
A3D9
  8
0
 10
3482.5833517608648435
 20
207.7630143484371956
 30
0.0
 40
0.8590059224810568
 50
93.3652999938048538
 51
98.4023074546892218
  0
ARC
  5
A3DA
  8
0
 10
3482.4935389020288312
 20
208.7357277530290958
 30
0.0
 40
0.128008750762261
 50
253.8026809098059005
 51
268.4597274653110048
  0
ARC
  5
A3DB
  8
0
 10
3483.0622831372329529
 20
208.7888297655833014
 30
0.0
 40
0.6295620777358861
 50
191.4377823588218916
 51
196.2367236016307004
  0
ARC
  5
A3DC
  8
0
 10
3482.753533788094046
 20
205.1181879599909053
 30
0.0
 40
3.559175973525353
 50
89.0564517621778151
 51
94.9694170276135594
  0
ARC
  5
A3DD
  8
0
 10
3482.7988732654639534
 20
199.7760329440035889
 30
0.0
 40
8.9045786599242351
 50
89.9146122414961724
 51
92.4760881319761125
  0
ARC
  5
A3DE
  8
0
 10
3482.5153576618731677
 20
207.5599494410101045
 30
0.0
 40
1.116940881353425
 50
95.1975629775000556
 51
97.7078755671600447
  0
ARC
  5
A3DF
  8
0
 10
3482.3665449520999573
 20
208.6530765722918943
 30
0.0
 40
0.0137578968611213
 50
94.1435352751254015
 51
128.194990281325687
  0
ARC
  5
A3E0
  8
0
 10
3482.4521254182131997
 20
209.1282915378706946
 30
0.0
 40
0.4738376601310211
 50
258.5469501506415213
 51
269.407257690708775
  0
ARC
  5
A3E1
  8
0
 10
3482.3843475434568973
 20
208.6283136348058918
 30
0.0
 40
0.0442471228801562
 50
112.3116737025952006
 51
126.4846145091837997
  0
ARC
  5
A3E2
  8
0
 10
3482.4790845473457921
 20
209.7944362716860951
 30
0.0
 40
1.142001615343514
 50
263.0959971338953096
 51
268.4190412767412113
  0
ARC
  5
A3E3
  8
0
 10
3482.3445036148518739
 20
208.675358698160295
 30
0.0
 40
0.014889211864701
 50
233.5837091766684921
 51
259.5728098109107123
  0
ARC
  5
A3E4
  8
0
 10
3482.4129402919711538
 20
208.3332248463538861
 30
0.0
 40
0.3390751407982058
 50
89.7915755513669183
 51
103.1735366995425949
  0
ARC
  5
A3E5
  8
0
 10
3481.999891699831096
 20
208.4463904784236945
 30
0.0
 40
0.0342110981622284
 50
181.1115288877248872
 51
248.2590223644045011
  0
LINE
  5
A3E6
  8
0
 10
3481.9656870392041128
 20
209.2009688011430057
 30
0.0
 11
3481.9656870392041128
 21
208.7130776047902998
 31
0.0
  0
LINE
  5
A3E7
  8
0
 10
3481.9656870392041128
 20
208.7129605123392082
 30
0.0
 11
3481.9656870392041128
 21
208.4457268302629984
 31
0.0
  0
LINE
  5
A3E8
  8
0
 10
3482.6546634172041195
 20
209.2366994643629994
 30
0.0
 11
3482.6546634171040751
 21
209.2390230764393948
 31
0.0
  0
ARC
  5
A3E9
  8
0
 10
3482.6645059387478796
 20
209.239023076862992
 30
0.0
 40
0.0098425216441713
 50
90.0
 51
180.0000024658077962
  0
ARC
  5
A3EA
  8
0
 10
3482.7038760184800594
 20
209.2685506347716
 30
0.0
 40
0.0196850365236252
 50
269.9999916279480203
 51
0.0000034678203447
  0
LINE
  5
A3EB
  8
0
 10
3482.7235610550042111
 20
209.2685506359630097
 30
0.0
 11
3482.7235610550042111
 21
209.5677632343630137
 31
0.0
  0
ARC
  5
A3EC
  8
0
 10
3482.7038760156037824
 20
209.5677632343630137
 30
0.0
 40
0.0196850393999988
 50
359.9999999999951115
 51
90.0000000000781455
  0
ARC
  5
A3ED
  8
0
 10
3482.6664744408039951
 20
209.6071333131629899
 30
0.0
 40
0.0196850393999988
 50
180.0
 51
270.0
  0
LINE
  5
A3EE
  8
0
 10
3482.6467894014040212
 20
209.6071333131629899
 30
0.0
 11
3482.6467894014040212
 21
212.0559522107629959
 31
0.0
  0
ARC
  5
A3EF
  8
0
 10
3482.6782854644038707
 20
212.0559522107629959
 30
0.0
 40
0.0314960629999988
 50
90.0
 51
179.9999999999967031
  0
LINE
  5
A3F0
  8
0
 10
3483.8160720899040825
 20
200.7252675471630141
 30
0.0
 11
3483.8160720899040825
 21
200.8624793158697912
 31
0.0
  0
ARC
  5
A3F1
  8
0
 10
3483.7957946331880521
 20
200.8624793158697912
 30
0.0
 40
0.0202774567161894
 50
0.0
 51
88.3013810894600653
  0
ARC
  5
A3F2
  8
0
 10
3483.6271043620040473
 20
200.9142439251629924
 30
0.0
 40
0.0314960629999996
 50
270.0
 51
0.0
  0
LINE
  5
A3F3
  8
0
 10
3483.6586004250038968
 20
200.9142439251629924
 30
0.0
 11
3483.6586004250038968
 21
208.3827382691596029
 31
0.0
  0
ARC
  5
A3F4
  8
0
 10
3483.6233712661401114
 20
208.3821499716050027
 30
0.0
 40
0.0352340705607339
 50
0.9567027821561678
 51
83.9891125268496666
  0
ARC
  5
A3F5
  8
0
 10
3482.8454826617999061
 20
191.1540921105504083
 30
0.0
 40
17.2886253598253496
 50
88.0767851634069245
 51
90.1104876130384298
  0
ARC
  5
A3F6
  8
0
 10
3483.3679057718968579
 20
206.4039184716592956
 30
0.0
 40
2.029882984972045
 50
82.6650300803116949
 51
88.368721048701758
  0
ARC
  5
A3F7
  8
0
 10
3483.6268800676389219
 20
209.2010810030747052
 30
0.0
 40
0.0317205558062002
 50
359.7973329789567742
 51
76.8691187906540137
  0
ARC
  5
A3F8
  8
0
 10
3483.495371619585967
 20
207.1695407794661037
 30
0.0
 40
2.067090959330474
 50
86.1522067626328152
 51
89.622413176668843
  0
ARC
  5
A3F9
  8
0
 10
3483.6272784494949519
 20
208.7130190585646972
 30
0.0
 40
0.0313220302252865
 50
269.6201232677080952
 51
0.1070956623796564
  0
ARC
  5
A3FA
  8
0
 10
3483.5273992194488528
 20
207.4915866921419934
 30
0.0
 40
1.194277468380796
 50
85.2126617611703239
 51
90.883033814716768
  0
LINE
  5
A3FB
  8
0
 10
3483.0939183644791228
 20
208.5265017507446998
 30
0.0
 11
3482.8121437321037774
 21
208.5265017507446998
 31
0.0
  0
ARC
  5
A3FC
  8
0
 10
3482.766367231006825
 20
216.9564343838949867
 30
0.0
 40
8.4405251891081523
 50
270.3107405182448133
 51
271.7210487024058239
  0
ARC
  5
A3FD
  8
0
 10
3483.0161766592427739
 20
208.9874856807344941
 30
0.0
 40
0.4678754890029837
 50
270.0472081145318271
 51
279.5109393129584987
  0
ARC
  5
A3FE
  8
0
 10
3483.0887250860869244
 20
208.5215572691213026
 30
0.0
 40
0.006540640961408
 50
43.2833196032869481
 51
84.1094975684990231
  0
ARC
  5
A3FF
  8
0
 10
3482.9855878008911532
 20
207.6037559141576025
 30
0.0
 40
0.9301185372277886
 50
83.591990270819764
 51
89.3993576536353345
  0
ARC
  5
A400
  8
0
 10
3482.8201429088107943
 20
202.0596588743601103
 30
0.0
 40
6.4765344875836552
 50
88.3339286315298153
 51
90.0707661145560508
  0
LINE
  5
A401
  8
0
 10
3482.816080739904919
 20
208.5193583190448123
 30
0.0
 11
3482.816080739904919
 21
208.5173657266448117
 31
0.0
  0
ARC
  5
A402
  8
0
 10
3482.8127600991088002
 20
215.6651929828975938
 30
0.0
 40
7.1478280275820048
 50
269.9950593064309032
 51
270.4688471907456915
  0
LINE
  5
A403
  8
0
 10
3482.8712496025100336
 20
208.5176042643240919
 30
0.0
 11
3482.8564656454032047
 21
208.5195298258446996
 31
0.0
  0
LINE
  5
A404
  8
0
 10
3482.8564656454032047
 20
208.5195298258446996
 30
0.0
 11
3482.8564656454032047
 21
208.5195298258446996
 31
0.0
  0
LINE
  5
A405
  8
0
 10
3482.8564656454032047
 20
208.5195298258446996
 30
0.0
 11
3482.8121437321037774
 21
208.5193415993421127
 31
0.0
  0
ARC
  5
A406
  8
0
 10
3483.062641935044212
 20
208.5376051341160917
 30
0.0
 40
0.0133133495568216
 50
272.1987029575118981
 51
303.4877567511554162
  0
LINE
  5
A407
  8
0
 10
3483.0631527042041853
 20
208.524301586044686
 30
0.0
 11
3483.0079782250040807
 21
208.5248175386448111
 31
0.0
  0
ARC
  5
A408
  8
0
 10
3483.0048854598330763
 20
208.540817429366399
 30
0.0
 40
0.0162960639269226
 50
280.9402970433416726
 51
298.5410979267176117
  0
LINE
  5
A409
  8
0
 10
3483.0573112884180773
 20
208.5237872246883057
 30
0.0
 11
3483.0039023345038913
 21
208.5242866674448123
 31
0.0
  0
LINE
  5
A40A
  8
0
 10
3483.0039023345038913
 20
208.5242866674448123
 30
0.0
 11
3482.9879657964038415
 21
208.522980326644813
 31
0.0
  0
LINE
  5
A40B
  8
0
 10
3482.9879657964038415
 20
208.522980326644813
 30
0.0
 11
3483.0366402863178337
 21
208.5219995729530922
 31
0.0
  0
LINE
  5
A40C
  8
0
 10
3483.0366402863178337
 20
208.5219995729530922
 30
0.0
 11
3483.0573112884180773
 21
208.5237872246883057
 31
0.0
  0
LINE
  5
A40D
  8
0
 10
3483.0326321763768647
 20
208.5217071182248958
 30
0.0
 11
3482.9840287885040198
 21
208.5227423435447065
 31
0.0
  0
LINE
  5
A40E
  8
0
 10
3482.9887955904828232
 20
208.5229636069296077
 30
0.0
 11
3482.9595804213040537
 21
208.5216075096448094
 31
0.0
  0
LINE
  5
A40F
  8
0
 10
3482.9113035726218186
 20
208.5232923473787991
 30
0.0
 11
3482.9999709433041062
 21
208.5201979007447051
 31
0.0
  0
LINE
  5
A410
  8
0
 10
3482.9999709433041062
 20
208.5201979007447051
 30
0.0
 11
3483.0326321763768647
 21
208.5217071182248958
 31
0.0
  0
LINE
  5
A411
  8
0
 10
3482.9999247873402055
 20
208.5194222620237099
 30
0.0
 11
3482.9484448814041571
 21
208.5212188848446999
 31
0.0
  0
LINE
  5
A412
  8
0
 10
3482.9613810931891749
 20
208.5215446671016934
 30
0.0
 11
3482.909108583104171
 21
208.5202282495446866
 31
0.0
  0
LINE
  5
A413
  8
0
 10
3482.909108583104171
 20
208.5202282495446866
 30
0.0
 11
3482.9450900408710368
 21
208.5186124052424077
 31
0.0
  0
LINE
  5
A414
  8
0
 10
3482.9444752611038894
 20
208.5186400135841893
 30
0.0
 11
3483.0602647052000975
 21
208.5216920382131036
 31
0.0
  0
LINE
  5
A415
  8
0
 10
3482.9515028180430818
 20
208.5178828054216922
 30
0.0
 11
3482.9086874637778237
 21
208.5197993204714066
 31
0.0
  0
LINE
  5
A416
  8
0
 10
3482.9086874637778237
 20
208.5197993204714066
 30
0.0
 11
3482.8716770757041559
 21
208.5196720724447061
 31
0.0
  0
LINE
  5
A417
  8
0
 10
3482.8716770757041559
 20
208.5196720724447061
 30
0.0
 11
3482.8864610328041636
 21
208.5177465108448018
 31
0.0
  0
LINE
  5
A418
  8
0
 10
3482.8864610328041636
 20
208.5177465108448018
 30
0.0
 11
3483.0329054637641093
 21
208.5199093550837119
 31
0.0
  0
ARC
  5
A419
  8
0
 10
3482.9847081386410537
 20
208.6030450042370887
 30
0.0
 40
0.0799831835016217
 50
268.6691362062447865
 51
286.1724865614365854
  0
LINE
  5
A41A
  8
0
 10
3482.9833396925378111
 20
208.5230735280827048
 30
0.0
 11
3482.9302551199898517
 21
208.5241443350365103
 31
0.0
  0
ARC
  5
A41B
  8
0
 10
3482.933166781782802
 20
208.5902350475141986
 30
0.0
 40
0.0661548187980672
 50
264.3211755141705908
 51
284.6361323977308757
  0
LINE
  5
A41C
  8
0
 10
3482.9439747214041745
 20
208.526226951544686
 30
0.0
 11
3483.0069858500041846
 21
208.526226951544686
 31
0.0
  0
LINE
  5
A41D
  8
0
 10
3482.8394201227038138
 20
208.526226951544686
 30
0.0
 11
3482.8291914762048691
 21
208.5256086533447046
 31
0.0
  0
LINE
  5
A41E
  8
0
 10
3482.8291914762048691
 20
208.5256086533447046
 30
0.0
 11
3482.8469877679031015
 21
208.5245329084447121
 31
0.0
  0
LINE
  5
A41F
  8
0
 10
3482.8469877679031015
 20
208.5245329084447121
 30
0.0
 11
3482.875012706203961
 21
208.526226951544686
 31
0.0
  0
LINE
  5
A420
  8
0
 10
3482.875012706203961
 20
208.526226951544686
 30
0.0
 11
3482.8394201227038138
 21
208.526226951544686
 31
0.0
  0
LINE
  5
A421
  8
0
 10
3482.9498827532038376
 20
208.526226951544686
 30
0.0
 11
3482.8809287919038979
 21
208.526226951544686
 31
0.0
  0
ARC
  5
A422
  8
0
 10
3482.8492841096458505
 20
208.7925164300282859
 30
0.0
 40
0.2681631448693593
 50
270.1413793168225084
 51
276.7769988480926031
  0
LINE
  5
A423
  8
0
 10
3482.8499458108058207
 20
208.5243541015445885
 30
0.0
 11
3482.8814687756039348
 21
208.5224486107447035
 31
0.0
  0
ARC
  5
A424
  8
0
 10
3482.8819466220988943
 20
209.0334576527779973
 30
0.0
 40
0.5110092654512127
 50
269.9464225147436878
 51
277.2213518257439091
  0
LINE
  5
A425
  8
0
 10
3482.9061552422040222
 20
208.5204067722447121
 30
0.0
 11
3482.8776036938038487
 21
208.5221326477447121
 31
0.0
  0
LINE
  5
A426
  8
0
 10
3482.8776036938038487
 20
208.5221326477447121
 30
0.0
 11
3482.8121437321037774
 21
208.5215205125356022
 31
0.0
  0
LINE
  5
A427
  8
0
 10
3482.816080739904919
 20
208.5215573286446897
 30
0.0
 11
3482.816080739904919
 21
208.5195644592446911
 31
0.0
  0
LINE
  5
A428
  8
0
 10
3482.9061552422040222
 20
208.5204067722447121
 30
0.0
 11
3482.8121437321037774
 21
208.5195276431340119
 31
0.0
  0
LINE
  5
A429
  8
0
 10
3482.8121437321037774
 20
208.5217614647860955
 30
0.0
 11
3482.8746496779040172
 21
208.5223112111447108
 31
0.0
  0
LINE
  5
A42A
  8
0
 10
3482.8746496779040172
 20
208.5223112111447108
 30
0.0
 11
3482.8425356529592136
 21
208.5242067898101936
 31
0.0
  0
LINE
  5
A42B
  8
0
 10
3482.8512160683349066
 20
208.5242773173953879
 30
0.0
 11
3482.8121437321037774
 21
208.5239598582184897
 31
0.0
  0
LINE
  5
A42C
  8
0
 10
3482.8121437321037774
 20
208.5241659576194024
 30
0.0
 11
3482.8596948706781404
 21
208.5245554471950982
 31
0.0
  0
LINE
  5
A42D
  8
0
 10
3482.8401686702700317
 20
208.5243955088268137
 30
0.0
 11
3482.8121437321037774
 21
208.5260895519101894
 31
0.0
  0
LINE
  5
A42E
  8
0
 10
3482.8223723786040864
 20
208.5254712537447972
 30
0.0
 11
3482.8121437321037774
 21
208.5254021622168921
 31
0.0
  0
LINE
  5
A42F
  8
0
 10
3482.8160807399040095
 20
208.5336451824445874
 30
0.0
 11
3482.8160807399040095
 21
208.535637774844588
 31
0.0
  0
ARC
  5
A430
  8
0
 10
3482.8127600991160762
 20
201.3878105185916922
 30
0.0
 40
7.1478280275820048
 50
89.531152809332383
 51
90.0049406936472565
  0
LINE
  5
A431
  8
0
 10
3482.8712496025100336
 20
208.5353992371651941
 30
0.0
 11
3482.8564656454032047
 21
208.5334736756445864
 31
0.0
  0
LINE
  5
A432
  8
0
 10
3482.8564656454032047
 20
208.5334736756445864
 30
0.0
 11
3482.8564656454032047
 21
208.5334736756445864
 31
0.0
  0
LINE
  5
A433
  8
0
 10
3482.8564656454032047
 20
208.5334736756445864
 30
0.0
 11
3482.8121437321037774
 21
208.5336619021472018
 31
0.0
  0
ARC
  5
A434
  8
0
 10
3483.062641935044212
 20
208.515398367373507
 30
0.0
 40
0.0133133495568216
 50
56.5122432489069126
 51
87.8012970425662758
  0
LINE
  5
A435
  8
0
 10
3483.0631527042041853
 20
208.5287019154449126
 30
0.0
 11
3483.0079782250040807
 21
208.5281859628447876
 31
0.0
  0
ARC
  5
A436
  8
0
 10
3483.0048854598330763
 20
208.5121860721231997
 30
0.0
 40
0.0162960639269226
 50
61.4589020733422231
 51
79.0597029567372402
  0
LINE
  5
A437
  8
0
 10
3483.0573112884180773
 20
208.5292162768012929
 30
0.0
 11
3483.0039023345038913
 21
208.5287168340447863
 31
0.0
  0
LINE
  5
A438
  8
0
 10
3483.0039023345038913
 20
208.5287168340447863
 30
0.0
 11
3482.9879657964038415
 21
208.5300231748448141
 31
0.0
  0
LINE
  5
A439
  8
0
 10
3482.9879657964038415
 20
208.5300231748448141
 30
0.0
 11
3483.0366402863178337
 21
208.5310039285365065
 31
0.0
  0
LINE
  5
A43A
  8
0
 10
3483.0366402863178337
 20
208.5310039285365065
 30
0.0
 11
3483.0573112884180773
 21
208.5292162768012929
 31
0.0
  0
LINE
  5
A43B
  8
0
 10
3483.0326321763768647
 20
208.5312963832647029
 30
0.0
 11
3482.9840287885040198
 21
208.5302611579448069
 31
0.0
  0
LINE
  5
A43C
  8
0
 10
3482.9887955904828232
 20
208.5300398945599056
 30
0.0
 11
3482.9595804213040537
 21
208.5313959918447893
 31
0.0
  0
LINE
  5
A43D
  8
0
 10
3482.9113035726218186
 20
208.5297111541106005
 30
0.0
 11
3482.9999709433041062
 21
208.5328056007448083
 31
0.0
  0
LINE
  5
A43E
  8
0
 10
3482.9999709433041062
 20
208.5328056007448083
 30
0.0
 11
3483.0326321763768647
 21
208.5312963832647029
 31
0.0
  0
LINE
  5
A43F
  8
0
 10
3482.9999247873402055
 20
208.5335812394658035
 30
0.0
 11
3482.9484448814041571
 21
208.5317846166446998
 31
0.0
  0
LINE
  5
A440
  8
0
 10
3482.9613810931891749
 20
208.5314588343877062
 30
0.0
 11
3482.909108583104171
 21
208.5327752519447131
 31
0.0
  0
LINE
  5
A441
  8
0
 10
3482.909108583104171
 20
208.5327752519447131
 30
0.0
 11
3482.9450900408710368
 21
208.5343910962471057
 31
0.0
  0
LINE
  5
A442
  8
0
 10
3482.9444752611038894
 20
208.5343634879052956
 30
0.0
 11
3483.0513568433848377
 21
208.5315462602725916
 31
0.0
  0
LINE
  5
A443
  8
0
 10
3482.947492559309012
 20
208.5349411875399142
 30
0.0
 11
3482.9086874637778237
 21
208.5332041810179931
 31
0.0
  0
LINE
  5
A444
  8
0
 10
3482.9086874637778237
 20
208.5332041810179931
 30
0.0
 11
3482.8716770757041559
 21
208.5333314290446936
 31
0.0
  0
LINE
  5
A445
  8
0
 10
3482.8716770757041559
 20
208.5333314290446936
 30
0.0
 11
3482.8864610328041636
 21
208.5352569906447115
 31
0.0
  0
LINE
  5
A446
  8
0
 10
3482.8864610328041636
 20
208.5352569906447115
 30
0.0
 11
3483.0177623508948273
 21
208.5333177957055
 31
0.0
  0
ARC
  5
A447
  8
0
 10
3482.9847081386410537
 20
208.4499584972523962
 30
0.0
 40
0.0799831835016217
 50
73.8275134386184817
 51
91.3308637938073247
  0
LINE
  5
A448
  8
0
 10
3482.9833396925369016
 20
208.5299299734068086
 30
0.0
 11
3482.9302551199898517
 21
208.5288591664530031
 31
0.0
  0
ARC
  5
A449
  8
0
 10
3482.933166781782802
 20
208.4627684539752011
 30
0.0
 40
0.0661548187980672
 50
75.3638676023232392
 51
95.6788244859078816
  0
LINE
  5
A44A
  8
0
 10
3482.9439747214041745
 20
208.5267765499447137
 30
0.0
 11
3483.0069858500041846
 21
208.5267765499447989
 31
0.0
  0
LINE
  5
A44B
  8
0
 10
3482.8394201227038138
 20
208.5267765499446
 30
0.0
 11
3482.8291914762048691
 21
208.5273948481446098
 31
0.0
  0
LINE
  5
A44C
  8
0
 10
3482.8291914762048691
 20
208.5273948481446098
 30
0.0
 11
3482.8469877679031015
 21
208.5284705930446023
 31
0.0
  0
LINE
  5
A44D
  8
0
 10
3482.8469877679031015
 20
208.5284705930446023
 30
0.0
 11
3482.875012706203961
 21
208.5267765499446
 31
0.0
  0
LINE
  5
A44E
  8
0
 10
3482.875012706203961
 20
208.5267765499446
 30
0.0
 11
3482.8394201227038138
 21
208.5267765499446
 31
0.0
  0
LINE
  5
A44F
  8
0
 10
3482.9498827532038376
 20
208.5267765499447137
 30
0.0
 11
3482.8809287919038979
 21
208.5267765499446
 31
0.0
  0
ARC
  5
A450
  8
0
 10
3482.8492841096472148
 20
208.2604870714610001
 30
0.0
 40
0.2681631448693593
 50
83.2230011519859829
 51
89.8586206832296455
  0
LINE
  5
A451
  8
0
 10
3482.8499458108058207
 20
208.5286493999446975
 30
0.0
 11
3482.8814687756039348
 21
208.5305548907446962
 31
0.0
  0
ARC
  5
A452
  8
0
 10
3482.8819466220988943
 20
208.0195458487114024
 30
0.0
 40
0.5110092654512127
 50
82.7786481743346485
 51
90.053577485308395
  0
LINE
  5
A453
  8
0
 10
3482.9061552422040222
 20
208.5325967292446876
 30
0.0
 11
3482.8776036938038487
 21
208.5308708537446023
 31
0.0
  0
LINE
  5
A454
  8
0
 10
3482.8776036938038487
 20
208.5308708537446023
 30
0.0
 11
3482.8121437321037774
 21
208.5314829889537123
 31
0.0
  0
LINE
  5
A455
  8
0
 10
3482.8160807399040095
 20
208.5314461728445963
 30
0.0
 11
3482.8160807399040095
 21
208.5334390422445949
 31
0.0
  0
LINE
  5
A456
  8
0
 10
3482.9061552422040222
 20
208.5325967292446876
 30
0.0
 11
3482.8121437321037774
 21
208.5334758583553025
 31
0.0
  0
LINE
  5
A457
  8
0
 10
3482.8121437321037774
 20
208.5312420367031905
 30
0.0
 11
3482.8746496779040172
 21
208.5306922903446889
 31
0.0
  0
LINE
  5
A458
  8
0
 10
3482.8746496779040172
 20
208.5306922903446889
 30
0.0
 11
3482.8425356529592136
 21
208.5287967116790924
 31
0.0
  0
LINE
  5
A459
  8
0
 10
3482.8512160683349066
 20
208.5287261840940118
 30
0.0
 11
3482.8121437321037774
 21
208.5290436432707963
 31
0.0
  0
LINE
  5
A45A
  8
0
 10
3482.8121437321037774
 20
208.5288375438699973
 30
0.0
 11
3482.8596948706781404
 21
208.5284480542943868
 31
0.0
  0
LINE
  5
A45B
  8
0
 10
3482.8401686702700317
 20
208.528607992662586
 30
0.0
 11
3482.8121437321037774
 21
208.5269139495790967
 31
0.0
  0
LINE
  5
A45C
  8
0
 10
3482.8223723786040864
 20
208.5275322477446025
 30
0.0
 11
3482.8121437321037774
 21
208.5276013392723939
 31
0.0
  0
ARC
  5
A45D
  8
0
 10
3482.9786800023671276
 20
208.634219509383712
 30
0.0
 40
0.1577434487658658
 50
316.702703778300986
 51
352.2222857564332799
  0
ARC
  5
A45E
  8
0
 10
3482.8207874157969854
 20
201.7657628081576036
 30
0.0
 40
6.8584351667052443
 50
87.8889369168392847
 51
90.072209872084926
  0
ARC
  5
A45F
  8
0
 10
3482.8320431988468044
 20
201.5901871674917061
 30
0.0
 40
7.0351327009701352
 50
87.8875769867602656
 51
90.1620661653003737
  0
ARC
  5
A460
  8
0
 10
3483.0558040279302077
 20
208.1697318886133132
 30
0.0
 40
0.4501564435936902
 50
79.87080536330717
 51
87.7560871994478333
  0
ARC
  5
A461
  8
0
 10
3483.0409357033431661
 20
207.7630143484371956
 30
0.0
 40
0.8590059224810568
 50
81.5976925453108066
 51
86.634700006195132
  0
ARC
  5
A462
  8
0
 10
3483.1307485621778142
 20
208.7357277530290958
 30
0.0
 40
0.128008750762261
 50
271.5402725346891089
 51
286.197319090194128
  0
ARC
  5
A463
  8
0
 10
3482.5620043269741473
 20
208.7888297655833014
 30
0.0
 40
0.6295620777358861
 50
343.7632763983676796
 51
348.5622176411779947
  0
ARC
  5
A464
  8
0
 10
3482.8707536761139636
 20
205.1181879599909053
 30
0.0
 40
3.559175973525353
 50
85.0305829723864548
 51
90.9435482378221991
  0
ARC
  5
A465
  8
0
 10
3482.8254141987440562
 20
199.7760329440035889
 30
0.0
 40
8.9045786599242351
 50
87.5239118680238875
 51
90.0853877585038418
  0
ARC
  5
A466
  8
0
 10
3483.1089298023339325
 20
207.5599494410101045
 30
0.0
 40
1.116940881353425
 50
82.2921244328399553
 51
84.8024370224999444
  0
ARC
  5
A467
  8
0
 10
3483.2577425121071428
 20
208.6530765722918943
 30
0.0
 40
0.0137578968611213
 50
51.8050097186743201
 51
85.8564647248745842
  0
ARC
  5
A468
  8
0
 10
3483.1721620459948099
 20
209.1282915378706946
 30
0.0
 40
0.4738376601310211
 50
270.592742309291225
 51
281.4530498493584787
  0
ARC
  5
A469
  8
0
 10
3483.2399399207511124
 20
208.6283136348058918
 30
0.0
 40
0.0442471228801436
 50
53.5153854908123208
 51
67.6883262973794899
  0
ARC
  5
A46A
  8
0
 10
3483.1452029168622175
 20
209.7944362716860951
 30
0.0
 40
1.142001615343514
 50
271.5809587232587887
 51
276.9040028661048041
  0
ARC
  5
A46B
  8
0
 10
3483.2797838493561358
 20
208.675358698160295
 30
0.0
 40
0.014889211864701
 50
280.4271901890892877
 51
306.4162908233315079
  0
ARC
  5
A46C
  8
0
 10
3483.2113471722368558
 20
208.3332248463538861
 30
0.0
 40
0.3390751407982058
 50
76.8264633004574051
 51
90.2084244486330817
  0
ARC
  5
A46D
  8
0
 10
3483.6243956146440723
 20
208.4463906664761055
 30
0.0
 40
0.0342113283009516
 50
291.7410939065464959
 51
358.888163588338216
  0
LINE
  5
A46E
  8
0
 10
3483.6586004250038968
 20
209.2009688011430057
 30
0.0
 11
3483.6586004250038968
 21
208.7129605123382987
 31
0.0
  0
LINE
  5
A46F
  8
0
 10
3482.9696240470038902
 20
209.2366994643629994
 30
0.0
 11
3482.9696240471039346
 21
209.2390230764393948
 31
0.0
  0
ARC
  5
A470
  8
0
 10
3482.9597815254601301
 20
209.239023076862992
 30
0.0
 40
0.0098425216441704
 50
359.9999975341888785
 51
90.0360123264889012
  0
ARC
  5
A471
  8
0
 10
3482.9204114481608485
 20
209.2685506357796896
 30
0.0
 40
0.0196850389575367
 50
179.9999994665591885
 51
270.0000014491067191
  0
LINE
  5
A472
  8
0
 10
3482.9007264092037985
 20
209.2685506359630097
 30
0.0
 11
3482.9007264092037985
 21
209.5677632343630137
 31
0.0
  0
ARC
  5
A473
  8
0
 10
3482.9204114486042272
 20
209.5677632343630137
 30
0.0
 40
0.0196850393999988
 50
89.9999999999218403
 51
180.0000000000048885
  0
ARC
  5
A474
  8
0
 10
3482.9578130234040145
 20
209.6071333131629899
 30
0.0
 40
0.0196850393999988
 50
270.0
 51
0.0
  0
LINE
  5
A475
  8
0
 10
3482.9774980628039884
 20
209.6071333131629899
 30
0.0
 11
3482.9774980628039884
 21
212.0559522107629959
 31
0.0
  0
ARC
  5
A476
  8
0
 10
3482.9460019998041389
 20
212.0559522107629959
 30
0.0
 40
0.0314960629999988
 50
0.0000000000032569
 51
90.0
  0
LINE
  5
A477
  8
0
 10
3481.8082153743039271
 20
200.7252675471630141
 30
0.0
 11
3483.8160720899040825
 21
200.7252675471630141
 31
0.0
  0
LINE
  5
A478
  8
0
 10
3481.8278917636039296
 20
200.8827478621630007
 30
0.0
 11
3483.79639570060408
 21
200.8827478621630007
 31
0.0
  0
LINE
  5
A479
  8
0
 10
3482.1152935383029217
 20
208.6857223279270102
 30
0.0
 11
3483.508993925905088
 21
208.6857223279270102
 31
0.0
  0
LINE
  5
A47A
  8
0
 10
3482.1152935383029217
 20
209.2365868522269921
 30
0.0
 11
3483.508993925905088
 21
209.2365868522269921
 31
0.0
  0
LINE
  5
A47B
  8
0
 10
3482.6645059387478796
 20
209.2488655985071944
 30
0.0
 11
3482.9597753391039987
 21
209.2488655965630073
 31
0.0
  0
LINE
  5
A47C
  8
0
 10
3482.6664744408039951
 20
209.5874482737629876
 30
0.0
 11
3482.9578130234040145
 21
209.5874482737629876
 31
0.0
  0
LINE
  5
A47D
  8
0
 10
3482.6782854644038707
 20
212.0874482737629876
 30
0.0
 11
3482.9460019998041389
 21
212.0874482737629876
 31
0.0
  0
LINE
  5
A47F
  8
0
 10
3483.6586004250038968
 20
208.7129605123382987
 30
0.0
 11
3483.6586005018039032
 21
208.4457268302629984
 31
0.0
  0
ENDSEC
  0
EOF
