  0
SECTION
  2
HEADER
  9
$ACADVER
  1
AC1009
  9
$INSBASE
 10
3578.1587295227341201
 20
253.0757412386211911
 30
0.0
  9
$EXTMIN
 10
3577.1547377487709127
 20
245.266611637159599
 30
0.0
  9
$EXTMAX
 10
3581.0079968871978053
 20
254.0796814362716134
 30
0.0
  9
$LIMMIN
 10
0.0
 20
0.0
  9
$LIMMAX
 10
11.6929133858000007
 20
8.2677165353999982
  9
$ORTHOMODE
 70
     0
  9
$REGENMODE
 70
     1
  9
$FILLMODE
 70
     1
  9
$QTEXTMODE
 70
     0
  9
$MIRRTEXT
 70
     0
  9
$DRAGMODE
 70
     2
  9
$LTSCALE
 40
0.6431102362
  9
$OSMODE
 70
  2047
  9
$ATTMODE
 70
     1
  9
$TEXTSIZE
 40
0.2
  9
$TRACEWID
 40
0.05
  9
$TEXTSTYLE
  7
STANDARD
  9
$CLAYER
  8
0
  9
$CELTYPE
  6
BYLAYER
  9
$CECOLOR
 62
   256
  9
$DIMSCALE
 40
1.0
  9
$DIMASZ
 40
0.1875
  9
$DIMEXO
 40
0.0625
  9
$DIMDLI
 40
0.4443307087
  9
$DIMRND
 40
0.0
  9
$DIMDLE
 40
0.0
  9
$DIMEXE
 40
0.125
  9
$DIMTP
 40
0.01
  9
$DIMTM
 40
0.01
  9
$DIMTXT
 40
2.0
  9
$DIMCEN
 40
0.1052362205
  9
$DIMTSZ
 40
0.0
  9
$DIMTOL
 70
     1
  9
$DIMLIM
 70
     0
  9
$DIMTIH
 70
     1
  9
$DIMTOH
 70
     1
  9
$DIMSE1
 70
     0
  9
$DIMSE2
 70
     0
  9
$DIMTAD
 70
     0
  9
$DIMZIN
 70
     0
  9
$DIMBLK
  1

  9
$DIMASO
 70
     1
  9
$DIMSHO
 70
     1
  9
$DIMPOST
  1
\X
  9
$DIMAPOST
  1

  9
$DIMALT
 70
     1
  9
$DIMALTD
 70
     2
  9
$DIMALTF
 40
25.3999999999999986
  9
$DIMLFAC
 40
1.0
  9
$DIMTOFL
 70
     0
  9
$DIMTVP
 40
0.0
  9
$DIMTIX
 70
     0
  9
$DIMSOXD
 70
     0
  9
$DIMSAH
 70
     0
  9
$DIMBLK1
  1

  9
$DIMBLK2
  1

  9
$DIMSTYLE
  2
STANDARD
  9
$DIMCLRD
 70
     0
  9
$DIMCLRE
 70
     0
  9
$DIMCLRT
 70
     0
  9
$DIMTFAC
 40
1.0
  9
$DIMGAP
 40
0.09
  9
$LUNITS
 70
     2
  9
$LUPREC
 70
     4
  9
$SKETCHINC
 40
0.1
  9
$FILLETRAD
 40
0.0
  9
$AUNITS
 70
     0
  9
$AUPREC
 70
     0
  9
$MENU
  1
.
  9
$ELEVATION
 40
0.0
  9
$PELEVATION
 40
0.0
  9
$THICKNESS
 40
0.0
  9
$LIMCHECK
 70
     0
  9
$BLIPMODE
 70
     0
  9
$CHAMFERA
 40
0.0
  9
$CHAMFERB
 40
0.0
  9
$SKPOLY
 70
     0
  9
$TDCREATE
 40
2458060.468368056230247
  9
$TDUPDATE
 40
2459034.4276388888247311
  9
$TDINDWG
 40
0.5318357639
  9
$TDUSRTIMER
 40
0.5318357639
  9
$USRTIMER
 70
     1
  9
$ANGBASE
 50
0.0
  9
$ANGDIR
 70
     0
  9
$PDMODE
 70
     0
  9
$PDSIZE
 40
0.3125
  9
$PLINEWID
 40
0.0
  9
$COORDS
 70
     1
  9
$SPLFRAME
 70
     0
  9
$SPLINETYPE
 70
     6
  9
$SPLINESEGS
 70
     8
  9
$ATTDIA
 70
     1
  9
$ATTREQ
 70
     1
  9
$HANDLING
 70
     1
  9
$HANDSEED
  5
A001
  9
$SURFTAB1
 70
     6
  9
$SURFTAB2
 70
     6
  9
$SURFTYPE
 70
     6
  9
$SURFU
 70
     6
  9
$SURFV
 70
     6
  9
$UCSNAME
  2

  9
$UCSORG
 10
0.0
 20
0.0
 30
0.0
  9
$UCSXDIR
 10
1.0
 20
0.0
 30
0.0
  9
$UCSYDIR
 10
0.0
 20
1.0
 30
0.0
  9
$PUCSNAME
  2

  9
$PUCSORG
 10
0.0
 20
0.0
 30
0.0
  9
$PUCSXDIR
 10
1.0
 20
0.0
 30
0.0
  9
$PUCSYDIR
 10
0.0
 20
1.0
 30
0.0
  9
$USERI1
 70
     0
  9
$USERI2
 70
     0
  9
$USERI3
 70
     0
  9
$USERI4
 70
     0
  9
$USERI5
 70
     0
  9
$USERR1
 40
0.0
  9
$USERR2
 40
0.0
  9
$USERR3
 40
0.0
  9
$USERR4
 40
0.0
  9
$USERR5
 40
0.0
  9
$WORLDVIEW
 70
     1
  9
$SHADEDGE
 70
     3
  9
$SHADEDIF
 70
    70
  9
$TILEMODE
 70
     1
  9
$MAXACTVP
 70
    64
  9
$PLIMCHECK
 70
     0
  9
$PEXTMIN
 10
1.0000000000000000E+20
 20
1.0000000000000000E+20
 30
1.0000000000000000E+20
  9
$PEXTMAX
 10
-1.0000000000000000E+20
 20
-1.0000000000000000E+20
 30
-1.0000000000000000E+20
  9
$PLIMMIN
 10
0.0
 20
0.0
  9
$PLIMMAX
 10
12.0
 20
9.0
  9
$UNITMODE
 70
     0
  9
$VISRETAIN
 70
     1
  9
$PLINEGEN
 70
     0
  9
$PSLTSCALE
 70
     1
  0
ENDSEC
  0
SECTION
  2
TABLES
  0
TABLE
  2
VPORT
 70
     1
  0
VPORT
  2
*ACTIVE
 70
     0
 10
0.0
 20
0.0
 11
1.0
 21
1.0
 12
275.3882520836089043
 22
54.4116349608277901
 13
0.0
 23
0.0
 14
1.0
 24
1.0
 15
0.0
 25
0.0
 16
0.0
 26
0.0
 36
96.5995694866707311
 17
3303.693115234375
 27
195.2615115758877096
 37
0.0
 40
8.8864101857897566
 41
2.6486111111111108
 42
50.0
 43
0.0
 44
0.0
 50
0.0
 51
0.0
 71
     0
 72
   100
 73
     1
 74
     1
 75
     0
 76
     0
 77
     0
 78
     0
  0
ENDTAB
  0
TABLE
  2
LTYPE
 70
     2
  0
LTYPE
  2
CONTINUOUS
 70
     0
  3
Solid line
 72
    65
 73
     0
 40
0.0
  0
LTYPE
  2
PHANTOM2
 70
     0
  3
___ _ _ ___ _ _ ___ _ _ ___ _ _
 72
    65
 73
     6
 40
1.25
 49
0.625
 49
-0.125
 49
0.125
 49
-0.125
 49
0.125
 49
-0.125
  0
ENDTAB
  0
TABLE
  2
LAYER
 70
     2
  0
LAYER
  2
0
 70
     0
 62
   255
  6
CONTINUOUS
  0
LAYER
  2
DEFPOINTS
 70
     0
 62
     7
  6
CONTINUOUS
  0
ENDTAB
  0
TABLE
  2
STYLE
 70
     1
  0
STYLE
  2
STANDARD
 70
     0
 40
0.0
 41
0.8
 50
0.0
 71
     0
 42
0.2
  3
txt
  4

  0
ENDTAB
  0
TABLE
  2
VIEW
 70
     0
  0
ENDTAB
  0
TABLE
  2
UCS
 70
     0
  0
ENDTAB
  0
TABLE
  2
APPID
 70
     9
  0
APPID
  2
ACAD
 70
     0
  0
APPID
  2
ACAD_MLEADERVER
 70
     0
  0
APPID
  2
ACAD_EXEMPT_FROM_CAD_STANDARDS
 70
     0
  0
APPID
  2
ACAD_NAV_VCDISPLAY
 70
     0
  0
APPID
  2
ACAECLAYERSTANDARD
 70
     0
  0
APPID
  2
ACCMTRANSPARENCY
 70
     0
  0
APPID
  2
ACAD_DSTYLE_DIMJAG
 70
     0
  0
APPID
  2
ACAD_DSTYLE_DIMTALN
 70
     0
  0
APPID
  2
ACDBATTR
 70
     0
  0
ENDTAB
  0
TABLE
  2
DIMSTYLE
 70
     1
  0
DIMSTYLE
  2
STANDARD
 70
     0
  3

  4

  5

  6

  7

 40
1.0
 41
0.1875
 42
0.0625
 43
0.38
 44
0.125
 45
0.0
 46
0.0
 47
0.01
 48
0.01
140
0.15625
141
0.09
142
0.0
143
25.3999999999999986
144
1.0
145
0.0
146
1.0
147
0.09
 71
     1
 72
     0
 73
     1
 74
     1
 75
     0
 76
     0
 77
     0
 78
     4
170
     0
171
     2
172
     0
173
     0
174
     0
175
     0
176
     0
177
     0
178
     0
  0
ENDTAB
  0
ENDSEC
  0
SECTION
  2
BLOCKS
  0
BLOCK
  8
0
  2
$MODEL_SPACE
 70
     0
 10
0.0
 20
0.0
 30
0.0
  3
$MODEL_SPACE
  1

  0
ENDBLK
  5
21
  8
0
  0
BLOCK
 67
     1
  8
0
  2
$PAPER_SPACE
 70
     0
 10
0.0
 20
0.0
 30
0.0
  3
$PAPER_SPACE
  1

  0
ENDBLK
  5
1D
 67
     1
  8
0
  0
BLOCK
  8
0
  2
_FILLED
 70
     0
 10
0.0
 20
0.0
 30
0.0
  3
_FILLED
  1

  0
SOLID
  5
8C85
  8
0
  6
BYBLOCK
 62
     0
 10
0.0
 20
0.0
 30
0.0
 11
-1.0
 21
0.1666666667
 31
0.0
 12
-1.0
 22
-0.1666666667
 32
0.0
 13
-1.0
 23
-0.1666666667
 33
0.0
  0
ENDBLK
  5
8C86
  8
0
  6
BYBLOCK
 62
     0
  0
ENDSEC
  0
SECTION
  2
ENTITIES
  0
LINE
  5
9973
  8
0
 10
3578.6980448353701831
 20
245.266611637159599
 30
0.0
 11
3577.6193046779699216
 21
245.2666373059836076
 31
0.0
  0
ARC
  5
9974
  8
0
 10
3577.6192785706489303
 20
245.4162262897835092
 30
0.0
 40
0.1495889860781234
 50
191.1843702109565015
 51
270.0099996623669085
  0
ARC
  5
9975
  8
0
 10
3577.6740218398899742
 20
245.4227005090872069
 30
0.0
 40
0.2045928636989784
 50
182.9406337077257945
 51
189.9892881833019942
  0
ARC
  5
9976
  8
0
 10
3578.1586778259329549
 20
253.0757412386211911
 30
0.0
 40
0.6889795685237523
 50
0.0001930633502628
 51
180.0340073819230042
  0
LINE
  5
9977
  8
0
 10
3578.8476573944531083
 20
253.0757435602006069
 30
0.0
 11
3578.8476573944531083
 21
245.4331963707716113
 31
0.0
  0
ARC
  5
9978
  8
0
 10
3578.6980067185168082
 20
245.4162827885560887
 30
0.0
 40
0.1496711562501761
 50
270.0145915548750963
 51
337.9216737011057035
  0
ARC
  5
9979
  8
0
 10
3578.6981006060927939
 20
245.4162100640793938
 30
0.0
 40
0.1495568215893417
 50
337.9339720131998206
 51
357.0109614255275119
  0
ARC
  5
997A
  8
0
 10
3577.1858663052112206
 20
245.4344430353588109
 30
0.0
 40
1.661791556862583
 50
359.1024375521186016
 51
359.9570170965656075
  0
ARC
  5
997B
  8
0
 10
3579.2207179779247781
 20
253.0757444259490114
 30
0.0
 40
0.7047244122623758
 50
58.3340724365121517
 51
69.3503330716309705
  0
LINE
  5
997C
  8
0
 10
3579.4701900174700313
 20
252.4162956094716037
 30
0.0
 11
3579.4701900174700313
 21
253.7351932472716101
 31
0.0
  0
ARC
  5
997D
  8
0
 10
3579.283072539143177
 20
252.9487872557508865
 30
0.0
 40
0.5640975905988893
 50
289.2705369080562718
 51
303.0450575837916745
  0
LINE
  5
997E
  8
0
 10
3579.4701900174700313
 20
252.4162956094716037
 30
0.0
 11
3579.4578873550699427
 21
252.4162956094716037
 31
0.0
  0
LINE
  5
997F
  8
0
 10
3579.4578873550699427
 20
252.4162956094716037
 30
0.0
 11
3579.4578873550699427
 21
253.7351932472716101
 31
0.0
  0
LINE
  5
9980
  8
0
 10
3579.4578873550699427
 20
253.7351932472716101
 30
0.0
 11
3579.4701900174700313
 21
253.7351932472716101
 31
0.0
  0
ARC
  5
9981
  8
0
 10
3579.4329996166948149
 20
252.4414647872742989
 30
0.0
 40
0.0353961443194876
 50
278.4522378564361134
 51
314.6778642648528148
  0
LINE
  5
9982
  8
0
 10
3579.4382023150978966
 20
252.4064530897715883
 30
0.0
 11
3578.9063787038248847
 21
252.4057979206264974
 31
0.0
  0
LINE
  5
9983
  8
0
 10
3578.8477094357699571
 20
252.3455932612635024
 30
0.0
 11
3578.9063787038248847
 21
252.4057979206264974
 31
0.0
  0
ARC
  5
9984
  8
0
 10
3579.4329996169658443
 20
253.7100240703651934
 30
0.0
 40
0.0353961434920234
 50
45.3221350260545535
 51
81.5477623869039547
  0
LINE
  5
9985
  8
0
 10
3579.4382023157700132
 20
253.745035766971597
 30
0.0
 11
3579.0641865676698217
 21
253.7450366913716095
 31
0.0
  0
LINE
  5
9986
  8
0
 10
3578.1697864851089435
 20
253.7646317453479128
 30
0.0
 11
3579.0641865676698217
 21
253.7450366913716095
 31
0.0
  0
ARC
  5
9987
  8
0
 10
3578.1586747566711892
 20
253.0757444283715074
 30
0.0
 40
1.003937007899997
 50
108.3099526270126063
 51
226.6640772694510133
  0
ARC
  5
9988
  8
0
 10
3578.1586747566711892
 20
253.0757444283715074
 30
0.0
 40
1.0039370079000021
 50
42.0799348029910973
 51
108.3099526270126063
  0
LINE
  5
9ADC
  8
0
 10
3579.5906740525970235
 20
253.7367714440420912
 30
0.0
 11
3579.5906740525970235
 21
252.4139373017420951
 31
0.0
  0
ARC
  5
9ADD
  8
0
 10
3579.6005170757098313
 20
252.4139373017420951
 30
0.0
 40
0.0098430231128699
 50
180.0
 51
269.9970696571053281
  0
ARC
  5
9ADE
  8
0
 10
3579.6005165723067876
 20
253.7367714440200928
 30
0.0
 40
0.0098425197219772
 50
90.0000000529960857
 51
180.0029302899247057
  0
LINE
  5
9ADF
  8
0
 10
3579.6005165722967831
 20
253.7466139637421065
 30
0.0
 11
3579.8072094855970136
 21
253.7466139639332994
 31
0.0
  0
LINE
  5
9AE0
  8
0
 10
3579.8072094855970136
 20
253.7466139639332994
 30
0.0
 11
3579.8072094855970136
 21
252.4040942786421056
 31
0.0
  0
LINE
  5
9AE1
  8
0
 10
3579.8072094855970136
 20
252.4040942786421056
 30
0.0
 11
3579.6005165722981474
 21
252.4040942786421056
 31
0.0
  0
LINE
  5
9AE2
  8
0
 10
3579.8268945249969875
 20
252.3863777432420932
 30
0.0
 11
3579.8072094855970136
 21
252.4060627826420955
 31
0.0
  0
LINE
  5
9AE3
  8
0
 10
3579.8268900761981968
 20
252.3863777432420932
 30
0.0
 11
3580.9883162965970769
 21
252.3863777432420932
 31
0.0
  0
LINE
  5
9AE4
  8
0
 10
3580.9883162965970769
 20
252.3863777432420932
 30
0.0
 11
3581.0079968871978053
 21
252.4060631528421084
 31
0.0
  0
LINE
  5
9AE5
  8
0
 10
3581.0079968871978053
 20
252.4060631528421084
 30
0.0
 11
3581.0079968871978053
 21
253.7446450895421037
 31
0.0
  0
LINE
  5
9AE6
  8
0
 10
3581.0079968871978053
 20
253.7446450895421037
 30
0.0
 11
3580.9883162965970769
 21
253.7643304991420905
 31
0.0
  0
LINE
  5
9AE7
  8
0
 10
3580.9883162965970769
 20
253.7643304991420905
 30
0.0
 11
3579.8268945249969875
 21
253.7643304991420905
 31
0.0
  0
LINE
  5
9AE8
  8
0
 10
3579.8268945249969875
 20
253.7643304991420905
 30
0.0
 11
3579.8072094855970136
 21
253.7446454597420882
 31
0.0
  0
ARC
  5
9AE9
  8
0
 10
3579.8491376540769124
 20
253.7633159837481003
 30
0.0
 40
0.001014523090406
 50
44.6857095595800971
 51
89.7768213483368669
  0
ARC
  5
9AEA
  8
0
 10
3579.8489623233731436
 20
253.7633570974207942
 30
0.0
 40
0.0011206948915401
 50
1.3836215784450301
 51
36.8634867465502012
  0
ARC
  5
9AEB
  8
0
 10
3579.8420782073430928
 20
253.7640855123233052
 30
0.0
 40
0.0080351517951896
 50
330.3525252525142264
 51
354.9925233611871818
  0
ARC
  5
9AEC
  8
0
 10
3580.0129959187988788
 20
253.6720251670921016
 30
0.0
 40
0.1861010391185929
 50
151.7498679393700058
 51
208.2501320606286015
  0
ARC
  5
9AED
  8
0
 10
3579.8331432681238766
 20
253.5781753277921098
 30
0.0
 40
0.0169296770452578
 50
340.0940118292846819
 51
19.9059881707153288
  0
ARC
  5
9AEE
  8
0
 10
3580.3630314371721397
 20
253.4198423101921094
 30
0.0
 40
0.5361365574522731
 50
163.4668018146332997
 51
196.5331981853665866
  0
ARC
  5
9AEF
  8
0
 10
3579.8193433099590948
 20
253.2593994563920887
 30
0.0
 40
0.0307435746614117
 50
345.1600945824068845
 51
14.8399054177433793
  0
ARC
  5
9AF0
  8
0
 10
3580.5380378162390116
 20
253.075354121192106
 30
0.0
 40
0.7111432912416812
 50
165.6567914665949957
 51
194.3432085334050043
  0
ARC
  5
9AF1
  8
0
 10
3579.8193433089368227
 20
252.8913087859920097
 30
0.0
 40
0.0307435756485149
 50
345.1600950699723853
 51
14.8399049304591397
  0
ARC
  5
9AF2
  8
0
 10
3580.3630314371707755
 20
252.730865932191989
 30
0.0
 40
0.5361365574513925
 50
163.4668018145868871
 51
196.5331981853775005
  0
ARC
  5
9AF3
  8
0
 10
3579.8331432883401249
 20
252.5725329145421085
 30
0.0
 40
0.0169296580546307
 50
340.0939883760115094
 51
19.90601162398087
  0
ARC
  5
9AF4
  8
0
 10
3580.0129959186010637
 20
252.4786830752420883
 30
0.0
 40
0.1861010389198614
 50
151.7498679239662067
 51
208.2501320760337933
  0
ARC
  5
9AF5
  8
0
 10
3579.8400433588121814
 20
252.3857586489639004
 30
0.0
 40
0.010234229431512
 50
12.0773790705558408
 51
28.2163501509668606
  0
ARC
  5
9AF6
  8
0
 10
3579.8482812911897781
 20
252.387521307032813
 30
0.0
 40
0.001809830740332
 50
336.0338677668926266
 51
12.0773790705510606
  0
ARC
  5
9AF7
  8
0
 10
3579.8493028917710035
 20
252.3871588251058995
 30
0.0
 40
0.0007338611706986
 50
291.0359864733446784
 51
329.4816566678982781
  0
ARC
  5
9AF8
  8
0
 10
3579.8490455351188757
 20
252.3877787451494896
 30
0.0
 40
0.001404957278407
 50
274.30032844181261
 51
291.7571071747250926
  0
LINE
  5
9AF9
  8
0
 10
3579.8490614400971026
 20
253.5839395073421088
 30
0.0
 11
3580.9661493814969617
 21
253.5839395073421088
 31
0.0
  0
LINE
  5
9AFA
  8
0
 10
3579.8490614400971026
 20
253.5724111482421108
 30
0.0
 11
3580.9661493814969617
 21
253.5724111482421108
 31
0.0
  0
LINE
  5
9AFB
  8
0
 10
3579.8490614400971026
 20
253.2672734721421079
 30
0.0
 11
3580.9661493814969617
 21
253.2672734721421079
 31
0.0
  0
LINE
  5
9AFC
  8
0
 10
3579.8490614400971026
 20
253.2515254406420979
 30
0.0
 11
3580.9661493814969617
 21
253.2515254406420979
 31
0.0
  0
LINE
  5
9AFD
  8
0
 10
3579.8490614400971026
 20
252.8834347702421042
 30
0.0
 11
3580.9661493814969617
 21
252.8834347702421042
 31
0.0
  0
LINE
  5
9AFE
  8
0
 10
3579.8490614400971026
 20
252.8991828017421142
 30
0.0
 11
3580.9661493814969617
 21
252.8991828017421142
 31
0.0
  0
LINE
  5
9AFF
  8
0
 10
3579.8490614400971026
 20
252.5667687349420873
 30
0.0
 11
3580.9661493814969617
 21
252.5667687349420873
 31
0.0
  0
LINE
  5
9B00
  8
0
 10
3579.8490614400971026
 20
252.5782970941421013
 30
0.0
 11
3580.9661493814969617
 21
252.5782970941421013
 31
0.0
  0
ARC
  5
9B01
  8
0
 10
3580.9660731675180614
 20
253.7633159837481003
 30
0.0
 40
0.001014523090406
 50
90.2231786516631189
 51
135.3142904404199101
  0
ARC
  5
9B02
  8
0
 10
3580.9662484982209207
 20
253.7633570974207942
 30
0.0
 40
0.0011206948915401
 50
143.1365132534498059
 51
178.6163784215549128
  0
ARC
  5
9B03
  8
0
 10
3580.9731326142509715
 20
253.7640855123233052
 30
0.0
 40
0.0080351517951896
 50
185.0074766388127046
 51
209.647474747485802
  0
ARC
  5
9B04
  8
0
 10
3580.8022149027951855
 20
253.6720251670921016
 30
0.0
 40
0.1861010391185929
 50
331.7498679393714269
 51
28.250132060630051
  0
ARC
  5
9B05
  8
0
 10
3580.9820675534710972
 20
253.5781753277921098
 30
0.0
 40
0.0169296770452578
 50
160.0940118292847103
 51
199.9059881707152897
  0
ARC
  5
9B06
  8
0
 10
3580.4521793844228341
 20
253.4198423101921094
 30
0.0
 40
0.5361365574522731
 50
343.4668018146334134
 51
16.5331981853666186
  0
ARC
  5
9B07
  8
0
 10
3580.9958675116358791
 20
253.2593994563920887
 30
0.0
 40
0.0307435746614117
 50
165.1600945822565905
 51
194.8399054175930871
  0
ARC
  5
9B08
  8
0
 10
3580.2771730053559622
 20
253.075354121192106
 30
0.0
 40
0.7111432912416812
 50
345.6567914665949957
 51
14.3432085334050203
  0
ARC
  5
9B09
  8
0
 10
3580.9958675126567869
 20
252.8913087859920097
 30
0.0
 40
0.0307435756485149
 50
165.1600950695408017
 51
194.839904930027501
  0
ARC
  5
9B0A
  8
0
 10
3580.4521793844228341
 20
252.730865932191989
 30
0.0
 40
0.5361365574513925
 50
343.4668018146223858
 51
16.5331981854130596
  0
ARC
  5
9B0B
  8
0
 10
3580.982067533254849
 20
252.5725329145421085
 30
0.0
 40
0.0169296580546307
 50
160.093988376019098
 51
199.9060116239884906
  0
ARC
  5
9B0C
  8
0
 10
3580.8022149029939101
 20
252.4786830752420883
 30
0.0
 40
0.1861010389198614
 50
331.7498679239661783
 51
28.2501320760337684
  0
ARC
  5
9B0D
  8
0
 10
3580.9751674627818829
 20
252.3857586489639004
 30
0.0
 40
0.010234229431512
 50
151.783649849033111
 51
167.9226209294442071
  0
ARC
  5
9B0E
  8
0
 10
3580.9669295304061052
 20
252.387521307032813
 30
0.0
 40
0.001809830740332
 50
167.9226209294488967
 51
203.9661322331074018
  0
ARC
  5
9B0F
  8
0
 10
3580.9659079298239703
 20
252.3871588251058995
 30
0.0
 40
0.0007338611706986
 50
210.5183433321016935
 51
248.9640135266552932
  0
ARC
  5
9B10
  8
0
 10
3580.9661652864760981
 20
252.3877787451494896
 30
0.0
 40
0.001404957278407
 50
248.2428928252749074
 51
265.69967155818739
  0
LINE
  5
9B12
  8
0
 10
3577.4696983787698628
 20
245.4122046474051899
 30
0.0
 11
3577.4696983787698628
 21
253.0761501280402967
 31
0.0
  0
ATTDEF
  5
9BA4
  8
DEFPOINTS
 10
3578.1588558946109515
 20
253.0792699970542117
 30
0.0
 40
0.001
  1
K-73054T-7GCH
  3

  2
MODELNUMBER
 70
     0
1001
ACDBATTR
1070
     0
1070
     1
  0
ATTDEF
  5
9BA5
  8
DEFPOINTS
 10
3578.1588558946109515
 20
253.0776033303876034
 30
0.0
 40
0.001
  1
COMPOSED
  3

  2
TRADENAME
 70
     0
1001
ACDBATTR
1070
     0
1070
     1
  0
ATTDEF
  5
9BA6
  8
DEFPOINTS
 10
3578.1588558946109515
 20
253.0759366637209098
 30
0.0
 40
0.001
  1
BATHROOM SINK FAUSET
  3

  2
PRODUCT
 70
     0
1001
ACDBATTR
1070
     0
1070
     1
  0
ENDSEC
  0
EOF
