  0
SECTION
  2
HEADER
  9
$ACADVER
  1
AC1009
  9
$INSBASE
 10
3603.9854398995012161
 20
256.2971662527071999
 30
0.0
  9
$EXTMIN
 10
3602.9813747123162102
 20
248.4880444168541942
 30
0.0
  9
$EXTMAX
 10
3606.8634784893060896
 20
257.3012460240335031
 30
0.0
  9
$LIMMIN
 10
0.0
 20
0.0
  9
$LIMMAX
 10
11.6929133858000007
 20
8.2677165353999982
  9
$ORTHOMODE
 70
     0
  9
$REGENMODE
 70
     1
  9
$FILLMODE
 70
     1
  9
$QTEXTMODE
 70
     0
  9
$MIRRTEXT
 70
     0
  9
$DRAGMODE
 70
     2
  9
$LTSCALE
 40
0.6431102362
  9
$OSMODE
 70
  4095
  9
$ATTMODE
 70
     1
  9
$TEXTSIZE
 40
0.2
  9
$TRACEWID
 40
0.05
  9
$TEXTSTYLE
  7
STANDARD
  9
$CLAYER
  8
0
  9
$CELTYPE
  6
BYLAYER
  9
$CECOLOR
 62
   256
  9
$DIMSCALE
 40
1.0
  9
$DIMASZ
 40
0.1875
  9
$DIMEXO
 40
0.0625
  9
$DIMDLI
 40
0.4443307087
  9
$DIMRND
 40
0.0
  9
$DIMDLE
 40
0.0
  9
$DIMEXE
 40
0.125
  9
$DIMTP
 40
0.01
  9
$DIMTM
 40
0.01
  9
$DIMTXT
 40
2.0
  9
$DIMCEN
 40
0.1052362205
  9
$DIMTSZ
 40
0.0
  9
$DIMTOL
 70
     1
  9
$DIMLIM
 70
     0
  9
$DIMTIH
 70
     1
  9
$DIMTOH
 70
     1
  9
$DIMSE1
 70
     0
  9
$DIMSE2
 70
     0
  9
$DIMTAD
 70
     0
  9
$DIMZIN
 70
     0
  9
$DIMBLK
  1

  9
$DIMASO
 70
     1
  9
$DIMSHO
 70
     1
  9
$DIMPOST
  1
\X
  9
$DIMAPOST
  1

  9
$DIMALT
 70
     1
  9
$DIMALTD
 70
     2
  9
$DIMALTF
 40
25.3999999999999986
  9
$DIMLFAC
 40
1.0
  9
$DIMTOFL
 70
     0
  9
$DIMTVP
 40
0.0
  9
$DIMTIX
 70
     0
  9
$DIMSOXD
 70
     0
  9
$DIMSAH
 70
     0
  9
$DIMBLK1
  1

  9
$DIMBLK2
  1

  9
$DIMSTYLE
  2
STANDARD
  9
$DIMCLRD
 70
     0
  9
$DIMCLRE
 70
     0
  9
$DIMCLRT
 70
     0
  9
$DIMTFAC
 40
1.0
  9
$DIMGAP
 40
0.09
  9
$LUNITS
 70
     2
  9
$LUPREC
 70
     4
  9
$SKETCHINC
 40
0.1
  9
$FILLETRAD
 40
0.0
  9
$AUNITS
 70
     0
  9
$AUPREC
 70
     0
  9
$MENU
  1
.
  9
$ELEVATION
 40
0.0
  9
$PELEVATION
 40
0.0
  9
$THICKNESS
 40
0.0
  9
$LIMCHECK
 70
     0
  9
$BLIPMODE
 70
     0
  9
$CHAMFERA
 40
0.0
  9
$CHAMFERB
 40
0.0
  9
$SKPOLY
 70
     0
  9
$TDCREATE
 40
2458060.468368056230247
  9
$TDUPDATE
 40
2459068.778333333786577
  9
$TDINDWG
 40
0.5295209491
  9
$TDUSRTIMER
 40
0.5295209491
  9
$USRTIMER
 70
     1
  9
$ANGBASE
 50
0.0
  9
$ANGDIR
 70
     0
  9
$PDMODE
 70
     0
  9
$PDSIZE
 40
0.3125
  9
$PLINEWID
 40
0.0
  9
$COORDS
 70
     1
  9
$SPLFRAME
 70
     0
  9
$SPLINETYPE
 70
     6
  9
$SPLINESEGS
 70
     8
  9
$ATTDIA
 70
     1
  9
$ATTREQ
 70
     1
  9
$HANDLING
 70
     1
  9
$HANDSEED
  5
9599
  9
$SURFTAB1
 70
     6
  9
$SURFTAB2
 70
     6
  9
$SURFTYPE
 70
     6
  9
$SURFU
 70
     6
  9
$SURFV
 70
     6
  9
$UCSNAME
  2

  9
$UCSORG
 10
0.0
 20
0.0
 30
0.0
  9
$UCSXDIR
 10
1.0
 20
0.0
 30
0.0
  9
$UCSYDIR
 10
0.0
 20
1.0
 30
0.0
  9
$PUCSNAME
  2

  9
$PUCSORG
 10
0.0
 20
0.0
 30
0.0
  9
$PUCSXDIR
 10
1.0
 20
0.0
 30
0.0
  9
$PUCSYDIR
 10
0.0
 20
1.0
 30
0.0
  9
$USERI1
 70
     0
  9
$USERI2
 70
     0
  9
$USERI3
 70
     0
  9
$USERI4
 70
     0
  9
$USERI5
 70
     0
  9
$USERR1
 40
0.0
  9
$USERR2
 40
0.0
  9
$USERR3
 40
0.0
  9
$USERR4
 40
0.0
  9
$USERR5
 40
0.0
  9
$WORLDVIEW
 70
     1
  9
$SHADEDGE
 70
     3
  9
$SHADEDIF
 70
    70
  9
$TILEMODE
 70
     1
  9
$MAXACTVP
 70
    64
  9
$PLIMCHECK
 70
     0
  9
$PEXTMIN
 10
1.0000000000000000E+20
 20
1.0000000000000000E+20
 30
1.0000000000000000E+20
  9
$PEXTMAX
 10
-1.0000000000000000E+20
 20
-1.0000000000000000E+20
 30
-1.0000000000000000E+20
  9
$PLIMMIN
 10
0.0
 20
0.0
  9
$PLIMMAX
 10
12.0
 20
9.0
  9
$UNITMODE
 70
     0
  9
$VISRETAIN
 70
     1
  9
$PLINEGEN
 70
     0
  9
$PSLTSCALE
 70
     1
  0
ENDSEC
  0
SECTION
  2
TABLES
  0
TABLE
  2
VPORT
 70
     1
  0
VPORT
  2
*ACTIVE
 70
     0
 10
0.0
 20
0.0
 11
1.0
 21
1.0
 12
301.2293113664362068
 22
57.6331336445560893
 13
0.0
 23
0.0
 14
1.0
 24
1.0
 15
0.0
 25
0.0
 16
0.0
 26
0.0
 36
96.5995694866707311
 17
3303.693115234375
 27
195.2615115758877096
 37
0.0
 40
8.8683991120260242
 41
2.005224660397074
 42
50.0
 43
0.0
 44
0.0
 50
0.0
 51
0.0
 71
     0
 72
   100
 73
     1
 74
     1
 75
     0
 76
     0
 77
     0
 78
     0
  0
ENDTAB
  0
TABLE
  2
LTYPE
 70
     2
  0
LTYPE
  2
CONTINUOUS
 70
     0
  3
Solid line
 72
    65
 73
     0
 40
0.0
  0
LTYPE
  2
PHANTOM2
 70
     0
  3
___ _ _ ___ _ _ ___ _ _ ___ _ _
 72
    65
 73
     6
 40
1.25
 49
0.625
 49
-0.125
 49
0.125
 49
-0.125
 49
0.125
 49
-0.125
  0
ENDTAB
  0
TABLE
  2
LAYER
 70
     2
  0
LAYER
  2
0
 70
     0
 62
   255
  6
CONTINUOUS
  0
LAYER
  2
DEFPOINTS
 70
     0
 62
     7
  6
CONTINUOUS
  0
ENDTAB
  0
TABLE
  2
STYLE
 70
     1
  0
STYLE
  2
STANDARD
 70
     0
 40
0.0
 41
0.8
 50
0.0
 71
     0
 42
0.2
  3
txt
  4

  0
ENDTAB
  0
TABLE
  2
VIEW
 70
     0
  0
ENDTAB
  0
TABLE
  2
UCS
 70
     0
  0
ENDTAB
  0
TABLE
  2
APPID
 70
     9
  0
APPID
  2
ACAD
 70
     0
  0
APPID
  2
ACAD_MLEADERVER
 70
     0
  0
APPID
  2
ACAD_EXEMPT_FROM_CAD_STANDARDS
 70
     0
  0
APPID
  2
ACAD_NAV_VCDISPLAY
 70
     0
  0
APPID
  2
ACAECLAYERSTANDARD
 70
     0
  0
APPID
  2
ACCMTRANSPARENCY
 70
     0
  0
APPID
  2
ACAD_DSTYLE_DIMJAG
 70
     0
  0
APPID
  2
ACAD_DSTYLE_DIMTALN
 70
     0
  0
APPID
  2
ACDBATTR
 70
     0
  0
ENDTAB
  0
TABLE
  2
DIMSTYLE
 70
     1
  0
DIMSTYLE
  2
STANDARD
 70
     0
  3

  4

  5

  6

  7

 40
1.0
 41
0.1875
 42
0.0625
 43
0.38
 44
0.125
 45
0.0
 46
0.0
 47
0.01
 48
0.01
140
0.15625
141
0.09
142
0.0
143
25.3999999999999986
144
1.0
145
0.0
146
1.0
147
0.09
 71
     1
 72
     0
 73
     1
 74
     1
 75
     0
 76
     0
 77
     0
 78
     4
170
     0
171
     2
172
     0
173
     0
174
     0
175
     0
176
     0
177
     0
178
     0
  0
ENDTAB
  0
ENDSEC
  0
SECTION
  2
BLOCKS
  0
BLOCK
  8
0
  2
$MODEL_SPACE
 70
     0
 10
0.0
 20
0.0
 30
0.0
  3
$MODEL_SPACE
  1

  0
ENDBLK
  5
21
  8
0
  0
BLOCK
 67
     1
  8
0
  2
$PAPER_SPACE
 70
     0
 10
0.0
 20
0.0
 30
0.0
  3
$PAPER_SPACE
  1

  0
ENDBLK
  5
1D
 67
     1
  8
0
  0
ENDSEC
  0
SECTION
  2
ENTITIES
  0
ATTDEF
  5
3930
  8
DEFPOINTS
 10
3603.9819963948198165
 20
256.2945438109402971
 30
0.0
 40
0.001
  1
K-73054T-7ND
  3

  2
MODELNUMBER
 70
     0
1001
ACDBATTR
1070
     0
1070
     1
  0
ATTDEF
  5
3931
  8
DEFPOINTS
 10
3603.9819963948198165
 20
256.2928771442736888
 30
0.0
 40
0.001
  1
COMPOSED
  3

  2
TRADENAME
 70
     0
1001
ACDBATTR
1070
     0
1070
     1
  0
ATTDEF
  5
3932
  8
DEFPOINTS
 10
3603.9819963948198165
 20
256.2912104776070237
 30
0.0
 40
0.001
  1
BATHROOM SINK FAUSET
  3

  2
PRODUCT
 70
     0
1001
ACDBATTR
1070
     0
1070
     1
  0
LINE
  5
94F6
  8
0
 10
3604.5246855481650528
 20
248.4880444168541942
 30
0.0
 11
3603.4459453907647912
 21
248.4880700856780891
 31
0.0
  0
ARC
  5
94F7
  8
0
 10
3603.4459192834428904
 20
248.6376590694781044
 30
0.0
 40
0.1495889860781234
 50
191.1843702109565015
 51
270.0099996623669085
  0
ARC
  5
94F8
  8
0
 10
3603.5006625526848438
 20
248.6441332887818021
 30
0.0
 40
0.2045928636989784
 50
177.0593662908082138
 51
189.9892881833019942
  0
LINE
  5
94F9
  8
0
 10
3603.2963390915651871
 20
248.6546291504689918
 30
0.0
 11
3603.2963390915651871
 21
256.2967650808661801
 31
0.0
  0
ARC
  5
94FA
  8
0
 10
3603.9853185625961487
 20
256.2971739944695173
 30
0.0
 40
0.6889795923771345
 50
0.0001950464074815
 51
180.0340053976815966
  0
LINE
  5
94FB
  8
0
 10
3604.6742981549691649
 20
256.2971763398952021
 30
0.0
 11
3604.674291847465156
 21
248.6546291504662065
 31
0.0
  0
ARC
  5
94FC
  8
0
 10
3604.524647431311223
 20
248.6377155682507123
 30
0.0
 40
0.1496711562501761
 50
270.0145915548750963
 51
337.9216737011057035
  0
ARC
  5
94FD
  8
0
 10
3604.5247413188890278
 20
248.6376428437739889
 30
0.0
 40
0.1495568215893417
 50
337.9339720131998206
 51
357.0109614255275119
  0
ARC
  5
94FE
  8
0
 10
3603.1179147205739355
 20
248.6546175438919022
 30
0.0
 40
1.5563771269341089
 50
359.0879671871472283
 51
0.0004272792944174
  0
LINE
  5
94FF
  8
0
 10
3606.8634784893060896
 20
255.671477058866202
 30
0.0
 11
3606.8634784893060896
 21
256.9228773573661897
 31
0.0
  0
ARC
  5
9500
  8
0
 10
3606.8319824263339797
 20
256.9228773573661897
 30
0.0
 40
0.0314960629732379
 50
0.0
 51
89.5000000697866653
  0
LINE
  5
9501
  8
0
 10
3606.8322572778070025
 20
256.954372221066194
 30
0.0
 11
3605.4540983832921484
 21
256.9663992298545736
 31
0.0
  0
ARC
  5
9502
  8
0
 10
3605.4540296703548847
 20
256.9585255061080034
 30
0.0
 40
0.0078740235652192
 50
89.5000000697866653
 51
180.0807322731712929
  0
LINE
  5
9503
  8
0
 10
3605.4461556546070824
 20
256.9585144112660942
 30
0.0
 11
3605.4461556546070824
 21
255.6358302135984957
 31
0.0
  0
ARC
  5
9504
  8
0
 10
3605.4540296704772118
 20
255.6358289007361009
 30
0.0
 40
0.0078740158699748
 50
180.0000012368423086
 51
269.9999994908312146
  0
LINE
  5
9505
  8
0
 10
3605.4540296704058164
 20
255.6279548848661989
 30
0.0
 11
3606.8322047990268402
 21
255.6399817371907943
 31
0.0
  0
ARC
  5
9506
  8
0
 10
3606.8319823511337745
 20
255.6714770898115887
 30
0.0
 40
0.0314961381724157
 50
270.404666480513697
 51
359.9999437059710203
  0
ARC
  5
9507
  8
0
 10
3605.0483075939278024
 20
256.2971772056436066
 30
0.0
 40
0.7047244122623758
 50
55.6293561282008326
 51
69.3503330716309705
  0
LINE
  5
9508
  8
0
 10
3605.2968307302649009
 20
255.6377283891661989
 30
0.0
 11
3605.2968307302649009
 21
256.9566260269660916
 31
0.0
  0
ARC
  5
9509
  8
0
 10
3605.0483075939291666
 20
256.2971772104868933
 30
0.0
 40
0.7047244122603682
 50
290.6496669283412189
 51
304.3706438718065215
  0
LINE
  5
950A
  8
0
 10
3605.2968307302649009
 20
255.6377283891661989
 30
0.0
 11
3605.2845280678648123
 21
255.6377283891661989
 31
0.0
  0
LINE
  5
950B
  8
0
 10
3605.2845280678648123
 20
255.6377283891661989
 30
0.0
 11
3605.2845280678648123
 21
256.9566260269660916
 31
0.0
  0
LINE
  5
950C
  8
0
 10
3605.2845280678648123
 20
256.9566260269660916
 30
0.0
 11
3605.2968307302649009
 21
256.9566260269660916
 31
0.0
  0
ARC
  5
950D
  8
0
 10
3605.2596403294901393
 20
255.6628975669688941
 30
0.0
 40
0.0353961443194876
 50
278.4522378564361134
 51
314.6778642648528148
  0
LINE
  5
950E
  8
0
 10
3605.2648430278918568
 20
255.6278858694662119
 30
0.0
 11
3604.7333351990878327
 21
255.6272310893428141
 31
0.0
  0
ARC
  5
950F
  8
0
 10
3605.2596403297611687
 20
256.931456850059817
 30
0.0
 40
0.0353961434920234
 50
45.3221350260545535
 51
81.5477623869039547
  0
LINE
  5
9510
  8
0
 10
3605.2648430285648828
 20
256.9664685466661922
 30
0.0
 11
3604.8908272804660555
 21
256.966469471066091
 31
0.0
  0
LINE
  5
9511
  8
0
 10
3603.9964271979038131
 20
256.9860645250424795
 30
0.0
 11
3604.8908272804660555
 21
256.966469471066091
 31
0.0
  0
ARC
  5
9513
  8
0
 10
3603.9854467418799686
 20
256.2971739944695173
 30
0.0
 40
1.0040720295640411
 50
313.3185572364229756
 51
318.1466790193707084
  0
ARC
  5
9514
  8
0
 10
3603.9854467418799686
 20
256.2971739944695173
 30
0.0
 40
1.0040720295640411
 50
42.0727516851240466
 51
226.6610480212384005
  0
ENDSEC
  0
EOF
