  0
SECTION
  2
HEADER
  9
$ACADVER
  1
AC1009
  9
$INSBASE
 10
3612.9776409860669446
 20
230.0155378019304919
 30
0.0
  9
$EXTMIN
 10
3605.1685167042160174
 20
230.010672608810296
 30
0.0
  9
$EXTMAX
 10
3613.9815736834780182
 20
240.8301673065305124
 30
0.0
  9
$LIMMIN
 10
0.0
 20
0.0
  9
$LIMMAX
 10
11.6929133858000007
 20
8.2677165353999982
  9
$ORTHOMODE
 70
     0
  9
$REGENMODE
 70
     1
  9
$FILLMODE
 70
     1
  9
$QTEXTMODE
 70
     0
  9
$MIRRTEXT
 70
     0
  9
$DRAGMODE
 70
     2
  9
$LTSCALE
 40
0.6431102362
  9
$OSMODE
 70
  4095
  9
$ATTMODE
 70
     1
  9
$TEXTSIZE
 40
0.2
  9
$TRACEWID
 40
0.05
  9
$TEXTSTYLE
  7
STANDARD
  9
$CLAYER
  8
0
  9
$CELTYPE
  6
BYLAYER
  9
$CECOLOR
 62
   256
  9
$DIMSCALE
 40
1.0
  9
$DIMASZ
 40
0.1875
  9
$DIMEXO
 40
0.0625
  9
$DIMDLI
 40
0.4443307087
  9
$DIMRND
 40
0.0
  9
$DIMDLE
 40
0.0
  9
$DIMEXE
 40
0.125
  9
$DIMTP
 40
0.01
  9
$DIMTM
 40
0.01
  9
$DIMTXT
 40
2.0
  9
$DIMCEN
 40
0.1052362205
  9
$DIMTSZ
 40
0.0
  9
$DIMTOL
 70
     1
  9
$DIMLIM
 70
     0
  9
$DIMTIH
 70
     1
  9
$DIMTOH
 70
     1
  9
$DIMSE1
 70
     0
  9
$DIMSE2
 70
     0
  9
$DIMTAD
 70
     0
  9
$DIMZIN
 70
     0
  9
$DIMBLK
  1

  9
$DIMASO
 70
     1
  9
$DIMSHO
 70
     1
  9
$DIMPOST
  1
\X
  9
$DIMAPOST
  1

  9
$DIMALT
 70
     1
  9
$DIMALTD
 70
     2
  9
$DIMALTF
 40
25.3999999999999986
  9
$DIMLFAC
 40
1.0
  9
$DIMTOFL
 70
     0
  9
$DIMTVP
 40
0.0
  9
$DIMTIX
 70
     0
  9
$DIMSOXD
 70
     0
  9
$DIMSAH
 70
     0
  9
$DIMBLK1
  1

  9
$DIMBLK2
  1

  9
$DIMSTYLE
  2
STANDARD
  9
$DIMCLRD
 70
     0
  9
$DIMCLRE
 70
     0
  9
$DIMCLRT
 70
     0
  9
$DIMTFAC
 40
1.0
  9
$DIMGAP
 40
0.09
  9
$LUNITS
 70
     2
  9
$LUPREC
 70
     4
  9
$SKETCHINC
 40
0.1
  9
$FILLETRAD
 40
0.0
  9
$AUNITS
 70
     0
  9
$AUPREC
 70
     0
  9
$MENU
  1
.
  9
$ELEVATION
 40
0.0
  9
$PELEVATION
 40
0.0
  9
$THICKNESS
 40
0.0
  9
$LIMCHECK
 70
     0
  9
$BLIPMODE
 70
     0
  9
$CHAMFERA
 40
0.0
  9
$CHAMFERB
 40
0.0
  9
$SKPOLY
 70
     0
  9
$TDCREATE
 40
2458060.468368056230247
  9
$TDUPDATE
 40
2459003.6658564819954336
  9
$TDINDWG
 40
0.5233982639
  9
$TDUSRTIMER
 40
0.5233982639
  9
$USRTIMER
 70
     1
  9
$ANGBASE
 50
0.0
  9
$ANGDIR
 70
     0
  9
$PDMODE
 70
     0
  9
$PDSIZE
 40
0.3125
  9
$PLINEWID
 40
0.0
  9
$COORDS
 70
     1
  9
$SPLFRAME
 70
     0
  9
$SPLINETYPE
 70
     6
  9
$SPLINESEGS
 70
     8
  9
$ATTDIA
 70
     1
  9
$ATTREQ
 70
     1
  9
$HANDLING
 70
     1
  9
$HANDSEED
  5
93A5
  9
$SURFTAB1
 70
     6
  9
$SURFTAB2
 70
     6
  9
$SURFTYPE
 70
     6
  9
$SURFU
 70
     6
  9
$SURFV
 70
     6
  9
$UCSNAME
  2

  9
$UCSORG
 10
0.0
 20
0.0
 30
0.0
  9
$UCSXDIR
 10
1.0
 20
0.0
 30
0.0
  9
$UCSYDIR
 10
0.0
 20
1.0
 30
0.0
  9
$PUCSNAME
  2

  9
$PUCSORG
 10
0.0
 20
0.0
 30
0.0
  9
$PUCSXDIR
 10
1.0
 20
0.0
 30
0.0
  9
$PUCSYDIR
 10
0.0
 20
1.0
 30
0.0
  9
$USERI1
 70
     0
  9
$USERI2
 70
     0
  9
$USERI3
 70
     0
  9
$USERI4
 70
     0
  9
$USERI5
 70
     0
  9
$USERR1
 40
0.0
  9
$USERR2
 40
0.0
  9
$USERR3
 40
0.0
  9
$USERR4
 40
0.0
  9
$USERR5
 40
0.0
  9
$WORLDVIEW
 70
     1
  9
$SHADEDGE
 70
     3
  9
$SHADEDIF
 70
    70
  9
$TILEMODE
 70
     1
  9
$MAXACTVP
 70
    64
  9
$PLIMCHECK
 70
     0
  9
$PEXTMIN
 10
1.0000000000000000E+20
 20
1.0000000000000000E+20
 30
1.0000000000000000E+20
  9
$PEXTMAX
 10
-1.0000000000000000E+20
 20
-1.0000000000000000E+20
 30
-1.0000000000000000E+20
  9
$PLIMMIN
 10
0.0
 20
0.0
  9
$PLIMMAX
 10
12.0
 20
9.0
  9
$UNITMODE
 70
     0
  9
$VISRETAIN
 70
     1
  9
$PLINEGEN
 70
     0
  9
$PSLTSCALE
 70
     1
  0
ENDSEC
  0
SECTION
  2
TABLES
  0
TABLE
  2
VPORT
 70
     1
  0
VPORT
  2
*ACTIVE
 70
     0
 10
0.0
 20
0.0
 11
1.0
 21
1.0
 12
314.9913063143006866
 22
32.2532249066336121
 13
0.0
 23
0.0
 14
1.0
 24
1.0
 15
0.0
 25
0.0
 16
0.0
 26
0.0
 36
96.5995694866707311
 17
3303.693115234375
 27
195.2615115758877096
 37
0.0
 40
84.504491994133403
 41
2.6486111111111108
 42
50.0
 43
0.0
 44
0.0
 50
0.0
 51
0.0
 71
     0
 72
   100
 73
     1
 74
     1
 75
     0
 76
     0
 77
     0
 78
     0
  0
ENDTAB
  0
TABLE
  2
LTYPE
 70
     2
  0
LTYPE
  2
CONTINUOUS
 70
     0
  3
Solid line
 72
    65
 73
     0
 40
0.0
  0
LTYPE
  2
PHANTOM2
 70
     0
  3
___ _ _ ___ _ _ ___ _ _ ___ _ _
 72
    65
 73
     6
 40
1.25
 49
0.625
 49
-0.125
 49
0.125
 49
-0.125
 49
0.125
 49
-0.125
  0
ENDTAB
  0
TABLE
  2
LAYER
 70
     2
  0
LAYER
  2
0
 70
     0
 62
   255
  6
CONTINUOUS
  0
LAYER
  2
DEFPOINTS
 70
     0
 62
     7
  6
CONTINUOUS
  0
ENDTAB
  0
TABLE
  2
STYLE
 70
     1
  0
STYLE
  2
STANDARD
 70
     0
 40
0.0
 41
0.8
 50
0.0
 71
     0
 42
0.2
  3
txt
  4

  0
ENDTAB
  0
TABLE
  2
VIEW
 70
     0
  0
ENDTAB
  0
TABLE
  2
UCS
 70
     0
  0
ENDTAB
  0
TABLE
  2
APPID
 70
     9
  0
APPID
  2
ACAD
 70
     0
  0
APPID
  2
ACAD_MLEADERVER
 70
     0
  0
APPID
  2
ACAD_EXEMPT_FROM_CAD_STANDARDS
 70
     0
  0
APPID
  2
ACAD_NAV_VCDISPLAY
 70
     0
  0
APPID
  2
ACAECLAYERSTANDARD
 70
     0
  0
APPID
  2
ACCMTRANSPARENCY
 70
     0
  0
APPID
  2
ACAD_DSTYLE_DIMJAG
 70
     0
  0
APPID
  2
ACAD_DSTYLE_DIMTALN
 70
     0
  0
APPID
  2
ACDBATTR
 70
     0
  0
ENDTAB
  0
TABLE
  2
DIMSTYLE
 70
     1
  0
DIMSTYLE
  2
STANDARD
 70
     0
  3

  4

  5

  6

  7

 40
1.0
 41
0.1875
 42
0.0625
 43
0.38
 44
0.125
 45
0.0
 46
0.0
 47
0.01
 48
0.01
140
0.15625
141
0.09
142
0.0
143
25.3999999999999986
144
1.0
145
0.0
146
1.0
147
0.09
 71
     1
 72
     0
 73
     1
 74
     1
 75
     0
 76
     0
 77
     0
 78
     4
170
     0
171
     2
172
     0
173
     0
174
     0
175
     0
176
     0
177
     0
178
     0
  0
ENDTAB
  0
ENDSEC
  0
SECTION
  2
BLOCKS
  0
BLOCK
  8
0
  2
$MODEL_SPACE
 70
     0
 10
0.0
 20
0.0
 30
0.0
  3
$MODEL_SPACE
  1

  0
ENDBLK
  5
21
  8
0
  0
BLOCK
 67
     1
  8
0
  2
$PAPER_SPACE
 70
     0
 10
0.0
 20
0.0
 30
0.0
  3
$PAPER_SPACE
  1

  0
ENDBLK
  5
1D
 67
     1
  8
0
  0
BLOCK
  8
0
  2
_FILLED
 70
     0
 10
0.0
 20
0.0
 30
0.0
  3
_FILLED
  1

  0
SOLID
  5
9209
  8
0
  6
BYBLOCK
 62
     0
 10
0.0
 20
0.0
 30
0.0
 11
-1.0
 21
0.1666666667
 31
0.0
 12
-1.0
 22
-0.1666666667
 32
0.0
 13
-1.0
 23
-0.1666666667
 33
0.0
  0
ENDBLK
  5
920A
  8
0
  6
BYBLOCK
 62
     0
  0
ENDSEC
  0
SECTION
  2
ENTITIES
  0
ATTDEF
  5
8F5A
  8
DEFPOINTS
 10
3612.977851250007916
 20
230.0140059421435978
 30
0.0
 40
0.001
  1
K-73054T-7
  3

  2
MODELNUMBER
 70
     0
1001
ACDBATTR
1070
     0
1070
     1
  0
ATTDEF
  5
8F5B
  8
DEFPOINTS
 10
3612.977851250007916
 20
230.0123392754769895
 30
0.0
 40
0.001
  1
COMPOSED
  3

  2
TRADENAME
 70
     0
1001
ACDBATTR
1070
     0
1070
     1
  0
ATTDEF
  5
8F5C
  8
DEFPOINTS
 10
3612.977851250007916
 20
230.010672608810296
 30
0.0
 40
0.001
  1
BATHROOM SINK FAUSET
  3

  2
PRODUCT
 70
     0
1001
ACDBATTR
1070
     0
1070
     1
  0
LINE
  5
9237
  8
0
 10
3613.9815736689179175
 20
230.0155378019304919
 30
0.0
 11
3611.9737083032168812
 21
230.0155378019304919
 31
0.0
  0
LINE
  5
9238
  8
0
 10
3611.9737083032168812
 20
230.0155378019304919
 30
0.0
 11
3611.9737083032168812
 21
230.1533330775305046
 31
0.0
  0
ARC
  5
9239
  8
0
 10
3611.9933933426182193
 20
230.1533330775305046
 30
0.0
 40
0.0196850394014305
 50
90.0006904045749536
 51
180.0000000000032117
  0
LINE
  5
923A
  8
0
 10
3611.9933931054169989
 20
230.1730181169305069
 30
0.0
 11
3613.9618886294738331
 21
230.1730418369724021
 31
0.0
  0
ARC
  5
923B
  8
0
 10
3613.9618888667428109
 20
230.1533570202396106
 30
0.0
 40
0.019684816734298
 50
359.9303109326688173
 51
90.0006906102539546
  0
ARC
  5
923C
  8
0
 10
3613.6469619719809998
 20
230.1926890845579123
 30
0.0
 40
0.0196510721739962
 50
269.9009477919532856
 51
0.0410284610682988
  0
LINE
  5
923D
  8
0
 10
3613.6666130390171929
 20
230.1927031563305093
 30
0.0
 11
3613.6666532945068866
 21
239.964592228026504
 31
0.0
  0
ARC
  5
923E
  8
0
 10
3613.6469676607498513
 20
239.9645926261090096
 30
0.0
 40
0.0196856337613196
 50
359.9988413657551973
 51
87.9061531026322172
  0
ARC
  5
923F
  8
0
 10
3436.4504790793139364
 20
-4713.1617349962707522
 30
0.0
 40
4956.314573237949844
 50
87.951135650460742
 51
88.0488643505290014
  0
ARC
  5
9240
  8
0
 10
3605.2000127672167764
 20
240.3107796586305085
 30
0.0
 40
0.0314960629999934
 50
179.9999999999870113
 51
268.0000002760880875
  0
ARC
  5
9241
  8
0
 10
6722.6972603532958601
 20
131.8114671918046952
 30
0.0
 40
3119.4162223537891805
 50
177.9977532603570864
 51
178.0067402455293859
  0
ARC
  5
9242
  8
0
 10
3605.2181887866659054
 20
240.7974923234399114
 30
0.0
 40
0.0326948104990093
 50
91.9955064902623008
 51
176.0044935058984947
  0
LINE
  5
9243
  8
0
 10
3605.2170503168172218
 20
240.8301673065305124
 30
0.0
 11
3613.6353833680618663
 21
240.5362107529680884
 31
0.0
  0
ARC
  5
9244
  8
0
 10
3613.6342779242258985
 20
240.5047199134309039
 30
0.0
 40
0.0315102418579365
 50
0.0729883904907322
 51
87.9323841761162015
  0
LINE
  5
9245
  8
0
 10
3613.6657881405171793
 20
240.5047600539305108
 30
0.0
 11
3613.6662575653172098
 21
240.0162600664305046
 31
0.0
  0
ARC
  5
9246
  8
0
 10
3613.6347331096289963
 20
240.0162440502805055
 30
0.0
 40
0.031524459756605
 50
269.8865561090349843
 51
0.0291093913464051
  0
LINE
  5
9247
  8
0
 10
3606.116358326657064
 20
240.0975666522735139
 30
0.0
 11
3605.5537091602168402
 21
240.1172155563305068
 31
0.0
  0
ARC
  5
9248
  8
0
 10
3605.6721002093518109
 20
240.2210597125784091
 30
0.0
 40
0.1574803140145057
 50
185.7728192206419067
 51
221.254921740131806
  0
LINE
  5
9249
  8
0
 10
3606.1921713944170733
 20
240.1815869322304877
 30
0.0
 11
3605.4839416745171548
 21
240.206318859030489
 31
0.0
  0
ARC
  5
924A
  8
0
 10
3605.5939047749470774
 20
240.378596750013287
 30
0.0
 40
0.6298695915338742
 50
341.7732299430629155
 51
346.5692466954146198
  0
ARC
  5
924B
  8
0
 10
3606.0945444495177981
 20
240.361125333930687
 30
0.0
 40
0.6299212598011157
 50
189.4308516659069994
 51
194.2265034275999938
  0
ARC
  5
924C
  8
0
 10
3606.0054940152590461
 20
240.2094189954680985
 30
0.0
 40
0.1574860064262253
 50
314.7458219698335142
 51
350.2268575774198212
  0
LINE
  5
924D
  8
0
 10
3606.3120064241170439
 20
240.228614500330508
 30
0.0
 11
3605.3924777034171711
 21
240.2607251508304955
 31
0.0
  0
LINE
  5
924E
  8
0
 10
3605.3924777034171711
 20
240.2607251508304955
 30
0.0
 11
3605.3925224333088408
 21
240.2619362958623128
 31
0.0
  0
LINE
  5
924F
  8
0
 10
3605.3925224333088408
 20
240.2619362958623128
 30
0.0
 11
3605.3730714474650085
 21
240.2729460020632075
 31
0.0
  0
ARC
  5
9250
  8
0
 10
3605.3927597268989302
 20
240.2619301795062086
 30
0.0
 40
0.0002373724030475
 50
112.0370358315958015
 51
178.5235007498583002
  0
ARC
  5
9251
  8
0
 10
3605.46980455708308
 20
234.3377581981991113
 30
0.0
 40
5.9248941210090766
 50
88.4629550962299902
 51
90.7459325556216072
  0
LINE
  5
9252
  8
0
 10
3606.3120064241170439
 20
240.228614500330508
 30
0.0
 11
3606.2901770112771374
 21
240.2411950231532956
 31
0.0
  0
ARC
  5
9253
  8
0
 10
3606.8698285486989334
 20
292.8559308999489872
 30
0.0
 40
52.6179287628481802
 50
268.6322736034222771
 51
269.3688033861516828
  0
ARC
  5
9254
  8
0
 10
3600.2041618545690653
 20
-31.5743939477959294
 30
0.0
 40
271.8890336938973746
 50
88.8018983292198669
 51
88.856792940312161
  0
ARC
  5
9255
  8
0
 10
3612.3100118019488036
 20
240.0106164354725991
 30
0.0
 40
0.0214042209031885
 50
93.3648011600058538
 51
178.0593072599635889
  0
LINE
  5
9256
  8
0
 10
3612.2886198581581993
 20
240.0113412894519058
 30
0.0
 11
3612.288660283117224
 21
230.1927031563305093
 31
0.0
  0
ARC
  5
9257
  8
0
 10
3612.3083454051698027
 20
230.1927032373774011
 30
0.0
 40
0.0196851220533992
 50
180.0002358962084941
 51
268.8753589998162852
  0
CIRCLE
  5
9258
  8
0
 10
3612.9776366611167759
 20
238.9131755972304916
 30
0.0
 40
0.6692217235665598
  0
CIRCLE
  5
9259
  8
0
 10
3612.9776366611167759
 20
238.9131755972304916
 30
0.0
 40
0.5810888271000004
  0
CIRCLE
  5
925A
  8
0
 10
3612.9776366611167759
 20
238.9131755972304916
 30
0.0
 40
0.3195317864000007
  0
LINE
  5
925B
  8
0
 10
3613.9815736689179175
 20
230.0155378019304919
 30
0.0
 11
3613.9815736689179175
 21
230.1533330775305046
 31
0.0
  0
ENDSEC
  0
EOF
