  0
SECTION
  2
HEADER
  9
$ACADVER
  1
AC1009
  9
$INSBASE
 10
5614.9745887457702338
 20
403.3134626625712258
 30
0.0
  9
$EXTMIN
 10
5607.9705933788281982
 20
403.3029241964097196
 30
-0.0000000000112498
  9
$EXTMAX
 10
5616.9696685102962874
 20
407.8775656639974727
 30
0.0000000000002956
  9
$LIMMIN
 10
0.0
 20
0.0
  9
$LIMMAX
 10
11.6929133858000007
 20
8.2677165353999982
  9
$ORTHOMODE
 70
     0
  9
$REGENMODE
 70
     1
  9
$FILLMODE
 70
     1
  9
$QTEXTMODE
 70
     0
  9
$MIRRTEXT
 70
     0
  9
$DRAGMODE
 70
     2
  9
$LTSCALE
 40
0.6431102362
  9
$OSMODE
 70
  3839
  9
$ATTMODE
 70
     1
  9
$TEXTSIZE
 40
0.2
  9
$TRACEWID
 40
0.05
  9
$TEXTSTYLE
  7
STANDARD
  9
$CLAYER
  8
0
  9
$CELTYPE
  6
BYLAYER
  9
$CECOLOR
 62
   256
  9
$DIMSCALE
 40
1.0
  9
$DIMASZ
 40
0.1875
  9
$DIMEXO
 40
0.0625
  9
$DIMDLI
 40
0.4443307087
  9
$DIMRND
 40
0.0
  9
$DIMDLE
 40
0.0
  9
$DIMEXE
 40
0.125
  9
$DIMTP
 40
0.01
  9
$DIMTM
 40
0.01
  9
$DIMTXT
 40
2.0
  9
$DIMCEN
 40
0.1052362205
  9
$DIMTSZ
 40
0.0
  9
$DIMTOL
 70
     1
  9
$DIMLIM
 70
     0
  9
$DIMTIH
 70
     1
  9
$DIMTOH
 70
     1
  9
$DIMSE1
 70
     0
  9
$DIMSE2
 70
     0
  9
$DIMTAD
 70
     0
  9
$DIMZIN
 70
     0
  9
$DIMBLK
  1

  9
$DIMASO
 70
     1
  9
$DIMSHO
 70
     1
  9
$DIMPOST
  1
\X
  9
$DIMAPOST
  1

  9
$DIMALT
 70
     1
  9
$DIMALTD
 70
     2
  9
$DIMALTF
 40
25.3999999999999986
  9
$DIMLFAC
 40
1.0
  9
$DIMTOFL
 70
     0
  9
$DIMTVP
 40
0.0
  9
$DIMTIX
 70
     0
  9
$DIMSOXD
 70
     0
  9
$DIMSAH
 70
     0
  9
$DIMBLK1
  1

  9
$DIMBLK2
  1

  9
$DIMSTYLE
  2
STANDARD
  9
$DIMCLRD
 70
     0
  9
$DIMCLRE
 70
     0
  9
$DIMCLRT
 70
     0
  9
$DIMTFAC
 40
1.0
  9
$DIMGAP
 40
0.09
  9
$LUNITS
 70
     2
  9
$LUPREC
 70
     4
  9
$SKETCHINC
 40
0.1
  9
$FILLETRAD
 40
0.0
  9
$AUNITS
 70
     0
  9
$AUPREC
 70
     0
  9
$MENU
  1
.
  9
$ELEVATION
 40
0.0
  9
$PELEVATION
 40
0.0
  9
$THICKNESS
 40
0.0
  9
$LIMCHECK
 70
     0
  9
$BLIPMODE
 70
     0
  9
$CHAMFERA
 40
0.0
  9
$CHAMFERB
 40
0.0
  9
$SKPOLY
 70
     0
  9
$TDCREATE
 40
2458060.468368056230247
  9
$TDUPDATE
 40
2460459.4322800929658115
  9
$TDINDWG
 40
0.6503658565
  9
$TDUSRTIMER
 40
0.6503658565
  9
$USRTIMER
 70
     1
  9
$ANGBASE
 50
0.0
  9
$ANGDIR
 70
     0
  9
$PDMODE
 70
     0
  9
$PDSIZE
 40
0.3125
  9
$PLINEWID
 40
0.0
  9
$COORDS
 70
     1
  9
$SPLFRAME
 70
     0
  9
$SPLINETYPE
 70
     6
  9
$SPLINESEGS
 70
     8
  9
$ATTDIA
 70
     1
  9
$ATTREQ
 70
     1
  9
$HANDLING
 70
     1
  9
$HANDSEED
  5
2C50B
  9
$SURFTAB1
 70
     6
  9
$SURFTAB2
 70
     6
  9
$SURFTYPE
 70
     6
  9
$SURFU
 70
     6
  9
$SURFV
 70
     6
  9
$UCSNAME
  2

  9
$UCSORG
 10
0.0
 20
0.0
 30
0.0
  9
$UCSXDIR
 10
1.0
 20
0.0
 30
0.0
  9
$UCSYDIR
 10
0.0
 20
1.0
 30
0.0
  9
$PUCSNAME
  2

  9
$PUCSORG
 10
0.0
 20
0.0
 30
0.0
  9
$PUCSXDIR
 10
1.0
 20
0.0
 30
0.0
  9
$PUCSYDIR
 10
0.0
 20
1.0
 30
0.0
  9
$USERI1
 70
     0
  9
$USERI2
 70
     0
  9
$USERI3
 70
     0
  9
$USERI4
 70
     0
  9
$USERI5
 70
     0
  9
$USERR1
 40
0.0
  9
$USERR2
 40
0.0
  9
$USERR3
 40
0.0
  9
$USERR4
 40
0.0
  9
$USERR5
 40
0.0
  9
$WORLDVIEW
 70
     1
  9
$SHADEDGE
 70
     3
  9
$SHADEDIF
 70
    70
  9
$TILEMODE
 70
     1
  9
$MAXACTVP
 70
    64
  9
$PLIMCHECK
 70
     0
  9
$PEXTMIN
 10
1.0000000000000000E+20
 20
1.0000000000000000E+20
 30
1.0000000000000000E+20
  9
$PEXTMAX
 10
-1.0000000000000000E+20
 20
-1.0000000000000000E+20
 30
-1.0000000000000000E+20
  9
$PLIMMIN
 10
0.0
 20
0.0
  9
$PLIMMAX
 10
12.0
 20
9.0
  9
$UNITMODE
 70
     0
  9
$VISRETAIN
 70
     1
  9
$PLINEGEN
 70
     0
  9
$PSLTSCALE
 70
     1
  0
ENDSEC
  0
SECTION
  2
TABLES
  0
TABLE
  2
VPORT
 70
     1
  0
VPORT
  2
*ACTIVE
 70
     0
 10
0.0
 20
0.0
 11
1.0
 21
1.0
 12
1701.1047744992499702
 22
273.0106398276645905
 13
0.0
 23
0.0
 14
1.0
 24
1.0
 15
0.0
 25
0.0
 16
0.0
 26
0.0
 36
60.4960186965801583
 17
3911.3653564453120453
 27
132.5796051025390057
 37
0.0
 40
4.6051052287481289
 41
2.1211111111111101
 42
50.0
 43
0.0
 44
0.0
 50
0.0
 51
0.0
 71
     0
 72
   100
 73
     1
 74
     1
 75
     0
 76
     0
 77
     0
 78
     1
  0
ENDTAB
  0
TABLE
  2
LTYPE
 70
     3
  0
LTYPE
  2
CONTINUOUS
 70
     0
  3
Solid line
 72
    65
 73
     0
 40
0.0
  0
LTYPE
  2
PHANTOM2
 70
     0
  3
___ _ _ ___ _ _ ___ _ _ ___ _ _
 72
    65
 73
     6
 40
1.25
 49
0.625
 49
-0.125
 49
0.125
 49
-0.125
 49
0.125
 49
-0.125
  0
ENDTAB
  0
TABLE
  2
LAYER
 70
     2
  0
LAYER
  2
0
 70
     0
 62
   255
  6
CONTINUOUS
  0
LAYER
  2
DEFPOINTS
 70
     0
 62
     7
  6
CONTINUOUS
  0
ENDTAB
  0
TABLE
  2
STYLE
 70
     1
  0
STYLE
  2
STANDARD
 70
     0
 40
0.0
 41
0.8
 50
0.0
 71
     0
 42
0.2
  3
txt
  4

  0
ENDTAB
  0
TABLE
  2
VIEW
 70
     0
  0
ENDTAB
  0
TABLE
  2
UCS
 70
     0
  0
ENDTAB
  0
TABLE
  2
APPID
 70
    11
  0
APPID
  2
ACAD
 70
     0
  0
APPID
  2
ACAD_MLEADERVER
 70
     0
  0
APPID
  2
ACAD_EXEMPT_FROM_CAD_STANDARDS
 70
     0
  0
APPID
  2
ACAD_NAV_VCDISPLAY
 70
     0
  0
APPID
  2
ACAECLAYERSTANDARD
 70
     0
  0
APPID
  2
ACCMTRANSPARENCY
 70
     0
  0
APPID
  2
ACAD_DSTYLE_DIMJAG
 70
     0
  0
APPID
  2
ACAD_DSTYLE_DIMTALN
 70
     0
  0
APPID
  2
ACDBATTR
 70
     0
  0
APPID
  2
ACADANNOTATIVE
 70
     0
  0
APPID
  2
DCO15
 70
     0
  0
ENDTAB
  0
TABLE
  2
DIMSTYLE
 70
     2
  0
DIMSTYLE
  2
STANDARD
 70
     0
  3

  4

  5

  6

  7

 40
1.0
 41
0.1875
 42
0.0625
 43
0.38
 44
0.125
 45
0.0
 46
0.0
 47
0.01
 48
0.01
140
0.15625
141
0.09
142
0.0
143
25.3999999999999986
144
1.0
145
0.0
146
1.0
147
0.09
 71
     1
 72
     0
 73
     1
 74
     1
 75
     0
 76
     0
 77
     0
 78
     4
170
     0
171
     2
172
     0
173
     0
174
     0
175
     0
176
     0
177
     0
178
     0
  0
ENDTAB
  0
ENDSEC
  0
SECTION
  2
BLOCKS
  0
BLOCK
  8
0
  2
$MODEL_SPACE
 70
     0
 10
0.0
 20
0.0
 30
0.0
  3
$MODEL_SPACE
  1

  0
ENDBLK
  5
21
  8
0
  0
BLOCK
 67
     1
  8
0
  2
$PAPER_SPACE
 70
     0
 10
0.0
 20
0.0
 30
0.0
  3
$PAPER_SPACE
  1

  0
ENDBLK
  5
1D
 67
     1
  8
0
  0
BLOCK
  8
0
  2
_FILLED
 70
     0
 10
0.0
 20
0.0
 30
0.0
  3
_FILLED
  1

  0
SOLID
  5
2A961
  8
0
  6
BYBLOCK
 62
     0
 10
0.0
 20
0.0
 30
0.0
 11
-1.0
 21
0.1666666667
 31
0.0
 12
-1.0
 22
-0.1666666667
 32
0.0
 13
-1.0
 23
-0.1666666667
 33
0.0
  0
ENDBLK
  5
2A962
  8
0
  6
BYBLOCK
 62
     0
  0
ENDSEC
  0
SECTION
  2
ENTITIES
  0
LINE
  5
2BFDB
  8
0
 10
5608.3458708419702816
 20
407.3559854127711901
 30
0.0
 11
5608.3629083915702722
 21
407.8438769975711011
 31
0.0
  0
LINE
  5
2BFDC
  8
0
 10
5613.9706517379199795
 20
403.3134626625712258
 30
0.0
 11
5615.9785257536195786
 21
403.3134626625712258
 31
0.0
  0
LINE
  5
2BFDD
  8
0
 10
5615.9588407142700817
 20
403.4709429774712248
 30
0.0
 11
5613.9903367772703859
 21
403.4709429774712248
 31
0.0
  0
LINE
  5
2BFDE
  8
0
 10
5615.3958418202701068
 20
404.3961398278711954
 30
0.0
 11
5614.5533356711703163
 21
404.3961398278711954
 31
0.0
  0
LINE
  5
2BFDF
  8
0
 10
5613.9706517378699573
 20
403.3134626625712258
 30
0.0
 11
5613.9706517378699573
 21
403.4512579381711816
 31
0.0
  0
LINE
  5
2BFE0
  8
0
 10
5608.3762485216702771
 20
407.3234093395711852
 30
0.0
 11
5615.630525799669158
 21
407.0700854290711845
 31
0.0
  0
LINE
  5
2BFE1
  8
0
 10
5614.2856123677702271
 20
407.0844369999711034
 30
0.0
 11
5614.2856123677702271
 21
404.7622815167712247
 31
0.0
  0
LINE
  5
2BFE2
  8
0
 10
5614.2856123677702271
 20
404.4079508514711847
 30
0.0
 11
5614.2856123677702271
 21
403.502439040471188
 31
0.0
  0
LINE
  5
2BFE3
  8
0
 10
5614.5218328402697807
 20
404.3646437648711753
 30
0.0
 11
5614.5218328402697807
 21
403.502439040471188
 31
0.0
  0
LINE
  5
2BFE4
  8
0
 10
5608.3954844647696518
 20
407.8742546772712103
 30
0.0
 11
5615.6323187281695937
 21
407.6215388561711848
 31
0.0
  0
LINE
  5
2BFE5
  8
0
 10
5615.6632186949700554
 20
407.1015870108711852
 30
0.0
 11
5615.6627313331700861
 21
407.5900869766711025
 31
0.0
  0
LINE
  5
2BFE6
  8
0
 10
5615.4273446512688679
 20
404.3646437648711753
 30
0.0
 11
5615.4273446512688679
 21
403.502439040471188
 31
0.0
  0
LINE
  5
2BFE7
  8
0
 10
5615.6635651236711055
 20
407.0385129167711966
 30
0.0
 11
5615.6635343652196752
 21
405.2027504664711728
 31
0.0
  0
LINE
  5
2BFE8
  8
0
 10
5615.6635651236711055
 20
404.4079508514711847
 30
0.0
 11
5615.6635651236711055
 21
403.502439040471188
 31
0.0
  0
LINE
  5
2BFE9
  8
0
 10
5615.9785257535686469
 20
403.3134626625712258
 30
0.0
 11
5615.9785257535686469
 21
403.4512579381711816
 31
0.0
  0
ARC
  5
2BFEA
  8
0
 10
5615.6312376611685977
 20
407.5900602137710962
 30
0.0
 40
0.0314961184
 50
0.0476043922996867
 51
87.9999999999964047
  0
ARC
  5
2BFEB
  8
0
 10
5615.6316249068686375
 20
407.1015623587712184
 30
0.0
 40
0.0314961131
 50
267.9999999999964189
 51
0.0435824187999127
  0
ARC
  5
2BFEC
  8
0
 10
5614.5532194213401453
 20
404.3647532709542816
 30
0.0
 40
0.0313867721998497
 50
89.7877883133690347
 51
180.1999010623353001
  0
ARC
  5
2BFED
  8
0
 10
5615.3963037007815728
 20
404.3650989759059939
 30
0.0
 40
0.0310442881106547
 50
359.1598259325094773
 51
90.8524846915257172
  0
ARC
  5
2BFEE
  8
0
 10
5615.4588407142700817
 20
403.502439040471188
 30
0.0
 40
0.031496063
 50
180.0
 51
270.0
  0
ARC
  5
2BFEF
  8
0
 10
5614.4903367772703859
 20
403.502439040471188
 30
0.0
 40
0.031496063
 50
270.0
 51
0.0
  0
ARC
  5
2BFF0
  8
0
 10
5615.6320690606689823
 20
403.502439040471188
 30
0.0
 40
0.031496063
 50
270.0
 51
0.0
  0
ARC
  5
2BFF1
  8
0
 10
5614.3171084307687124
 20
403.502439040471188
 30
0.0
 40
0.031496063
 50
180.0
 51
270.0
  0
ARC
  5
2BFF2
  8
0
 10
5608.3773477184686271
 20
407.3548862160711792
 30
0.0
 40
0.031496063
 50
177.9999999999992895
 51
267.9999999999964189
  0
ARC
  5
2BFF3
  8
0
 10
5608.3943852679703923
 20
407.8427778008712039
 30
0.0
 40
0.031496063
 50
87.9999999999964047
 51
177.9999999999992895
  0
ARC
  5
2BFF4
  8
0
 10
5614.3170664023700738
 20
407.0844359959710914
 30
0.0
 40
0.0314960544
 50
88.0534252298184867
 51
179.9982735981982955
  0
ARC
  5
2BFF5
  8
0
 10
5615.6321110954695541
 20
407.0385136505711898
 30
0.0
 40
0.031496054
 50
359.9987678372015125
 51
87.9464547757966955
  0
ARC
  5
2BFF6
  8
0
 10
5613.9903367772703859
 20
403.4512579381711816
 30
0.0
 40
0.0196850394
 50
90.0
 51
180.0
  0
ARC
  5
2BFF7
  8
0
 10
5615.9588407142700817
 20
403.4512579381711816
 30
0.0
 40
0.0196850394
 50
0.0
 51
90.0
  0
LINE
  5
2BFF8
  8
0
 10
5613.5100218165689512
 20
404.4079508514711847
 30
0.0
 11
5616.439155674869653
 21
404.4079508514711847
 31
0.0
  0
LINE
  5
2BFF9
  8
0
 10
5613.5100218165689512
 20
404.7622815168712123
 30
0.0
 11
5616.439155674869653
 21
404.7622815168712123
 31
0.0
  0
LINE
  5
2BFFA
  8
0
 10
5613.4785257535695564
 20
404.4394469144712048
 30
0.0
 11
5613.4785257535695564
 21
404.7307854537710909
 31
0.0
  0
LINE
  5
2BFFB
  8
0
 10
5614.589588745769106
 20
404.4079508514711847
 30
0.0
 11
5614.589588745769106
 21
404.3961398278711954
 31
0.0
  0
LINE
  5
2BFFC
  8
0
 10
5614.6596281158699639
 20
404.4394469144712048
 30
0.0
 11
5614.6596281158699639
 21
404.7307854537710909
 31
0.0
  0
LINE
  5
2BFFD
  8
0
 10
5615.2895493756695942
 20
404.7307854537710909
 30
0.0
 11
5615.2895493756695942
 21
404.4394469144712048
 31
0.0
  0
LINE
  5
2BFFE
  8
0
 10
5615.3595887457704521
 20
404.4079508514711847
 30
0.0
 11
5615.3595887457704521
 21
404.3961398278711954
 31
0.0
  0
LINE
  5
2BFFF
  8
0
 10
5616.4706517378699573
 20
404.7307854537710909
 30
0.0
 11
5616.4706517378699573
 21
404.4394469144712048
 31
0.0
  0
ARC
  5
2C000
  8
0
 10
5615.2580533126701994
 20
404.4394469144712048
 30
0.0
 40
0.031496063
 50
270.0
 51
0.0
  0
ARC
  5
2C001
  8
0
 10
5614.6911241787702238
 20
404.4394469144712048
 30
0.0
 40
0.031496063
 50
180.0
 51
270.0
  0
ARC
  5
2C002
  8
0
 10
5613.5100218165689512
 20
404.4394469144712048
 30
0.0
 40
0.031496063
 50
180.0
 51
270.0
  0
ARC
  5
2C003
  8
0
 10
5616.439155674869653
 20
404.4394469144712048
 30
0.0
 40
0.031496063
 50
270.0
 51
0.0
  0
ARC
  5
2C004
  8
0
 10
5616.4391556746995775
 20
404.7307854537003777
 30
0.0
 40
0.0314960631707066
 50
0.0000001286307913
 51
89.9999996894752741
  0
ARC
  5
2C005
  8
0
 10
5613.5100218167408457
 20
404.7307854537003777
 30
0.0
 40
0.0314960631707106
 50
90.0000003105247259
 51
179.999999871369198
  0
ARC
  5
2C006
  8
0
 10
5615.2580533126701994
 20
404.7307854537710909
 30
0.0
 40
0.031496063
 50
0.0
 51
90.0
  0
ARC
  5
2C007
  8
0
 10
5614.6911241787702238
 20
404.7307854537710909
 30
0.0
 40
0.031496063
 50
90.0
 51
180.0
  0
LINE
  5
2C09E
  8
0
 10
5613.9903367772203637
 20
403.3134626625712258
 30
0.0
 11
5613.9903367772203637
 21
403.4394469145711923
 31
0.0
  0
LINE
  5
2C09F
  8
0
 10
5615.9588407142200595
 20
403.3134626625712258
 30
0.0
 11
5615.9588407142200595
 21
403.4394469145711923
 31
0.0
  0
ARC
  5
2C0A0
  8
0
 10
5615.9273446512197552
 20
403.4394469145711923
 30
0.0
 40
0.031496063
 50
0.0
 51
90.0
  0
ARC
  5
2C0A1
  8
0
 10
5614.0218328402197585
 20
403.4394469145711923
 30
0.0
 40
0.031496063
 50
90.0
 51
180.0
  0
ARC
  5
2C0A2
  8
0
 10
5609.2722915995191215
 20
407.4170357200709987
 30
0.0
 40
0.6299212597991577
 50
189.4308516658973929
 51
194.2265034275982885
  0
LINE
  5
2C0A3
  8
0
 10
5608.6616889073811763
 20
407.262228918213907
 30
0.0
 11
5609.3699184388788126
 21
407.2374969980403989
 31
0.0
  0
ARC
  5
2C0A4
  8
0
 10
5608.9588217556602103
 20
407.3782157361138729
 30
0.0
 40
0.4345138043839977
 50
341.1038818081254931
 51
348.0466127194280261
  0
ARC
  5
2C0A5
  8
0
 10
5608.8498472233113716
 20
407.2769700122318
 30
0.0
 40
0.1574801547616866
 50
185.7727936284464079
 51
221.254930706211411
  0
LINE
  5
2C0A6
  8
0
 10
5608.7314563101499516
 20
407.1731259424701079
 30
0.0
 11
5609.2941054765933586
 21
407.1534777934510885
 31
0.0
  0
ARC
  5
2C0A7
  8
0
 10
5609.1832465718262029
 20
407.265327557510318
 30
0.0
 40
0.1574803685909942
 50
314.7450854519776158
 51
350.2271776957323937
  0
ARC
  5
2C0B3
  8
0
 10
5623.1286545511156874
 20
404.7802820820605803
 30
0.0
 40
7.4770663256739613
 50
176.7565875371880963
 51
180.1379361056251014
  0
LINE
  5
2C0B4
  8
0
 10
5615.6600611068652142
 20
405.1361371129788722
 30
0.0
 11
5615.6692735072865617
 21
405.1614479752316811
 31
0.0
  0
ARC
  5
2C0B5
  8
0
 10
5616.1409696065193202
 20
404.9897646362715022
 30
0.0
 40
0.5019685038996595
 50
89.9999999998957776
 51
160.000000083632699
  0
LINE
  5
2C0B6
  8
0
 10
5616.1409696065202297
 20
405.4917331401711067
 30
0.0
 11
5616.5937255120197733
 21
405.4917331401704814
 31
0.0
  0
ARC
  5
2C0B7
  8
0
 10
5616.5937255120197733
 20
405.4720481007705075
 30
0.0
 40
0.0196850394000259
 50
0.0000000018922519
 51
89.9999999998957776
  0
LINE
  5
2C0B8
  8
0
 10
5616.613410551420202
 20
405.4720481007711896
 30
0.0
 11
5616.6134105514256589
 21
405.2948827464712167
 31
0.0
  0
ARC
  5
2C0B9
  8
0
 10
5616.5937255120261398
 20
405.2948827464705914
 30
0.0
 40
0.0196850393993522
 50
269.9999999810839881
 51
0.0000000019020226
  0
LINE
  5
2C0BA
  8
0
 10
5616.5937255120197733
 20
405.275197707071186
 30
0.0
 11
5616.1409696065202297
 21
405.2751977072206842
 31
0.0
  0
ARC
  5
2C0BB
  8
0
 10
5616.1409696064247328
 20
404.9897646364810839
 30
0.0
 40
0.2854330707396167
 50
89.9999999810839739
 51
160.0000000330963985
  0
LINE
  5
2C0BC
  8
0
 10
5615.8727502560668654
 20
405.0873884960905116
 30
0.0
 11
5615.7544209928919372
 21
404.7622815168712123
 31
0.0
  0
ATTDEF
  5
2C25E
  8
DEFPOINTS
 10
5614.9617789302319579
 20
403.311078978627279
 30
0.0
 40
0.001
  1
K-73060T-3
  3

  2
MODELNUMBER
 70
     0
1001
ACDBATTR
1070
     0
1070
     1
  0
ATTDEF
  5
2C25F
  8
DEFPOINTS
 10
5614.9616531205747378
 20
403.3094121382482058
 30
0.0
 40
0.001
  1
COMPOSED
  3

  2
TRADENAME
 70
     0
1001
ACDBATTR
1070
     0
1070
     1
  0
ATTDEF
  5
2C260
  8
DEFPOINTS
 10
5614.9617789302319579
 20
403.3077456452938918
 30
0.0
 40
0.001
  1
BATHROOM SINK FAUCET
  3

  2
PRODUCT
 70
     0
1001
ACDBATTR
1070
     0
1070
     1
  0
ENDSEC
  0
EOF
