  0
SECTION
  2
HEADER
  9
$ACADVER
  1
AC1009
  9
$INSBASE
 10
3807.1552462365280007
 20
199.9254465193608041
 30
0.0
  9
$EXTMIN
 10
3800.5265091462802047
 20
199.9197037879168874
 30
0.0
  9
$EXTMAX
 10
3808.7940568652288675
 20
204.4862577206608023
 30
0.0
  9
$LIMMIN
 10
0.0
 20
0.0
  9
$LIMMAX
 10
11.6929133858000007
 20
8.2677165353999982
  9
$ORTHOMODE
 70
     0
  9
$REGENMODE
 70
     1
  9
$FILLMODE
 70
     1
  9
$QTEXTMODE
 70
     0
  9
$MIRRTEXT
 70
     0
  9
$DRAGMODE
 70
     2
  9
$LTSCALE
 40
0.6431102362
  9
$OSMODE
 70
  4095
  9
$ATTMODE
 70
     1
  9
$TEXTSIZE
 40
0.2
  9
$TRACEWID
 40
0.05
  9
$TEXTSTYLE
  7
STANDARD
  9
$CLAYER
  8
0
  9
$CELTYPE
  6
BYLAYER
  9
$CECOLOR
 62
   256
  9
$DIMSCALE
 40
1.0
  9
$DIMASZ
 40
0.1875
  9
$DIMEXO
 40
0.0625
  9
$DIMDLI
 40
0.4443307087
  9
$DIMRND
 40
0.0
  9
$DIMDLE
 40
0.0
  9
$DIMEXE
 40
0.125
  9
$DIMTP
 40
0.01
  9
$DIMTM
 40
0.01
  9
$DIMTXT
 40
2.0
  9
$DIMCEN
 40
0.1052362205
  9
$DIMTSZ
 40
0.0
  9
$DIMTOL
 70
     1
  9
$DIMLIM
 70
     0
  9
$DIMTIH
 70
     1
  9
$DIMTOH
 70
     1
  9
$DIMSE1
 70
     0
  9
$DIMSE2
 70
     0
  9
$DIMTAD
 70
     0
  9
$DIMZIN
 70
     0
  9
$DIMBLK
  1

  9
$DIMASO
 70
     1
  9
$DIMSHO
 70
     1
  9
$DIMPOST
  1
\X
  9
$DIMAPOST
  1

  9
$DIMALT
 70
     1
  9
$DIMALTD
 70
     2
  9
$DIMALTF
 40
25.3999999999999986
  9
$DIMLFAC
 40
1.0
  9
$DIMTOFL
 70
     0
  9
$DIMTVP
 40
0.0
  9
$DIMTIX
 70
     0
  9
$DIMSOXD
 70
     0
  9
$DIMSAH
 70
     0
  9
$DIMBLK1
  1

  9
$DIMBLK2
  1

  9
$DIMSTYLE
  2
STANDARD
  9
$DIMCLRD
 70
     0
  9
$DIMCLRE
 70
     0
  9
$DIMCLRT
 70
     0
  9
$DIMTFAC
 40
1.0
  9
$DIMGAP
 40
0.09
  9
$LUNITS
 70
     2
  9
$LUPREC
 70
     4
  9
$SKETCHINC
 40
0.1
  9
$FILLETRAD
 40
0.0
  9
$AUNITS
 70
     0
  9
$AUPREC
 70
     0
  9
$MENU
  1
.
  9
$ELEVATION
 40
0.0
  9
$PELEVATION
 40
0.0
  9
$THICKNESS
 40
0.0
  9
$LIMCHECK
 70
     0
  9
$BLIPMODE
 70
     0
  9
$CHAMFERA
 40
0.0
  9
$CHAMFERB
 40
0.0
  9
$SKPOLY
 70
     0
  9
$TDCREATE
 40
2458060.468368056230247
  9
$TDUPDATE
 40
2460017.5826967591419816
  9
$TDINDWG
 40
1.0107709491000001
  9
$TDUSRTIMER
 40
1.0107709491000001
  9
$USRTIMER
 70
     1
  9
$ANGBASE
 50
0.0
  9
$ANGDIR
 70
     0
  9
$PDMODE
 70
     0
  9
$PDSIZE
 40
0.3125
  9
$PLINEWID
 40
0.0
  9
$COORDS
 70
     1
  9
$SPLFRAME
 70
     0
  9
$SPLINETYPE
 70
     6
  9
$SPLINESEGS
 70
     8
  9
$ATTDIA
 70
     1
  9
$ATTREQ
 70
     1
  9
$HANDLING
 70
     1
  9
$HANDSEED
  5
2CA77
  9
$SURFTAB1
 70
     6
  9
$SURFTAB2
 70
     6
  9
$SURFTYPE
 70
     6
  9
$SURFU
 70
     6
  9
$SURFV
 70
     6
  9
$UCSNAME
  2

  9
$UCSORG
 10
0.0
 20
0.0
 30
0.0
  9
$UCSXDIR
 10
1.0
 20
0.0
 30
0.0
  9
$UCSYDIR
 10
0.0
 20
1.0
 30
0.0
  9
$PUCSNAME
  2

  9
$PUCSORG
 10
0.0
 20
0.0
 30
0.0
  9
$PUCSXDIR
 10
1.0
 20
0.0
 30
0.0
  9
$PUCSYDIR
 10
0.0
 20
1.0
 30
0.0
  9
$USERI1
 70
     0
  9
$USERI2
 70
     0
  9
$USERI3
 70
     0
  9
$USERI4
 70
     0
  9
$USERI5
 70
     0
  9
$USERR1
 40
0.0
  9
$USERR2
 40
0.0
  9
$USERR3
 40
0.0
  9
$USERR4
 40
0.0
  9
$USERR5
 40
0.0
  9
$WORLDVIEW
 70
     1
  9
$SHADEDGE
 70
     3
  9
$SHADEDIF
 70
    70
  9
$TILEMODE
 70
     1
  9
$MAXACTVP
 70
    64
  9
$PLIMCHECK
 70
     0
  9
$PEXTMIN
 10
1.0000000000000000E+20
 20
1.0000000000000000E+20
 30
1.0000000000000000E+20
  9
$PEXTMAX
 10
-1.0000000000000000E+20
 20
-1.0000000000000000E+20
 30
-1.0000000000000000E+20
  9
$PLIMMIN
 10
0.0
 20
0.0
  9
$PLIMMAX
 10
12.0
 20
9.0
  9
$UNITMODE
 70
     0
  9
$VISRETAIN
 70
     1
  9
$PLINEGEN
 70
     0
  9
$PSLTSCALE
 70
     1
  0
ENDSEC
  0
SECTION
  2
TABLES
  0
TABLE
  2
VPORT
 70
     1
  0
VPORT
  2
*ACTIVE
 70
     0
 10
0.0
 20
0.0
 11
1.0
 21
1.0
 12
541.2463171658737338
 22
50.479524525448987
 13
0.0
 23
0.0
 14
1.0
 24
1.0
 15
0.0
 25
0.0
 16
0.0
 26
0.0
 36
92.3385285193394054
 17
3263.3890380859379547
 27
151.7217025756835938
 37
0.0
 40
5.4839463833279618
 41
1.593589743589743
 42
50.0
 43
0.0
 44
0.0
 50
0.0
 51
0.0
 71
     0
 72
   100
 73
     1
 74
     1
 75
     0
 76
     0
 77
     0
 78
     0
  0
ENDTAB
  0
TABLE
  2
LTYPE
 70
     2
  0
LTYPE
  2
CONTINUOUS
 70
     0
  3
Solid line
 72
    65
 73
     0
 40
0.0
  0
LTYPE
  2
PHANTOM2
 70
     0
  3
___ _ _ ___ _ _ ___ _ _ ___ _ _
 72
    65
 73
     6
 40
1.25
 49
0.625
 49
-0.125
 49
0.125
 49
-0.125
 49
0.125
 49
-0.125
  0
ENDTAB
  0
TABLE
  2
LAYER
 70
     2
  0
LAYER
  2
0
 70
     0
 62
   255
  6
CONTINUOUS
  0
LAYER
  2
DEFPOINTS
 70
     0
 62
     7
  6
CONTINUOUS
  0
ENDTAB
  0
TABLE
  2
STYLE
 70
     1
  0
STYLE
  2
STANDARD
 70
     0
 40
0.0
 41
0.8
 50
0.0
 71
     0
 42
0.2
  3
txt
  4

  0
ENDTAB
  0
TABLE
  2
VIEW
 70
     0
  0
ENDTAB
  0
TABLE
  2
UCS
 70
     0
  0
ENDTAB
  0
TABLE
  2
APPID
 70
    10
  0
APPID
  2
ACAD
 70
     0
  0
APPID
  2
ACAD_MLEADERVER
 70
     0
  0
APPID
  2
ACAD_EXEMPT_FROM_CAD_STANDARDS
 70
     0
  0
APPID
  2
ACAD_NAV_VCDISPLAY
 70
     0
  0
APPID
  2
ACAECLAYERSTANDARD
 70
     0
  0
APPID
  2
ACCMTRANSPARENCY
 70
     0
  0
APPID
  2
ACAD_DSTYLE_DIMJAG
 70
     0
  0
APPID
  2
ACAD_DSTYLE_DIMTALN
 70
     0
  0
APPID
  2
ACDBATTR
 70
     0
  0
APPID
  2
ACADANNOTATIVE
 70
     0
  0
ENDTAB
  0
TABLE
  2
DIMSTYLE
 70
     1
  0
DIMSTYLE
  2
STANDARD
 70
     0
  3

  4

  5

  6

  7

 40
1.0
 41
0.1875
 42
0.0625
 43
0.38
 44
0.125
 45
0.0
 46
0.0
 47
0.01
 48
0.01
140
0.15625
141
0.09
142
0.0
143
25.3999999999999986
144
1.0
145
0.0
146
1.0
147
0.09
 71
     1
 72
     0
 73
     1
 74
     1
 75
     0
 76
     0
 77
     0
 78
     4
170
     0
171
     2
172
     0
173
     0
174
     0
175
     0
176
     0
177
     0
178
     0
  0
ENDTAB
  0
ENDSEC
  0
SECTION
  2
BLOCKS
  0
BLOCK
  8
0
  2
$MODEL_SPACE
 70
     0
 10
0.0
 20
0.0
 30
0.0
  3
$MODEL_SPACE
  1

  0
ENDBLK
  5
21
  8
0
  0
BLOCK
 67
     1
  8
0
  2
$PAPER_SPACE
 70
     0
 10
0.0
 20
0.0
 30
0.0
  3
$PAPER_SPACE
  1

  0
ENDBLK
  5
1D
 67
     1
  8
0
  0
ENDSEC
  0
SECTION
  2
ENTITIES
  0
ATTDEF
  5
2143C
  8
DEFPOINTS
 10
3807.151074876786879
 20
199.923037121250303
 30
0.0
 40
0.001
  1
K-73060T-4E2
  3

  2
MODELNUMBER
 70
     0
1001
ACDBATTR
1070
     0
1070
     1
  0
ATTDEF
  5
2143D
  8
DEFPOINTS
 10
3807.151074876786879
 20
199.9213704545836094
 30
0.0
 40
0.001
  1
COMPOSED
  3

  2
TRADENAME
 70
     0
1001
ACDBATTR
1070
     0
1070
     1
  0
ATTDEF
  5
2143E
  8
DEFPOINTS
 10
3807.151074876786879
 20
199.9197037879168874
 30
0.0
 40
0.001
  1
BATHROOM SINK FAUCET
  3

  2
PRODUCT
 70
     0
1001
ACDBATTR
1070
     0
1070
     1
  0
LINE
  5
2C956
  8
0
 10
3800.5265283327789803
 20
203.9679692695607969
 30
0.0
 11
3800.5435658823780614
 21
204.4558608543607932
 31
0.0
  0
LINE
  5
2C957
  8
0
 10
3808.7743718258288936
 20
201.8871508552608134
 30
0.0
 11
3808.3216159203279858
 21
201.8871508552608134
 31
0.0
  0
LINE
  5
2C958
  8
0
 10
3808.7743718258288936
 20
202.1036862882608034
 30
0.0
 11
3808.3216159203279858
 21
202.1036862882608034
 31
0.0
  0
LINE
  5
2C959
  8
0
 10
3800.5569060124248608
 20
203.9353931963102013
 30
0.0
 11
3807.8138817174290125
 21
203.6819740206607889
 31
0.0
  0
LINE
  5
2C95A
  8
0
 10
3806.4662698585780163
 20
203.6964208567607955
 30
0.0
 11
3806.4662698585780163
 21
200.11442289719011
 31
0.0
  0
LINE
  5
2C95B
  8
0
 10
3800.5761419555778957
 20
204.4862385340607887
 30
0.0
 11
3807.8129943506592099
 21
204.2335210023765057
 31
0.0
  0
LINE
  5
2C95C
  8
0
 10
3807.8438761857778445
 20
203.7135708676607919
 30
0.0
 11
3807.8433888239787848
 21
204.2020708334607946
 31
0.0
  0
LINE
  5
2C95D
  8
0
 10
3807.8442226144788947
 20
203.6504967735608034
 30
0.0
 11
3807.8442226144788947
 21
201.8153033810044121
 31
0.0
  0
LINE
  5
2C95E
  8
0
 10
3807.8442226144788947
 20
201.0670857193680945
 30
0.0
 11
3807.8442226144788947
 21
200.11442289719011
 31
0.0
  0
LINE
  5
2C95F
  8
0
 10
3808.0533965699291912
 20
201.6993416441607962
 30
0.0
 11
3807.8413051601301049
 21
201.1166252849048135
 31
0.0
  0
LINE
  5
2C960
  8
0
 10
3808.7940568652288675
 20
201.9068358945607997
 30
0.0
 11
3808.7940568652288675
 21
202.0840012489607886
 31
0.0
  0
ARC
  5
2C961
  8
0
 10
3808.3220823800302242
 20
201.601398721573787
 30
0.0
 40
0.5022877832806538
 50
90.0532088913050757
 51
160.0177358952711018
  0
ARC
  5
2C962
  8
0
 10
3808.3216159203279858
 20
201.601717784360801
 30
0.0
 40
0.2854330709
 50
90.0
 51
160.0000000000015064
  0
ARC
  5
2C963
  8
0
 10
3807.8118962761959665
 20
204.2020475955339123
 30
0.0
 40
0.0314925563554767
 50
0.0422777764541548
 51
88.0018202775802934
  0
ARC
  5
2C964
  8
0
 10
3807.8122092464159323
 20
203.7137189144368108
 30
0.0
 40
0.0316672854292943
 50
268.1426747312747239
 51
359.7321372445372845
  0
ARC
  5
2C965
  8
0
 10
3800.5580052093691847
 20
203.9668700728948068
 30
0.0
 40
0.0314960630894728
 50
178.0000000674195064
 51
267.9999997437445813
  0
ARC
  5
2C966
  8
0
 10
3800.5750427587781815
 20
204.4547616576608107
 30
0.0
 40
0.031496063
 50
87.9999999999963336
 51
177.9999999999992895
  0
ARC
  5
2C967
  8
0
 10
3806.4976973524157984
 20
203.6964894662322081
 30
0.0
 40
0.0314275687276539
 50
88.0007553137941159
 51
180.1250824173907006
  0
ARC
  5
2C968
  8
0
 10
3807.8127584398480394
 20
203.6505298856098989
 30
0.0
 40
0.0314641920542308
 50
359.9397034886673055
 51
87.9540951399637976
  0
ARC
  5
2C969
  8
0
 10
3808.7743718258288936
 20
202.0840012489607886
 30
0.0
 40
0.0196850394
 50
0.0
 51
90.0
  0
ARC
  5
2C96A
  8
0
 10
3808.7743718258288936
 20
201.9068358945607997
 30
0.0
 40
0.0196850394
 50
270.0
 51
0.0
  0
ARC
  5
2C96B
  8
0
 10
3813.7746834984827728
 20
201.4411945501863102
 30
0.0
 40
5.9422490451010708
 50
176.3904167853231115
 51
183.6095832070153051
  0
LINE
  5
2C96C
  8
0
 10
3807.8500331008440298
 20
201.7730451466833017
 30
0.0
 11
3807.840265598113092
 21
201.7461665124546073
 31
0.0
  0
LINE
  5
2C96D
  8
0
 10
3806.1513092286791107
 20
199.9254465193608041
 30
0.0
 11
3808.1591832443791645
 21
199.9254465193608041
 31
0.0
  0
LINE
  5
2C96E
  8
0
 10
3808.1394982050778708
 20
200.0829268343607907
 30
0.0
 11
3806.1709942679781307
 21
200.0829268343607907
 31
0.0
  0
ARC
  5
2C96F
  8
0
 10
3808.1102462365288375
 20
200.0529268343607896
 30
0.0
 40
0.03
 50
0.0
 51
90.0
  0
ARC
  5
2C970
  8
0
 10
3806.2002462365280735
 20
200.0529268343607896
 30
0.0
 40
0.03
 50
90.0
 51
180.0
  0
LINE
  5
2C971
  8
0
 10
3806.1513092286791107
 20
199.9254465193608041
 30
0.0
 11
3806.1513092286791107
 21
200.0632417949607884
 31
0.0
  0
ARC
  5
2C972
  8
0
 10
3806.4977659214077903
 20
200.11442289719011
 30
0.0
 40
0.0314960628292872
 50
179.9999998713659011
 51
270.0000003105507744
  0
ARC
  5
2C973
  8
0
 10
3806.1709942679781307
 20
200.0632417949607884
 30
0.0
 40
0.0196850394
 50
90.0
 51
180.0
  0
LINE
  5
2C974
  8
0
 10
3808.1591832443791645
 20
199.9254465193608041
 30
0.0
 11
3808.1591832443791645
 21
200.0632417949607884
 31
0.0
  0
ARC
  5
2C975
  8
0
 10
3807.8127265516491207
 20
200.11442289719011
 30
0.0
 40
0.0314960628292872
 50
269.9999996894492256
 51
0.0000001286340482
  0
ARC
  5
2C976
  8
0
 10
3808.1394982050778708
 20
200.0632417949607884
 30
0.0
 40
0.0196850394
 50
0.0
 51
90.0
  0
LINE
  5
2C978
  8
0
 10
3807.5802462365290921
 20
201.0087457319608006
 30
0.0
 11
3806.7302462365291831
 21
201.0087457319608006
 31
0.0
  0
LINE
  5
2C979
  8
0
 10
3807.576506079029059
 20
201.0199347083608927
 30
0.0
 11
3806.7339863940292162
 21
201.0199347083608927
 31
0.0
  0
LINE
  5
2C97A
  8
0
 10
3807.576506079029059
 20
201.3742653736607906
 30
0.0
 11
3806.7339863940292162
 21
201.3742653736607906
 31
0.0
  0
LINE
  5
2C97B
  8
0
 10
3807.6080021420289086
 20
201.0514307713607991
 30
0.0
 11
3807.6080021420289086
 21
201.342769310660799
 31
0.0
  0
LINE
  5
2C97C
  8
0
 10
3806.7702462365291467
 20
201.0199347083608927
 30
0.0
 11
3806.7702462365291467
 21
201.0087457319608006
 31
0.0
  0
LINE
  5
2C97D
  8
0
 10
3806.700246236528983
 20
200.1129268343607919
 30
0.0
 11
3806.700246236528983
 21
200.9787457319607995
 31
0.0
  0
ARC
  5
2C97E
  8
0
 10
3806.6702462365278734
 20
200.1129268343607919
 30
0.0
 40
0.03
 50
270.0
 51
0.0
  0
LINE
  5
2C97F
  8
0
 10
3806.1702462365278734
 20
199.9254465193608041
 30
0.0
 11
3806.1702462365278734
 21
200.0529268343607896
 31
0.0
  0
ARC
  5
2C980
  8
0
 10
3807.576506079029059
 20
201.0514307713607991
 30
0.0
 40
0.031496063
 50
270.0
 51
0.0
  0
ARC
  5
2C981
  8
0
 10
3807.576506079029059
 20
201.342769310660799
 30
0.0
 40
0.031496063
 50
0.0
 51
90.0
  0
ARC
  5
2C982
  8
0
 10
3806.7302462365291831
 20
200.9787457319607995
 30
0.0
 40
0.029999999999994
 50
90.0
 51
180.0000000000113971
  0
LINE
  5
2C983
  8
0
 10
3807.5402462365291285
 20
201.0199347083608927
 30
0.0
 11
3807.5402462365291285
 21
201.0087457319608006
 31
0.0
  0
LINE
  5
2C984
  8
0
 10
3807.610246236527928
 20
200.1129268343607919
 30
0.0
 11
3807.610246236527928
 21
200.9787457319607995
 31
0.0
  0
ARC
  5
2C985
  8
0
 10
3807.6402462365290376
 20
200.1129268343607919
 30
0.0
 40
0.03
 50
180.0
 51
270.0
  0
LINE
  5
2C986
  8
0
 10
3808.1402462365290376
 20
199.9254465193608041
 30
0.0
 11
3808.1402462365290376
 21
200.0529268343607896
 31
0.0
  0
ARC
  5
2C987
  8
0
 10
3807.5802462365290921
 20
200.9787457319607995
 30
0.0
 40
0.029999999999994
 50
359.9999999999885745
 51
90.0
  0
LINE
  5
2C988
  8
0
 10
3806.7024903310289119
 20
201.0514307713607991
 30
0.0
 11
3806.7024903310289119
 21
201.342769310660799
 31
0.0
  0
ARC
  5
2C989
  8
0
 10
3806.7339863940292162
 20
201.0514307713607991
 30
0.0
 40
0.031496063
 50
180.0
 51
270.0
  0
ARC
  5
2C98A
  8
0
 10
3806.7339863940292162
 20
201.342769310660799
 30
0.0
 40
0.031496063
 50
90.0
 51
180.0
  0
LINE
  5
2C98B
  8
0
 10
3800.8271585197139757
 20
203.8905310414349117
 30
0.0
 11
3800.8283940717760743
 21
203.9259126243755986
 31
0.0
  0
ARC
  5
2C98C
  8
0
 10
3800.8665345182998863
 20
203.8891560013092885
 30
0.0
 40
0.0394
 50
178.000000064595497
 51
268.0000027761391834
  0
LINE
  5
2C98D
  8
0
 10
3800.865159480037164
 20
203.8497800026580933
 30
0.0
 11
3801.1956367446400691
 21
203.8382394983107133
 31
0.0
  0
LINE
  5
2C98E
  8
0
 10
3800.8965886002788466
 20
203.7895913594608999
 30
0.0
 11
3801.1969031398780317
 21
203.7791041446608062
 31
0.0
  0
LINE
  5
2C98F
  8
0
 10
3800.8907207284778451
 20
203.795610749460792
 30
0.0
 11
3800.8917275357039216
 21
203.8488522269992131
 31
0.0
  0
ARC
  5
2C990
  8
0
 10
3800.8966575611361804
 20
203.7955283632408907
 30
0.0
 40
0.005937404271652
 50
179.2049498465715089
 51
269.334514762542085
  0
LINE
  5
2C991
  8
0
 10
3800.9117463149891591
 20
203.8481531567933871
 30
0.0
 11
3800.9109191918778379
 21
203.794885863360804
 31
0.0
  0
LINE
  5
2C992
  8
0
 10
3800.9687541164439608
 20
203.8461624032651969
 30
0.0
 11
3800.9684427659308312
 21
203.792593868073908
 31
0.0
  0
LINE
  5
2C993
  8
0
 10
3801.0505951988611741
 20
203.8433044536614034
 30
0.0
 11
3801.0438332314779473
 21
203.7898230031607909
 31
0.0
  0
LINE
  5
2C994
  8
0
 10
3801.0545219836790238
 20
203.7896392272608068
 30
0.0
 11
3801.0540748437638285
 21
203.8431829419525911
 31
0.0
  0
LINE
  5
2C995
  8
0
 10
3801.1299160641788148
 20
203.7868377762607963
 30
0.0
 11
3801.1359167512191561
 21
203.8403249635379098
 31
0.0
  0
LINE
  5
2C996
  8
0
 10
3801.1547168379861432
 20
203.8396684509534964
 30
0.0
 11
3801.1560578400790291
 21
203.7860857938607921
 31
0.0
  0
ARC
  5
2C997
  8
0
 10
3800.9168234153098638
 20
203.7947932926886097
 30
0.0
 40
0.0059049490820826
 50
179.101749054474908
 51
268.0033895685392054
  0
ARC
  5
2C998
  8
0
 10
3800.974336840497017
 20
203.7927768384136016
 30
0.0
 40
0.0058969138645887
 50
181.7780675381667947
 51
268.0175585925168775
  0
ARC
  5
2C999
  8
0
 10
3801.0379334502440543
 20
203.7906111920501928
 30
0.0
 40
0.00595219794181
 50
268.3665104970262973
 51
352.3905539573141823
  0
ARC
  5
2C99A
  8
0
 10
3801.0604260916970816
 20
203.7897793983487134
 30
0.0
 40
0.0059057717049604
 50
181.360019718710987
 51
267.9727702164213952
  0
ARC
  5
2C99B
  8
0
 10
3801.1240276495791477
 20
203.7875887093202039
 30
0.0
 40
0.0059361036845544
 50
268.16560025390379
 51
352.732457725708116
  0
ARC
  5
2C99C
  8
0
 10
3801.1620074809129619
 20
203.7862790043371888
 30
0.0
 40
0.0059527771955826
 50
181.8599872105577901
 51
267.6224642016651956
  0
LINE
  5
2C99D
  8
0
 10
3801.4968363756920553
 20
203.7744447540628983
 30
0.0
 11
3801.4995459535739428
 21
203.8276267696222988
 31
0.0
  0
ARC
  5
2C99E
  8
0
 10
3801.4909082578560628
 20
203.7747767004686921
 30
0.0
 40
0.005937404271652
 50
266.6654907897374756
 51
356.7950557057042147
  0
LINE
  5
2C99F
  8
0
 10
3801.4795271742900695
 20
203.8283258398280111
 30
0.0
 11
3801.4766365491677789
 21
203.7751306053733913
 31
0.0
  0
LINE
  5
2C9A0
  8
0
 10
3801.4225193728348131
 20
203.8303165933564003
 30
0.0
 11
3801.4190932179749325
 21
203.7768568293786018
 31
0.0
  0
LINE
  5
2C9A1
  8
0
 10
3801.340678290417145
 20
203.8331745429601085
 30
0.0
 11
3801.3436931138048749
 21
203.7793516798770952
 31
0.0
  0
LINE
  5
2C9A2
  8
0
 10
3801.3330175792548289
 20
203.7799139602736034
 30
0.0
 11
3801.3371986455149454
 21
203.8332960546688923
 31
0.0
  0
LINE
  5
2C9A3
  8
0
 10
3801.2576117353642076
 20
203.7823785513569987
 30
0.0
 11
3801.255356738059163
 21
203.8361540330836021
 31
0.0
  0
LINE
  5
2C9A4
  8
0
 10
3801.236556651292176
 20
203.8368105456679871
 30
0.0
 11
3801.2314811837709385
 21
203.7834519563203912
 31
0.0
  0
ARC
  5
2C9A5
  8
0
 10
3801.4707402506937797
 20
203.7754501174341897
 30
0.0
 40
0.0059049490820826
 50
267.9966159837351825
 51
356.8982564978010146
  0
ARC
  5
2C9A6
  8
0
 10
3801.413226264387049
 20
203.777450503300912
 30
0.0
 40
0.0058969138645887
 50
267.9824469597567145
 51
354.2219380141089005
  0
ARC
  5
2C9A7
  8
0
 10
3801.3496335047098
 20
203.7797264014187135
 30
0.0
 40
0.00595219794181
 50
183.6094515949608876
 51
267.6334950552642908
  0
ARC
  5
2C9A8
  8
0
 10
3801.3271376311340646
 20
203.7804656390979119
 30
0.0
 40
0.0059057717049604
 50
268.0272353358507189
 51
354.6399858335639124
  0
ARC
  5
2C9A9
  8
0
 10
3801.2635381884911112
 20
203.7827169007171051
 30
0.0
 40
0.0059361036845544
 50
183.2675478265678919
 51
267.8344052983724168
  0
ARC
  5
2C9AA
  8
0
 10
3801.2255595135861768
 20
203.7840597215364937
 30
0.0
 40
0.0059527771955826
 50
268.3775413506274958
 51
354.1400183417184167
  0
LINE
  5
2C9AB
  8
0
 10
3801.5668651468331518
 20
203.8646994850622036
 30
0.0
 11
3801.5681007552880146
 21
203.900081497804706
 31
0.0
  0
ARC
  5
2C9AC
  8
0
 10
3801.5274891498538636
 20
203.866074571187113
 30
0.0
 40
0.0394
 50
267.9999304199753851
 51
357.9999331315081008
  0
LINE
  5
2C9AD
  8
0
 10
3801.5261140618649733
 20
203.8266985742723989
 30
0.0
 11
3801.1956368118371756
 21
203.8382394959641033
 31
0.0
  0
LINE
  5
2C9AE
  8
0
 10
3801.4905628864221399
 20
203.7688489736364943
 30
0.0
 11
3801.190248359051111
 21
203.779336538612398
 31
0.0
  0
ENDSEC
  0
EOF
