  0
SECTION
  2
HEADER
  9
$ACADVER
  1
AC1009
  9
$INSBASE
 10
445.0133979371474879
 20
15.6333596279571498
 30
0.0
  9
$EXTMIN
 10
436.085572283371107
 20
15.6277110723411301
 30
-0.0015258207003583
  9
$EXTMAX
 10
453.9217122678580267
 20
20.1945839007105796
 30
0.0000000349246037
  9
$LIMMIN
 10
0.0
 20
0.0
  9
$LIMMAX
 10
11.6929133858000007
 20
8.2677165353999982
  9
$ORTHOMODE
 70
     0
  9
$REGENMODE
 70
     1
  9
$FILLMODE
 70
     1
  9
$QTEXTMODE
 70
     0
  9
$MIRRTEXT
 70
     0
  9
$DRAGMODE
 70
     2
  9
$LTSCALE
 40
0.6431102362
  9
$OSMODE
 70
  4095
  9
$ATTMODE
 70
     1
  9
$TEXTSIZE
 40
0.2
  9
$TRACEWID
 40
0.05
  9
$TEXTSTYLE
  7
STANDARD
  9
$CLAYER
  8
0
  9
$CELTYPE
  6
BYLAYER
  9
$CECOLOR
 62
   256
  9
$DIMSCALE
 40
1.0
  9
$DIMASZ
 40
0.1875
  9
$DIMEXO
 40
0.0625
  9
$DIMDLI
 40
0.4443307087
  9
$DIMRND
 40
0.0
  9
$DIMDLE
 40
0.0
  9
$DIMEXE
 40
0.125
  9
$DIMTP
 40
0.01
  9
$DIMTM
 40
0.01
  9
$DIMTXT
 40
0.15625
  9
$DIMCEN
 40
0.1052362205
  9
$DIMTSZ
 40
0.0
  9
$DIMTOL
 70
     1
  9
$DIMLIM
 70
     0
  9
$DIMTIH
 70
     1
  9
$DIMTOH
 70
     1
  9
$DIMSE1
 70
     0
  9
$DIMSE2
 70
     0
  9
$DIMTAD
 70
     0
  9
$DIMZIN
 70
     0
  9
$DIMBLK
  1

  9
$DIMASO
 70
     1
  9
$DIMSHO
 70
     1
  9
$DIMPOST
  1
\X
  9
$DIMAPOST
  1

  9
$DIMALT
 70
     1
  9
$DIMALTD
 70
     2
  9
$DIMALTF
 40
25.3999999999999986
  9
$DIMLFAC
 40
1.0
  9
$DIMTOFL
 70
     0
  9
$DIMTVP
 40
0.0
  9
$DIMTIX
 70
     0
  9
$DIMSOXD
 70
     0
  9
$DIMSAH
 70
     0
  9
$DIMBLK1
  1

  9
$DIMBLK2
  1

  9
$DIMSTYLE
  2
STANDARD
  9
$DIMCLRD
 70
     0
  9
$DIMCLRE
 70
     0
  9
$DIMCLRT
 70
     0
  9
$DIMTFAC
 40
1.0
  9
$DIMGAP
 40
0.09
  9
$LUNITS
 70
     2
  9
$LUPREC
 70
     4
  9
$SKETCHINC
 40
0.1
  9
$FILLETRAD
 40
0.0
  9
$AUNITS
 70
     0
  9
$AUPREC
 70
     0
  9
$MENU
  1
.
  9
$ELEVATION
 40
0.0
  9
$PELEVATION
 40
0.0
  9
$THICKNESS
 40
0.0
  9
$LIMCHECK
 70
     0
  9
$BLIPMODE
 70
     0
  9
$CHAMFERA
 40
0.0
  9
$CHAMFERB
 40
0.0
  9
$SKPOLY
 70
     0
  9
$TDCREATE
 40
2458018.639108797069639
  9
$TDUPDATE
 40
2460195.617476852145046
  9
$TDINDWG
 40
0.4069902778
  9
$TDUSRTIMER
 40
0.4069902778
  9
$USRTIMER
 70
     1
  9
$ANGBASE
 50
0.0
  9
$ANGDIR
 70
     0
  9
$PDMODE
 70
     0
  9
$PDSIZE
 40
0.3125
  9
$PLINEWID
 40
0.0
  9
$COORDS
 70
     1
  9
$SPLFRAME
 70
     0
  9
$SPLINETYPE
 70
     6
  9
$SPLINESEGS
 70
     8
  9
$ATTDIA
 70
     1
  9
$ATTREQ
 70
     1
  9
$HANDLING
 70
     1
  9
$HANDSEED
  5
D95D
  9
$SURFTAB1
 70
     6
  9
$SURFTAB2
 70
     6
  9
$SURFTYPE
 70
     6
  9
$SURFU
 70
     6
  9
$SURFV
 70
     6
  9
$UCSNAME
  2

  9
$UCSORG
 10
0.0
 20
0.0
 30
0.0
  9
$UCSXDIR
 10
1.0
 20
0.0
 30
0.0
  9
$UCSYDIR
 10
0.0
 20
1.0
 30
0.0
  9
$PUCSNAME
  2

  9
$PUCSORG
 10
0.0
 20
0.0
 30
0.0
  9
$PUCSXDIR
 10
1.0
 20
0.0
 30
0.0
  9
$PUCSYDIR
 10
0.0
 20
1.0
 30
0.0
  9
$USERI1
 70
     0
  9
$USERI2
 70
     0
  9
$USERI3
 70
     0
  9
$USERI4
 70
     0
  9
$USERI5
 70
     0
  9
$USERR1
 40
0.0
  9
$USERR2
 40
0.0
  9
$USERR3
 40
0.0
  9
$USERR4
 40
0.0
  9
$USERR5
 40
0.0
  9
$WORLDVIEW
 70
     1
  9
$SHADEDGE
 70
     3
  9
$SHADEDIF
 70
    70
  9
$TILEMODE
 70
     1
  9
$MAXACTVP
 70
    64
  9
$PLIMCHECK
 70
     0
  9
$PEXTMIN
 10
1.0000000000000000E+20
 20
1.0000000000000000E+20
 30
1.0000000000000000E+20
  9
$PEXTMAX
 10
-1.0000000000000000E+20
 20
-1.0000000000000000E+20
 30
-1.0000000000000000E+20
  9
$PLIMMIN
 10
0.0
 20
0.0
  9
$PLIMMAX
 10
12.0
 20
9.0
  9
$UNITMODE
 70
     0
  9
$VISRETAIN
 70
     1
  9
$PLINEGEN
 70
     0
  9
$PSLTSCALE
 70
     1
  0
ENDSEC
  0
SECTION
  2
TABLES
  0
TABLE
  2
VPORT
 70
     1
  0
VPORT
  2
*ACTIVE
 70
     0
 10
0.0
 20
0.0
 11
1.0
 21
1.0
 12
349.6793812778769279
 22
10.8748154753030093
 13
0.0
 23
0.0
 14
1.0
 24
1.0
 15
0.0
 25
0.0
 16
-0.0000000000000142
 26
0.0
 36
39.3282560748450578
 17
95.3242609977377526
 27
7.0363320112228394
 37
0.0
 40
6.2977924272526034
 41
2.841079460269865
 42
50.0
 43
0.0
 44
0.0
 50
0.0
 51
0.0
 71
     0
 72
   100
 73
     1
 74
     1
 75
     0
 76
     0
 77
     0
 78
     0
  0
ENDTAB
  0
TABLE
  2
LTYPE
 70
     2
  0
LTYPE
  2
CONTINUOUS
 70
     0
  3
Solid line
 72
    65
 73
     0
 40
0.0
  0
LTYPE
  2
PHANTOM2
 70
     0
  3
___ _ _ ___ _ _ ___ _ _ ___ _ _
 72
    65
 73
     6
 40
1.25
 49
0.625
 49
-0.125
 49
0.125
 49
-0.125
 49
0.125
 49
-0.125
  0
ENDTAB
  0
TABLE
  2
LAYER
 70
     2
  0
LAYER
  2
0
 70
     0
 62
   255
  6
CONTINUOUS
  0
LAYER
  2
DEFPOINTS
 70
     0
 62
     7
  6
CONTINUOUS
  0
ENDTAB
  0
TABLE
  2
STYLE
 70
     1
  0
STYLE
  2
STANDARD
 70
     0
 40
0.0
 41
0.8
 50
0.0
 71
     0
 42
0.2
  3
txt
  4

  0
ENDTAB
  0
TABLE
  2
VIEW
 70
     0
  0
ENDTAB
  0
TABLE
  2
UCS
 70
     0
  0
ENDTAB
  0
TABLE
  2
APPID
 70
    10
  0
APPID
  2
ACAD
 70
     0
  0
APPID
  2
ACAD_MLEADERVER
 70
     0
  0
APPID
  2
ACAD_DSTYLE_DIMJAG
 70
     0
  0
APPID
  2
ACAD_DSTYLE_DIMTALN
 70
     0
  0
APPID
  2
ACAD_NAV_VCDISPLAY
 70
     0
  0
APPID
  2
ACAD_EXEMPT_FROM_CAD_STANDARDS
 70
     0
  0
APPID
  2
ACAECLAYERSTANDARD
 70
     0
  0
APPID
  2
ACCMTRANSPARENCY
 70
     0
  0
APPID
  2
DCO15
 70
     0
  0
APPID
  2
ACDBATTR
 70
     0
  0
ENDTAB
  0
TABLE
  2
DIMSTYLE
 70
     1
  0
DIMSTYLE
  2
STANDARD
 70
     0
  3

  4

  5

  6

  7

 40
1.0
 41
0.1875
 42
0.0625
 43
0.38
 44
0.125
 45
0.0
 46
0.0
 47
0.01
 48
0.01
140
0.15625
141
0.09
142
0.0
143
25.3999999999999986
144
1.0
145
0.0
146
1.0
147
0.09
 71
     1
 72
     0
 73
     1
 74
     1
 75
     0
 76
     0
 77
     0
 78
     4
170
     0
171
     2
172
     0
173
     0
174
     0
175
     0
176
     0
177
     0
178
     0
  0
ENDTAB
  0
ENDSEC
  0
SECTION
  2
BLOCKS
  0
BLOCK
  8
0
  2
$MODEL_SPACE
 70
     0
 10
0.0
 20
0.0
 30
0.0
  3
$MODEL_SPACE
  1

  0
ENDBLK
  5
21
  8
0
  0
BLOCK
 67
     1
  8
0
  2
$PAPER_SPACE
 70
     0
 10
0.0
 20
0.0
 30
0.0
  3
$PAPER_SPACE
  1

  0
ENDBLK
  5
1D
 67
     1
  8
0
  0
BLOCK
  8
0
  2
_FILLED
 70
     0
 10
0.0
 20
0.0
 30
0.0
  3
_FILLED
  1

  0
SOLID
  5
A58D
  8
0
  6
BYBLOCK
 62
     0
 10
0.0
 20
0.0
 30
0.0
 11
-1.0
 21
0.1666666667
 31
0.0
 12
-1.0
 22
-0.1666666667
 32
0.0
 13
-1.0
 23
-0.1666666667
 33
0.0
  0
ENDBLK
  5
A58E
  8
0
  6
BYBLOCK
 62
     0
  0
ENDSEC
  0
SECTION
  2
ENTITIES
  0
ATTDEF
  5
7A6E
  8
DEFPOINTS
 10
445.0133205919797206
 20
15.6315800701814798
 30
0.0
 40
0.001
  1
K-73060T-4
  3

  2
MODELNUMBER
 70
     0
1001
ACDBATTR
1070
     0
1070
     1
  0
ATTDEF
  5
7A6F
  8
DEFPOINTS
 10
445.0133205919797206
 20
15.6299134035148199
 30
0.0
 40
0.001
  1
COMPOSED
  3

  2
TRADENAME
 70
     0
1001
ACDBATTR
1070
     0
1070
     1
  0
ATTDEF
  5
7A70
  8
DEFPOINTS
 10
445.0133205919797206
 20
15.6282467368481495
 30
0.0
 40
0.001
  1
BATHROOM SINK FAUCET
  3

  2
PRODUCT
 70
     0
1001
ACDBATTR
1070
     0
1070
     1
  0
LINE
  5
D4F8
  8
0
 10
444.0094609292474956
 20
15.6333596279571498
 30
0.0
 11
446.0173349450474802
 21
15.6333596279571498
 31
0.0
  0
LINE
  5
D4F9
  8
0
 10
445.99764990564762
 20
15.79083994295714
 30
0.0
 11
444.0291459686474127
 21
15.79083994295714
 31
0.0
  0
LINE
  5
D4FA
  8
0
 10
444.0094609292474956
 20
15.6333596279571498
 30
0.0
 11
444.0094609293474832
 21
15.7711549035571696
 31
0.0
  0
LINE
  5
D4FB
  8
0
 10
444.3244215592472983
 20
15.8223360058571192
 30
0.0
 11
444.3244215592472983
 21
19.3813721420571206
 31
0.0
  0
LINE
  5
D4FC
  8
0
 10
444.3244215592472983
 20
19.4444033208571483
 30
0.0
 11
444.3244215592472983
 21
20.1585527788571603
 31
0.0
  0
LINE
  5
D4FD
  8
0
 10
444.474027858447414
 20
20.1941708292571498
 30
0.0
 11
445.5527680158476755
 21
20.1941708292571498
 31
0.0
  0
ARC
  5
D4FE
  8
0
 10
444.355917622247091
 20
15.8223360058571192
 30
0.0
 40
0.031496063
 50
180.0
 51
270.0
  0
ARC
  5
D4FF
  8
0
 10
444.0291459686474127
 20
15.7711549035571696
 30
0.0
 40
0.0196850394
 50
90.0
 51
180.0
  0
ARC
  5
D500
  8
0
 10
444.3575323477194843
 20
20.1579014851824603
 30
0.0
 40
0.03311719336196
 50
90.5416338532920406
 51
178.8731303008121927
  0
ARC
  5
D501
  8
0
 10
444.4774971383232014
 20
17.9008343898603002
 30
0.0
 40
2.29333906349851
 50
90.0866750031942445
 51
93.0063485384324764
  0
ARC
  5
D502
  8
0
 10
444.3621620993159809
 20
19.3790373037749291
 30
0.0
 40
0.0378114528814805
 50
88.8995636736126755
 51
176.4574630353363034
  0
ARC
  5
D503
  8
0
 10
444.3581457241745056
 20
19.4449048013145394
 30
0.0
 40
0.0337303220894707
 50
180.899300727363908
 51
249.358127493796502
  0
LINE
  5
D504
  8
0
 10
445.5527680157977102
 20
19.6758823782571604
 30
0.0
 11
444.4740278584973794
 21
19.6758823782571604
 31
0.0
  0
ARC
  5
D505
  8
0
 10
444.4740278584973794
 20
16.0005614948110697
 30
0.0
 40
3.6753208834460658
 50
90.0
 51
91.6324070783029754
  0
ARC
  5
D506
  8
0
 10
444.3811397735681794
 20
19.2599538309766203
 30
0.0
 40
0.4146052262050705
 50
91.6324070783029754
 51
97.8627486754581639
  0
ARC
  5
D507
  8
0
 10
445.2600946900781196
 20
19.7448162637035303
 30
0.0
 40
0.626019678910809
 50
191.4241945645094063
 51
196.2503071022840118
  0
ARC
  5
D508
  8
0
 10
444.6949810083522152
 20
19.6936028990789609
 30
0.0
 40
0.1290605728591081
 50
253.8514340425489877
 51
268.3897844264062087
  0
ARC
  5
D509
  8
0
 10
444.8468723579168795
 20
19.5910668250495803
 30
0.0
 40
0.1577575390888299
 50
187.7817183212177952
 51
223.3228750309021962
  0
ARC
  5
D50A
  8
0
 10
445.0244401905583231
 20
15.09303033346999
 30
0.0
 40
4.4891091309474866
 50
90.1409355701308073
 51
94.2652495034868707
  0
ARC
  5
D50B
  8
0
 10
445.0750162758358215
 20
12.6541429093073994
 30
0.0
 40
6.9798446502209863
 50
90.5058159290672535
 51
93.5199765509514123
  0
LINE
  5
D50C
  8
0
 10
436.1078861261473207
 20
16.7593438798571306
 30
0.0
 11
436.1078861261473207
 21
17.0506824192571216
 31
0.0
  0
LINE
  5
D50D
  8
0
 10
438.1236341576474729
 20
15.6333596279571498
 30
0.0
 11
438.1236341576474729
 21
15.7593438798571306
 31
0.0
  0
LINE
  5
D50E
  8
0
 10
438.6551302206473224
 20
15.8223360058571707
 30
0.0
 11
438.6551302206473224
 21
16.6845407302571616
 31
0.0
  0
LINE
  5
D50F
  8
0
 10
438.7228861261475004
 20
16.7278478168571709
 30
0.0
 11
438.7228861261475004
 21
16.7160367932571212
 31
0.0
  0
LINE
  5
D510
  8
0
 10
439.4928861261474822
 20
16.7278478168571709
 30
0.0
 11
439.4928861261474822
 21
16.7160367932571212
 31
0.0
  0
LINE
  5
D511
  8
0
 10
439.5606420316473191
 20
15.8223360058571707
 30
0.0
 11
439.5606420316473191
 21
16.6845407302571616
 31
0.0
  0
LINE
  5
D512
  8
0
 10
439.5606420316473191
 20
16.7593438798571306
 30
0.0
 11
439.5606420316473191
 21
17.0506824192571216
 31
0.0
  0
LINE
  5
D513
  8
0
 10
440.0921380946476233
 20
15.6333596279571498
 30
0.0
 11
440.0921380946476233
 21
15.7593438798571306
 31
0.0
  0
LINE
  5
D514
  8
0
 10
438.1236341576474729
 20
15.6333596279571498
 30
0.0
 11
440.0921380946476233
 21
15.6333596279571498
 31
0.0
  0
LINE
  5
D515
  8
0
 10
438.1551302206473224
 20
15.7908399428571506
 30
0.0
 11
440.0606420316472054
 21
15.7908399428571506
 31
0.0
  0
LINE
  5
D516
  8
0
 10
438.6866262836476267
 20
16.7160367932571212
 30
0.0
 11
439.5291459686474127
 21
16.7160367932571212
 31
0.0
  0
LINE
  5
D517
  8
0
 10
436.139382189147625
 20
16.7278478168571709
 30
0.0
 11
439.5291459686474127
 21
16.7278478168571709
 31
0.0
  0
LINE
  5
D518
  8
0
 10
439.5291459686474127
 20
17.0821784822571416
 30
0.0
 11
436.139382189147625
 21
17.0821784822571416
 31
0.0
  0
ARC
  5
D519
  8
0
 10
436.139382189147625
 20
16.7593438798571306
 30
0.0
 40
0.031496063
 50
180.0
 51
270.0
  0
ARC
  5
D51A
  8
0
 10
436.139382189147625
 20
17.0506824192571216
 30
0.0
 40
0.031496063
 50
90.0
 51
180.0
  0
ARC
  5
D51B
  8
0
 10
439.5291459686474127
 20
16.7593438798571306
 30
0.0
 40
0.031496063
 50
270.0
 51
0.0
  0
ARC
  5
D51C
  8
0
 10
439.5291459686474127
 20
17.0506824192571216
 30
0.0
 40
0.031496063
 50
0.0
 51
90.0
  0
ARC
  5
D51D
  8
0
 10
439.5291459686474127
 20
16.6845407302571616
 30
0.0
 40
0.031496063
 50
0.0
 51
90.0
  0
ARC
  5
D51E
  8
0
 10
438.6866262836476267
 20
16.6845407302571616
 30
0.0
 40
0.031496063
 50
90.0
 51
180.0
  0
ARC
  5
D51F
  8
0
 10
438.623634157647416
 20
15.8223360058571707
 30
0.0
 40
0.031496063
 50
270.0
 51
0.0
  0
ARC
  5
D520
  8
0
 10
439.5921380946476233
 20
15.8223360058571707
 30
0.0
 40
0.031496063
 50
180.0
 51
270.0
  0
ARC
  5
D521
  8
0
 10
440.0606420316472054
 20
15.7593438798571306
 30
0.0
 40
0.031496063
 50
0.0
 51
90.0
  0
ARC
  5
D522
  8
0
 10
438.1551302206473224
 20
15.7593438798571306
 30
0.0
 40
0.031496063
 50
90.0
 51
180.0
  0
LINE
  5
D523
  8
0
 10
444.9542920668196757
 20
19.4919589236477506
 30
0.0
 11
444.9690760238474923
 21
19.4900333620571509
 31
0.0
  0
LINE
  5
D524
  8
0
 10
444.9690760238474923
 20
19.4900333620571509
 30
0.0
 11
445.0094609292476093
 21
19.4902048689571501
 31
0.0
  0
LINE
  5
D525
  8
0
 10
445.0094609292476093
 20
19.4902048689571501
 30
0.0
 11
445.0094609292476093
 21
19.4921974612571489
 31
0.0
  0
LINE
  5
D526
  8
0
 10
445.0094609292476093
 20
19.4921974612571489
 30
0.0
 11
444.9542920668196757
 21
19.4919589236477506
 31
0.0
  0
LINE
  5
D527
  8
0
 10
444.919406468194893
 20
19.4891552043158285
 30
0.0
 11
444.9479379763769202
 21
19.4874305402009718
 31
0.0
  0
LINE
  5
D528
  8
0
 10
444.9479379763769202
 20
19.4874305402009718
 30
0.0
 11
445.0094609292476093
 21
19.4880058593571484
 31
0.0
  0
LINE
  5
D529
  8
0
 10
445.0094609292476093
 20
19.4880058593571484
 30
0.0
 11
445.0094611021610262
 21
19.4899963947355594
 31
0.0
  0
LINE
  5
D52A
  8
0
 10
445.0094611021610262
 20
19.4899963947355594
 30
0.0
 11
444.919406468194893
 21
19.4891552043158285
 31
0.0
  0
LINE
  5
D52B
  8
0
 10
444.9479379763769202
 20
19.4874305402009718
 30
0.0
 11
444.982414956047478
 21
19.4853464860799193
 31
0.0
  0
LINE
  5
D52C
  8
0
 10
444.982414956047478
 20
19.4853464860799193
 30
0.0
 11
445.0133979371474879
 21
19.4856109879762407
 31
0.0
  0
LINE
  5
D52D
  8
0
 10
444.982414956047478
 20
19.4853464860799193
 30
0.0
 11
445.00316929064752
 21
19.484091934257151
 31
0.0
  0
LINE
  5
D52E
  8
0
 10
445.00316929064752
 20
19.484091934257151
 30
0.0
 11
445.0133979371474879
 21
19.4841717992761296
 31
0.0
  0
LINE
  5
D52F
  8
0
 10
444.9690760238474923
 20
19.4900333620571509
 30
0.0
 11
444.9690760238474923
 21
19.4920228461143701
 31
0.0
  0
LINE
  5
D530
  8
0
 10
444.9479379763769202
 20
19.4874305402009718
 30
0.0
 11
444.9479379763769202
 21
19.4894217139920904
 31
0.0
  0
LINE
  5
D531
  8
0
 10
444.982414956047478
 20
19.4853464860799193
 30
0.0
 11
444.982414956047478
 21
19.4877529445383217
 31
0.0
  0
LINE
  5
D532
  8
0
 10
445.00316929064752
 20
19.484091934257151
 30
0.0
 11
445.00316929064752
 21
19.4855236659594517
 31
0.0
  0
LINE
  5
D533
  8
0
 10
444.8878855072080114
 20
19.4910605739688698
 30
0.0
 11
444.9390806364474997
 21
19.4918166771571499
 31
0.0
  0
LINE
  5
D534
  8
0
 10
444.9390806364474997
 20
19.4918166771571499
 30
0.0
 11
444.9538645935475074
 21
19.4898911155571497
 31
0.0
  0
LINE
  5
D535
  8
0
 10
444.9538645935475074
 20
19.4898911155571497
 30
0.0
 11
444.9164330861474923
 21
19.4893349383767784
 31
0.0
  0
LINE
  5
D536
  8
0
 10
444.9164330861474923
 20
19.4893349383767784
 30
0.0
 11
444.8878855072080114
 21
19.4910605739688698
 31
0.0
  0
LINE
  5
D537
  8
0
 10
444.9164330861474923
 20
19.4893349383767784
 30
0.0
 11
444.9164330861474923
 21
19.4914821944584418
 31
0.0
  0
LINE
  5
D538
  8
0
 10
444.8367062658475106
 20
19.4897539119571483
 30
0.0
 11
444.8810664080475021
 21
19.4909231744571514
 31
0.0
  0
LINE
  5
D539
  8
0
 10
444.8810664080475021
 20
19.4909231744571514
 30
0.0
 11
444.9096139884475178
 21
19.4891975388571517
 31
0.0
  0
LINE
  5
D53A
  8
0
 10
444.9096139884475178
 20
19.4891975388571517
 30
0.0
 11
444.8770967879668774
 21
19.4883443030529797
 31
0.0
  0
LINE
  5
D53B
  8
0
 10
444.8770967879668774
 20
19.4883443030529797
 30
0.0
 11
444.8367062658116993
 21
19.4897539119791716
 31
0.0
  0
LINE
  5
D53C
  8
0
 10
444.8770967879668774
 20
19.4883443030529797
 30
0.0
 11
444.8770967879668774
 21
19.4908185416117803
 31
0.0
  0
LINE
  5
D53D
  8
0
 10
444.8466282172474848
 20
19.4867177743571496
 30
0.0
 11
444.9125673293474961
 21
19.489019016157151
 31
0.0
  0
LINE
  5
D53E
  8
0
 10
444.9125673293474961
 20
19.489019016157151
 30
0.0
 11
444.9411188776671793
 21
19.4872931406620005
 31
0.0
  0
LINE
  5
D53F
  8
0
 10
444.9411188776671793
 20
19.4872931406620005
 30
0.0
 11
444.8960809497474997
 21
19.4857213397236606
 31
0.0
  0
LINE
  5
D540
  8
0
 10
444.8960809497474997
 20
19.4857213397236606
 30
0.0
 11
444.8466282172474848
 21
19.4867177743571496
 31
0.0
  0
LINE
  5
D541
  8
0
 10
444.7920670211474885
 20
19.4878171406571497
 30
0.0
 11
444.8255707259475003
 21
19.4893652872571508
 31
0.0
  0
LINE
  5
D542
  8
0
 10
444.8255707259475003
 20
19.4893652872571508
 30
0.0
 11
444.8659612479474958
 21
19.4879556783571495
 31
0.0
  0
LINE
  5
D543
  8
0
 10
444.8659612479474958
 20
19.4879556783571495
 30
0.0
 11
444.841512880747473
 21
19.4868208444571493
 31
0.0
  0
LINE
  5
D544
  8
0
 10
444.841512880747473
 20
19.4868208444571493
 30
0.0
 11
444.7920670211474885
 21
19.4878171406571497
 31
0.0
  0
LINE
  5
D545
  8
0
 10
444.7664648555474969
 20
19.485792473257149
 30
0.0
 11
444.7881300132474962
 21
19.4875791575571498
 31
0.0
  0
LINE
  5
D546
  8
0
 10
444.7881300132474962
 20
19.4875791575571498
 30
0.0
 11
444.8375758728474807
 21
19.4865828613571495
 31
0.0
  0
LINE
  5
D547
  8
0
 10
444.8375758728474807
 20
19.4865828613571495
 30
0.0
 11
444.8216393346475002
 21
19.4852765205571501
 31
0.0
  0
LINE
  5
D548
  8
0
 10
444.8216393346475002
 20
19.4852765205571501
 30
0.0
 11
444.7664648555474969
 21
19.485792473257149
 31
0.0
  0
LINE
  5
D549
  8
0
 10
444.7664648555474969
 20
19.4806052004571484
 30
0.0
 11
444.7881300132474962
 21
19.4788185161571512
 31
0.0
  0
LINE
  5
D54A
  8
0
 10
444.7881300132474962
 20
19.4788185161571512
 30
0.0
 11
444.8375758728474807
 21
19.4798148123571515
 31
0.0
  0
LINE
  5
D54B
  8
0
 10
444.8375758728474807
 20
19.4798148123571515
 30
0.0
 11
444.8216393346475002
 21
19.4811211531571509
 31
0.0
  0
LINE
  5
D54C
  8
0
 10
444.8216393346475002
 20
19.4811211531571509
 30
0.0
 11
444.7664648555474969
 21
19.4806052004571484
 31
0.0
  0
LINE
  5
D54D
  8
0
 10
444.7920670211474885
 20
19.4785805330571513
 30
0.0
 11
444.8420025081164795
 21
19.4795541019423908
 31
0.0
  0
LINE
  5
D54E
  8
0
 10
444.8420025081164795
 20
19.4795541019423908
 30
0.0
 11
444.8659612479474958
 21
19.4784419953571515
 31
0.0
  0
LINE
  5
D54F
  8
0
 10
444.8659612479474958
 20
19.4784419953571515
 30
0.0
 11
444.8255707259475003
 21
19.4770323864571502
 31
0.0
  0
LINE
  5
D550
  8
0
 10
444.8255707259475003
 20
19.4770323864571502
 30
0.0
 11
444.7920670211474885
 21
19.4785805330571513
 31
0.0
  0
LINE
  5
D551
  8
0
 10
444.9010412373647796
 20
19.48077628005516
 30
0.0
 11
444.8466282172474848
 21
19.4796798993571514
 31
0.0
  0
LINE
  5
D552
  8
0
 10
444.8466282172474848
 20
19.4796798993571514
 30
0.0
 11
444.9125673293474961
 21
19.4773786575571499
 31
0.0
  0
LINE
  5
D553
  8
0
 10
444.9125673293474961
 20
19.4773786575571499
 30
0.0
 11
444.9440728936475011
 21
19.4792830965571504
 31
0.0
  0
LINE
  5
D554
  8
0
 10
444.8367062658116993
 20
19.4766437617351293
 30
0.0
 11
444.8851655421639748
 21
19.4783349661280916
 31
0.0
  0
LINE
  5
D555
  8
0
 10
444.8367062658475106
 20
19.4766437617571491
 30
0.0
 11
444.881066408080585
 21
19.4754744992979809
 31
0.0
  0
LINE
  5
D556
  8
0
 10
444.881066408080585
 20
19.4754744992979809
 30
0.0
 11
444.9125673293474961
 21
19.4773786575571499
 31
0.0
  0
LINE
  5
D557
  8
0
 10
444.8815669478474888
 20
19.4833362364571485
 30
0.0
 11
444.9446128772474935
 21
19.4833362364571485
 31
0.0
  0
LINE
  5
D558
  8
0
 10
444.8815669478474888
 20
19.4830614372571489
 30
0.0
 11
444.9446128772474935
 21
19.4830614372571489
 31
0.0
  0
ARC
  5
D559
  8
0
 10
444.9533322237251127
 20
19.444846370714739
 30
0.0
 40
0.0394651335721343
 50
91.9701890921586056
 51
102.7641304187252018
  0
ARC
  5
D55A
  8
0
 10
444.9865591508577154
 20
18.9006320925058198
 30
0.0
 40
0.5846797889785817
 50
91.0744123835770267
 51
93.3910158220563034
  0
LINE
  5
D55B
  8
0
 10
444.9755958583475035
 20
19.4852090864571501
 30
0.0
 11
444.9440728936475011
 21
19.4871145771571506
 31
0.0
  0
LINE
  5
D55C
  8
0
 10
444.9440728936475011
 20
19.4871145771571506
 30
0.0
 11
444.9127135519415788
 21
19.4861719524957309
 31
0.0
  0
ARC
  5
D55D
  8
0
 10
444.9344672128319189
 20
18.9135187114421015
 30
0.0
 40
0.5730662756185885
 50
92.1754769755896746
 51
94.0406556759878356
  0
ARC
  5
D55E
  8
0
 10
444.9065225478743741
 20
19.30911196572373
 30
0.0
 40
0.176487245496314
 50
94.0406556759878356
 51
96.1223545607620622
  0
ARC
  5
D55F
  8
0
 10
444.8907897725313774
 20
19.4492549757041289
 30
0.0
 40
0.0354724605036714
 50
94.9972701324147977
 51
103.9620005595476044
  0
ARC
  5
D560
  8
0
 10
444.8825628580968896
 20
19.4822232619840889
 30
0.0
 40
0.0014935023946033
 50
102.836916131170895
 51
131.8227711126423003
  0
ARC
  5
D561
  8
0
 10
444.8871158178288852
 20
19.4965431634200392
 30
0.0
 40
0.0145789882502714
 50
247.6286920498527024
 51
265.6677449767670964
  0
ARC
  5
D562
  8
0
 10
444.9155398960979255
 20
19.7504066972142489
 30
0.0
 40
0.2700199491934653
 50
263.7224313248963199
 51
267.4091319929551105
  0
ARC
  5
D563
  8
0
 10
444.9638713783384105
 20
20.6967450138280391
 30
0.0
 40
1.2175881121218579
 50
267.150129674062498
 51
268.5990710391869811
  0
LINE
  5
D564
  8
0
 10
444.9341033132901089
 20
19.4795208466822487
 30
0.0
 11
444.9440728936475011
 21
19.4792830965571504
 31
0.0
  0
LINE
  5
D565
  8
0
 10
444.9440728936475011
 20
19.4792830965571504
 30
0.0
 11
444.9755958583452866
 21
19.4811885872570194
 31
0.0
  0
ARC
  5
D566
  8
0
 10
444.9486319639265162
 20
19.4956779081733593
 30
0.0
 40
0.0132411629441265
 50
252.3302689092180913
 51
266.4897769533292262
  0
ARC
  5
D567
  8
0
 10
444.966932133041098
 20
19.6868868871282992
 30
0.0
 40
0.2053166555776702
 50
264.6591759256202749
 51
267.7715142427124988
  0
ARC
  5
D568
  8
0
 10
444.9926065045323753
 20
20.2669511756709397
 30
0.0
 40
0.7859466950338551
 50
267.5455676905714881
 51
268.7598213097376743
  0
LINE
  5
D569
  8
0
 10
444.9446128772474935
 20
19.4833362364571485
 30
0.0
 11
444.9446128772474935
 21
19.4870819363907195
 31
0.0
  0
LINE
  5
D56A
  8
0
 10
444.9446128772474935
 20
19.4830614372571489
 30
0.0
 11
444.9446128772474935
 21
19.4793157373235815
 31
0.0
  0
LINE
  5
D56B
  8
0
 10
444.8255707259475003
 20
19.4770323864571502
 30
0.0
 11
444.8255707259475003
 21
19.4792337391539299
 31
0.0
  0
LINE
  5
D56C
  8
0
 10
444.7881300132474962
 20
19.4788185161571512
 30
0.0
 11
444.7881300132474962
 21
19.4808077976867686
 31
0.0
  0
LINE
  5
D56D
  8
0
 10
444.8216393346475002
 20
19.4852765205571501
 30
0.0
 11
444.8216393346475002
 21
19.4869039703959714
 31
0.0
  0
LINE
  5
D56E
  8
0
 10
444.841512880747473
 20
19.4868208444571493
 30
0.0
 11
444.841512880747473
 21
19.488808914074081
 31
0.0
  0
LINE
  5
D56F
  8
0
 10
444.9125673293474961
 20
19.4773786575571499
 30
0.0
 11
444.9125673293474961
 21
19.4802382504528317
 31
0.0
  0
LINE
  5
D570
  8
0
 10
444.8960809497474997
 20
19.4857213397236606
 30
0.0
 11
444.8960809497474997
 21
19.4884436498129894
 31
0.0
  0
LINE
  5
D571
  8
0
 10
444.8185558192474787
 20
19.4833362364571485
 30
0.0
 11
444.8756589160474846
 21
19.483336236632411
 31
0.0
  0
LINE
  5
D572
  8
0
 10
444.8185558192474787
 20
19.4830614372571489
 30
0.0
 11
444.8756589160474846
 21
19.4830614372571489
 31
0.0
  0
ARC
  5
D573
  8
0
 10
444.8795754068431734
 20
19.4757068174982706
 30
0.0
 40
0.0085759508978422
 50
93.612923947177805
 51
117.1732723849640934
  0
ARC
  5
D574
  8
0
 10
444.9021157665205806
 20
19.3069534313944402
 30
0.0
 40
0.1788081974248348
 50
93.1969453754591939
 51
97.4165022637009201
  0
LINE
  5
D575
  8
0
 10
444.8921439418326145
 20
19.4854833565574488
 30
0.0
 11
444.8426912093474925
 21
19.4864797912571497
 31
0.0
  0
ARC
  5
D576
  8
0
 10
444.8661943541948176
 20
19.0995829800561197
 30
0.0
 40
0.3876100364222317
 50
93.4763227131917347
 51
95.3408852968041174
  0
ARC
  5
D577
  8
0
 10
444.8401144769842972
 20
19.3785510337304991
 30
0.0
 40
0.1074255704606268
 50
95.3408852968041174
 51
100.4805638087627955
  0
ARC
  5
D578
  8
0
 10
444.8215066112600198
 20
19.4791405137355618
 30
0.0
 40
0.0051294505219753
 50
100.4805638087661066
 51
125.1181740925668038
  0
ARC
  5
D579
  8
0
 10
444.8207331512297742
 20
19.4856326963120203
 30
0.0
 40
0.0033692948354572
 50
229.7422059195521911
 51
261.0622557068209062
  0
ARC
  5
D57A
  8
0
 10
444.8330170016449756
 20
19.5401626014860703
 30
0.0
 40
0.0592588285500488
 50
257.5184692670982258
 51
264.433645222754194
  0
ARC
  5
D57B
  8
0
 10
444.8629759719028129
 20
19.8217744034152794
 30
0.0
 40
0.3424578112899726
 50
264.0150736346150779
 51
266.6042182683033843
  0
LINE
  5
D57C
  8
0
 10
444.8426912093474925
 20
19.4799178824571513
 30
0.0
 11
444.8921439418476211
 21
19.4809143171571506
 31
0.0
  0
ARC
  5
D57D
  8
0
 10
444.9054960097803928
 20
19.7044086381276706
 30
0.0
 40
0.223892807442959
 50
263.9038699007815012
 51
266.5810812111773771
  0
ARC
  5
D57E
  8
0
 10
444.8867283288082035
 20
19.5286826984986703
 30
0.0
 40
0.0471675073086321
 50
257.7172771347002254
 51
263.9038699007815012
  0
ARC
  5
D57F
  8
0
 10
444.8772760456578794
 20
19.4852677202563207
 30
0.0
 40
0.0027354694019841
 50
233.759864823107705
 51
257.7172771347002254
  0
LINE
  5
D580
  8
0
 10
444.8756589160474846
 20
19.4833362364571485
 30
0.0
 11
444.8756589160474846
 21
19.4858155172064684
 31
0.0
  0
LINE
  5
D581
  8
0
 10
444.8756589160474846
 20
19.4830614372571489
 30
0.0
 11
444.8756589160474846
 21
19.4805821565078396
 31
0.0
  0
LINE
  5
D582
  8
0
 10
444.8426912093474925
 20
19.4799178824571513
 30
0.0
 11
444.8426912093474925
 21
19.4830614372571489
 31
0.0
  0
LINE
  5
D583
  8
0
 10
444.881066408080585
 20
19.4754744992979809
 30
0.0
 11
444.881066408080585
 21
19.4781919084084691
 31
0.0
  0
LINE
  5
D584
  8
0
 10
444.8878855062267235
 20
19.4753370996861186
 30
0.0
 11
444.9193864270475274
 21
19.4772412579571501
 31
0.0
  0
LINE
  5
D585
  8
0
 10
444.9193864270475274
 20
19.4772412579571501
 30
0.0
 11
444.9538645935475074
 21
19.4765065581571513
 31
0.0
  0
LINE
  5
D586
  8
0
 10
444.9538645935475074
 20
19.4765065581571513
 30
0.0
 11
444.9390806364474997
 21
19.474580996557151
 31
0.0
  0
LINE
  5
D587
  8
0
 10
444.9390806364474997
 20
19.474580996557151
 30
0.0
 11
444.8878855062267235
 21
19.4753370996861186
 31
0.0
  0
LINE
  5
D588
  8
0
 10
444.9193864270475274
 20
19.4772412579571501
 30
0.0
 11
444.9508919912985903
 21
19.4791456968345216
 31
0.0
  0
LINE
  5
D589
  8
0
 10
444.9508919912985903
 20
19.4791456968345216
 30
0.0
 11
445.0133979371444752
 21
19.4785959503985602
 31
0.0
  0
LINE
  5
D58A
  8
0
 10
445.0094609292476093
 20
19.478630576801379
 30
0.0
 11
445.0094609292476093
 21
19.4763989449571504
 31
0.0
  0
LINE
  5
D58B
  8
0
 10
445.0094609292476093
 20
19.4763989449571504
 30
0.0
 11
444.9375040427387944
 21
19.476855187293431
 31
0.0
  0
LINE
  5
D58C
  8
0
 10
444.9712042879559135
 20
19.4766415110303583
 30
0.0
 11
444.9542920667474846
 21
19.4744387500571499
 31
0.0
  0
LINE
  5
D58D
  8
0
 10
444.9542920667474846
 20
19.4744387500571499
 30
0.0
 11
445.0094609292941072
 21
19.4742002123816995
 31
0.0
  0
LINE
  5
D58E
  8
0
 10
445.0094609292941072
 20
19.4742002123816995
 30
0.0
 11
445.0094630026474078
 21
19.4763989318107704
 31
0.0
  0
LINE
  5
D58F
  8
0
 10
444.9508919912985903
 20
19.4791456968345216
 30
0.0
 11
444.982414956047478
 21
19.481051187657151
 31
0.0
  0
LINE
  5
D590
  8
0
 10
444.982414956047478
 20
19.481051187657151
 30
0.0
 11
445.0133979371474879
 21
19.4807914480647391
 31
0.0
  0
LINE
  5
D591
  8
0
 10
444.9390806364474997
 20
19.474580996557151
 30
0.0
 11
444.9390806364474997
 21
19.4768215914500189
 31
0.0
  0
LINE
  5
D592
  8
0
 10
444.9853729989829958
 20
19.4812299945391914
 30
0.0
 11
445.00316929064752
 21
19.4823057394571499
 31
0.0
  0
LINE
  5
D593
  8
0
 10
445.00316929064752
 20
19.4823057394571499
 30
0.0
 11
445.0133979371474879
 21
19.4822316349271887
 31
0.0
  0
LINE
  5
D594
  8
0
 10
445.0133979371474879
 20
19.4809977990367109
 30
0.0
 11
444.9853729989829958
 21
19.4812299945391914
 31
0.0
  0
LINE
  5
D595
  8
0
 10
444.9505289630474749
 20
19.4833362364571485
 30
0.0
 11
444.9861215465475084
 21
19.4833362364571485
 31
0.0
  0
LINE
  5
D596
  8
0
 10
444.9505289630474749
 20
19.4830614372571489
 30
0.0
 11
444.9861215465475084
 21
19.4830614372571489
 31
0.0
  0
ARC
  5
D597
  8
0
 10
444.9975657711943882
 20
19.3789283998511905
 30
0.0
 40
0.1050331691538956
 50
90.6631148323328233
 51
96.2552636365460188
  0
ARC
  5
D598
  8
0
 10
444.9978801129606722
 20
19.5926695005571894
 30
0.0
 40
0.1102369784803525
 50
263.8768244605644782
 51
269.2047970702614066
  0
ARC
  5
D599
  8
0
 10
444.9570680973549202
 20
19.4566375696571683
 30
0.0
 40
0.0274877988639632
 50
92.2259196798292038
 51
103.7621725462793023
  0
ARC
  5
D59A
  8
0
 10
444.9875944793876101
 20
18.9895385223229383
 30
0.0
 40
0.4955742260652377
 50
91.0452837926308547
 51
93.6552174596449731
  0
LINE
  5
D59B
  8
0
 10
444.9785539012474942
 20
19.4850302795571508
 30
0.0
 11
444.9963501930474763
 21
19.4839545346571512
 31
0.0
  0
ARC
  5
D59C
  8
0
 10
444.9559456906989112
 20
19.5038221860588301
 30
0.0
 40
0.0214557598153779
 50
255.3768517883657125
 51
266.5372638387354982
  0
ARC
  5
D59D
  8
0
 10
444.9758850083958919
 20
19.7503413183709391
 30
0.0
 40
0.2687759014850447
 50
265.4684980364355056
 51
268.0936775792408753
  0
ARC
  5
D59E
  8
0
 10
444.9964935108254167
 20
20.2764922909283101
 30
0.0
 40
0.7953272477773826
 50
267.8707519749845005
 51
268.7075117845603813
  0
LINE
  5
D59F
  8
0
 10
444.9785539012474942
 20
19.4813673941571501
 30
0.0
 11
444.9963501930470215
 21
19.4824431390571213
 31
0.0
  0
LINE
  5
D5A0
  8
0
 10
444.9785539012474942
 20
19.4813673941571501
 30
0.0
 11
444.9785539012474942
 21
19.4830614372571489
 31
0.0
  0
LINE
  5
D5A1
  8
0
 10
444.9861215465475084
 20
19.4833362364571805
 30
0.0
 11
444.9861215465475084
 21
19.4845728328076788
 31
0.0
  0
LINE
  5
D5A2
  8
0
 10
444.7555539766474908
 20
19.4833362364571485
 30
0.0
 11
444.8126491374475222
 21
19.4833362364571485
 31
0.0
  0
LINE
  5
D5A3
  8
0
 10
444.7555539766474908
 20
19.4830614372571489
 30
0.0
 11
444.8126491374475222
 21
19.4830614372571489
 31
0.0
  0
ARC
  5
D5A4
  8
0
 10
444.8184945879229986
 20
19.472226710641479
 30
0.0
 40
0.0125535196304151
 50
94.2537588076589117
 51
117.7518022458939981
  0
ARC
  5
D5A5
  8
0
 10
444.818604312911873
 20
19.4945535495037987
 30
0.0
 40
0.0129434446227172
 50
242.60695504346711
 51
265.3874838606993194
  0
LINE
  5
D5A6
  8
0
 10
444.817563444240875
 20
19.4847456493572118
 30
0.0
 11
444.762388965047478
 21
19.4852616019571485
 31
0.0
  0
LINE
  5
D5A7
  8
0
 10
444.8175634442475257
 20
19.4816520243571496
 30
0.0
 11
444.762388965047478
 21
19.4811360717571489
 31
0.0
  0
ARC
  5
D5A8
  8
0
 10
444.7597315022155726
 20
19.4775872491393685
 30
0.0
 40
0.0071065163795152
 50
97.1939449952600256
 51
126.0041861582267018
  0
ARC
  5
D5A9
  8
0
 10
444.7705656688946192
 20
19.4283622873233988
 30
0.0
 40
0.0574838280875117
 50
98.1776917568665226
 51
101.7683225070295947
  0
ARC
  5
D5AA
  8
0
 10
444.7588237175010022
 20
19.4868958993209489
 30
0.0
 40
0.0050392761948468
 50
229.5449501419020919
 51
263.8509735695828908
  0
ARC
  5
D5AB
  8
0
 10
444.7696571942988157
 20
19.5325577717964016
 30
0.0
 40
0.0519328257595897
 50
257.3497297066363103
 51
261.954790433307096
  0
LINE
  5
D5AC
  8
0
 10
444.8126491374475222
 20
19.4833362364571698
 30
0.0
 11
444.8126491374475222
 21
19.4847916044691409
 31
0.0
  0
LINE
  5
D5AD
  8
0
 10
444.762388965047478
 20
19.4811360717571489
 30
0.0
 11
444.762388965047478
 21
19.4830614372571489
 31
0.0
  0
ARC
  5
D5AE
  8
0
 10
445.2725985954721182
 20
-21.8475885120396391
 30
0.0
 40
41.3414239902776899
 50
90.3592329348246466
 51
90.5234562597221668
  0
ARC
  5
D5AF
  8
0
 10
444.9666924923330953
 20
14.8982244432399806
 30
0.0
 40
4.5944465565678589
 50
90.8952470784423667
 51
91.9058835662823412
  0
ARC
  5
D5B0
  8
0
 10
444.8744996046306142
 20
17.6687583095723006
 30
0.0
 40
1.8223791993347691
 50
91.9058835662823412
 51
93.2143576440736865
  0
ARC
  5
D5B1
  8
0
 10
444.8094630378507759
 20
18.8268157052161484
 30
0.0
 40
0.6624970128072241
 50
93.2143576440736865
 51
95.5189455433578303
  0
ARC
  5
D5B2
  8
0
 10
444.756213201124126
 20
19.3779262511007495
 30
0.0
 40
0.108819869612176
 50
95.5189455433578303
 51
101.1294645827994003
  0
ARC
  5
D5B3
  8
0
 10
444.7374230228530791
 20
19.4734405674963007
 30
0.0
 40
0.0114748366830728
 50
101.1294645827994003
 51
116.8731308309750005
  0
ARC
  5
D5B4
  8
0
 10
444.7325225199390957
 20
19.4831112237220587
 30
0.0
 40
0.0006334105477971
 50
116.8731308309711068
 51
163.0912015263967021
  0
ARC
  5
D5B5
  8
0
 10
444.7323780595593803
 20
19.4832092044015717
 30
0.0
 40
0.0004695557984487
 50
169.4160386635612952
 51
212.3004328736944899
  0
ARC
  5
D5B6
  8
0
 10
444.7360809455901176
 20
19.4892172034933999
 30
0.0
 40
0.0075258807917718
 50
238.09947632058811
 51
259.2417143871700205
  0
ARC
  5
D5B7
  8
0
 10
444.7692791684418125
 20
19.6747448315548006
 30
0.0
 40
0.1959999282294478
 50
259.8313479016376846
 51
266.6685217359113835
  0
ARC
  5
D5B8
  8
0
 10
444.8701917903870253
 20
21.1454956663862887
 30
0.0
 40
1.670199372246395
 50
266.1445756498375772
 51
268.3790048778777759
  0
ARC
  5
D5B9
  8
0
 10
444.9909619998005041
 20
25.1304260837252293
 30
0.0
 40
5.6569570768787036
 50
268.2980137653660222
 51
269.6820470378673917
  0
ARC
  5
D5BA
  8
0
 10
444.9522415524024268
 20
9.3093436299255643
 30
0.0
 40
10.1642151215730703
 50
89.6552587841991908
 51
89.9586902460825257
  0
ARC
  5
D5BB
  8
0
 10
445.1758213499592785
 20
-8.1392563785168051
 30
0.0
 40
27.7772667078623492
 50
90.3350304109805649
 51
90.8827323902427366
  0
ARC
  5
D5BC
  8
0
 10
444.8729580244782937
 20
14.0701376384829295
 30
0.0
 40
5.5659815340740151
 50
91.2875960657264329
 51
92.3570165416449953
  0
ARC
  5
D5BD
  8
0
 10
444.727451142959012
 20
17.6052111656942003
 30
0.0
 40
2.0279146755537569
 50
92.3570165416449953
 51
94.4096092974691032
  0
ARC
  5
D5BE
  8
0
 10
444.5965246984727059
 20
19.30302958037311
 30
0.0
 40
0.3250555788905619
 50
94.4096092974691032
 51
98.8288946303785991
  0
ARC
  5
D5BF
  8
0
 10
444.5549781914122036
 20
19.5705113821953987
 30
0.0
 40
0.0543664092604603
 50
98.8288946303786133
 51
105.5805168931970002
  0
ARC
  5
D5C0
  8
0
 10
444.5438668560507836
 20
19.6103600236342217
 30
0.0
 40
0.0129976287849355
 50
105.5805168931969007
 51
118.1512368828464048
  0
ARC
  5
D5C1
  8
0
 10
444.5382826926335724
 20
19.6207957610965806
 30
0.0
 40
0.0011617723540195
 50
118.1512368828423973
 51
194.0402782409956899
  0
ARC
  5
D5C2
  8
0
 10
444.5425952471841811
 20
19.62731578930822
 30
0.0
 40
0.0087094784225665
 50
231.3498676226940063
 51
260.3569460144378809
  0
ARC
  5
D5C3
  8
0
 10
444.6272384953838923
 20
20.2077515383830004
 30
0.0
 40
0.5952820307550618
 50
261.6835109643469082
 51
265.0839104744715087
  0
ARC
  5
D5C4
  8
0
 10
444.7172372936877878
 20
21.4130684128733293
 30
0.0
 40
1.80392891884316
 50
265.5166345728339934
 51
267.8215504457838279
  0
LINE
  5
D5C5
  8
0
 10
446.0173349450474802
 20
15.6333596279571498
 30
0.0
 11
446.0173349449474927
 21
15.7711549035571696
 31
0.0
  0
LINE
  5
D5C6
  8
0
 10
445.7023743150476776
 20
15.8223360058571192
 30
0.0
 11
445.7023743150476776
 21
19.3813721420571206
 31
0.0
  0
LINE
  5
D5C7
  8
0
 10
445.7023743150476776
 20
19.4444033208571483
 30
0.0
 11
445.7023743150476776
 21
20.1585527788571603
 31
0.0
  0
ARC
  5
D5C8
  8
0
 10
445.670878252047828
 20
15.8223360058571192
 30
0.0
 40
0.031496063
 50
270.0
 51
0.0
  0
ARC
  5
D5C9
  8
0
 10
445.99764990564762
 20
15.7711549035571696
 30
0.0
 40
0.0196850394
 50
0.0
 51
90.0
  0
ARC
  5
D5CA
  8
0
 10
445.6692635265754916
 20
20.1579014851824603
 30
0.0
 40
0.03311719336196
 50
1.126869699187748
 51
89.4583661467079452
  0
ARC
  5
D5CB
  8
0
 10
445.5492987359717176
 20
17.9008343898603002
 30
0.0
 40
2.29333906349851
 50
86.9936514615675662
 51
89.9133249968057555
  0
ARC
  5
D5CC
  8
0
 10
445.664633774978995
 20
19.3790373037749291
 30
0.0
 40
0.0378114528814805
 50
3.5425369646636948
 51
91.1004363263873245
  0
ARC
  5
D5CD
  8
0
 10
445.0133979370976931
 20
8.2829787572451519
 30
0.0
 40
11.1528502501119693
 50
86.6562248205761136
 51
93.3437629684161578
  0
ARC
  5
D5CE
  8
0
 10
445.6686501501205271
 20
19.4449048013145394
 30
0.0
 40
0.0337303220894707
 50
290.6418725062035833
 51
359.1006992726361204
  0
ARC
  5
D5CF
  8
0
 10
445.5527680157977102
 20
16.0005614948110697
 30
0.0
 40
3.6753208834460658
 50
88.3675929216969962
 51
90.0
  0
ARC
  5
D5D0
  8
0
 10
445.6456561007267965
 20
19.2599538309766203
 30
0.0
 40
0.4146052262050705
 50
82.1372513245418361
 51
88.3675929216969962
  0
ARC
  5
D5D1
  8
0
 10
444.7667011842169131
 20
19.7448162637035303
 30
0.0
 40
0.626019678910809
 50
343.7496928977159882
 51
348.5758054354905084
  0
ARC
  5
D5D2
  8
0
 10
445.3318148659428743
 20
19.6936028990789609
 30
0.0
 40
0.1290605728591081
 50
271.610215573593905
 51
286.1485659574510123
  0
ARC
  5
D5D3
  8
0
 10
445.17992351637821
 20
19.5910668250495803
 30
0.0
 40
0.1577575390888299
 50
316.6771249690979175
 51
352.2182816787822048
  0
ARC
  5
D5D4
  8
0
 10
445.0023556837368233
 20
15.09303033346999
 30
0.0
 40
4.4891091309474866
 50
85.7347504965131151
 51
89.8590644298659242
  0
ARC
  5
D5D5
  8
0
 10
444.9517795984593249
 20
12.6541429093072502
 30
0.0
 40
6.9798446502211409
 50
86.4800234490486019
 51
89.4941840709327465
  0
LINE
  5
D5D6
  8
0
 10
445.0725038074753002
 20
19.4919589236477506
 30
0.0
 11
445.0577198504474836
 21
19.4900333620571509
 31
0.0
  0
LINE
  5
D5D7
  8
0
 10
445.0577198504474836
 20
19.4900333620571509
 30
0.0
 11
445.0173349450474802
 21
19.4902048689571501
 31
0.0
  0
LINE
  5
D5D8
  8
0
 10
445.0173349450474802
 20
19.4902048689571501
 30
0.0
 11
445.0173349450474802
 21
19.4921974612571489
 31
0.0
  0
LINE
  5
D5D9
  8
0
 10
445.0173349450474802
 20
19.4921974612571489
 30
0.0
 11
445.0725038074753002
 21
19.4919589236477506
 31
0.0
  0
LINE
  5
D5DA
  8
0
 10
445.1073894061000829
 20
19.4891552043158285
 30
0.0
 11
445.0788578979181125
 21
19.4874305402009718
 31
0.0
  0
LINE
  5
D5DB
  8
0
 10
445.0788578979181125
 20
19.4874305402009718
 30
0.0
 11
445.0173349450474802
 21
19.4880058593571484
 31
0.0
  0
LINE
  5
D5DC
  8
0
 10
445.0173349450474802
 20
19.4880058593571484
 30
0.0
 11
445.0173347721340065
 21
19.4899963947355594
 31
0.0
  0
LINE
  5
D5DD
  8
0
 10
445.0173347721340065
 20
19.4899963947355594
 30
0.0
 11
445.1073894061000829
 21
19.4891552043158285
 31
0.0
  0
LINE
  5
D5DE
  8
0
 10
445.0788578979181125
 20
19.4874305402009718
 30
0.0
 11
445.0443809182474979
 21
19.4853464860799193
 31
0.0
  0
LINE
  5
D5DF
  8
0
 10
445.0443809182474979
 20
19.4853464860799193
 30
0.0
 11
445.0133979371474879
 21
19.4856109879762407
 31
0.0
  0
LINE
  5
D5E0
  8
0
 10
445.0443809182474979
 20
19.4853464860799193
 30
0.0
 11
445.0236265836475127
 21
19.484091934257151
 31
0.0
  0
LINE
  5
D5E1
  8
0
 10
445.0236265836475127
 20
19.484091934257151
 30
0.0
 11
445.0133979371474879
 21
19.4841717992761296
 31
0.0
  0
LINE
  5
D5E2
  8
0
 10
445.0577198504474836
 20
19.4900333620571509
 30
0.0
 11
445.0577198504474836
 21
19.4920228461143701
 31
0.0
  0
LINE
  5
D5E3
  8
0
 10
445.0788578979181125
 20
19.4874305402009718
 30
0.0
 11
445.0788578979181125
 21
19.4894217139920904
 31
0.0
  0
LINE
  5
D5E4
  8
0
 10
445.0443809182474979
 20
19.4853464860799193
 30
0.0
 11
445.0443809182474979
 21
19.4877529445383217
 31
0.0
  0
LINE
  5
D5E5
  8
0
 10
445.0236265836475127
 20
19.484091934257151
 30
0.0
 11
445.0236265836475127
 21
19.4855236659594517
 31
0.0
  0
LINE
  5
D5E6
  8
0
 10
445.1389103670869076
 20
19.4910605739688698
 30
0.0
 11
445.0877152378474761
 21
19.4918166771571499
 31
0.0
  0
LINE
  5
D5E7
  8
0
 10
445.0877152378474761
 20
19.4918166771571499
 30
0.0
 11
445.0729312807474116
 21
19.4898911155571497
 31
0.0
  0
LINE
  5
D5E8
  8
0
 10
445.0729312807474116
 20
19.4898911155571497
 30
0.0
 11
445.1103627881474836
 21
19.4893349383767784
 31
0.0
  0
LINE
  5
D5E9
  8
0
 10
445.1103627881474836
 20
19.4893349383767784
 30
0.0
 11
445.1389103670869076
 21
19.4910605739688698
 31
0.0
  0
LINE
  5
D5EA
  8
0
 10
445.1103627881474836
 20
19.4893349383767784
 30
0.0
 11
445.1103627881474836
 21
19.4914821944584418
 31
0.0
  0
LINE
  5
D5EB
  8
0
 10
445.1900896084475221
 20
19.4897539119571483
 30
0.0
 11
445.1457294662474737
 21
19.4909231744571514
 31
0.0
  0
LINE
  5
D5EC
  8
0
 10
445.1457294662474737
 20
19.4909231744571514
 30
0.0
 11
445.1171818858475149
 21
19.4891975388571517
 31
0.0
  0
LINE
  5
D5ED
  8
0
 10
445.1171818858475149
 20
19.4891975388571517
 30
0.0
 11
445.1496990863280985
 21
19.4883443030529797
 31
0.0
  0
LINE
  5
D5EE
  8
0
 10
445.1496990863280985
 20
19.4883443030529797
 30
0.0
 11
445.1900896084833903
 21
19.4897539119791716
 31
0.0
  0
LINE
  5
D5EF
  8
0
 10
445.1496990863280985
 20
19.4883443030529797
 30
0.0
 11
445.1496990863280985
 21
19.4908185416117803
 31
0.0
  0
LINE
  5
D5F0
  8
0
 10
445.180167657047491
 20
19.4867177743571496
 30
0.0
 11
445.1142285449474798
 21
19.489019016157151
 31
0.0
  0
LINE
  5
D5F1
  8
0
 10
445.1142285449474798
 20
19.489019016157151
 30
0.0
 11
445.0856769966277966
 21
19.4872931406620005
 31
0.0
  0
LINE
  5
D5F2
  8
0
 10
445.0856769966277966
 20
19.4872931406620005
 30
0.0
 11
445.1307149245474761
 21
19.4857213397236606
 31
0.0
  0
LINE
  5
D5F3
  8
0
 10
445.1307149245474761
 20
19.4857213397236606
 30
0.0
 11
445.180167657047491
 21
19.4867177743571496
 31
0.0
  0
LINE
  5
D5F4
  8
0
 10
445.2347288531474874
 20
19.4878171406571497
 30
0.0
 11
445.2012251483474756
 21
19.4893652872571508
 31
0.0
  0
LINE
  5
D5F5
  8
0
 10
445.2012251483474756
 20
19.4893652872571508
 30
0.0
 11
445.16083462634748
 21
19.4879556783571495
 31
0.0
  0
LINE
  5
D5F6
  8
0
 10
445.16083462634748
 20
19.4879556783571495
 30
0.0
 11
445.1852829935475029
 21
19.4868208444571493
 31
0.0
  0
LINE
  5
D5F7
  8
0
 10
445.1852829935475029
 20
19.4868208444571493
 30
0.0
 11
445.2347288531474874
 21
19.4878171406571497
 31
0.0
  0
LINE
  5
D5F8
  8
0
 10
445.260331018747479
 20
19.485792473257149
 30
0.0
 11
445.2386658610474797
 21
19.4875791575571498
 31
0.0
  0
LINE
  5
D5F9
  8
0
 10
445.2386658610474797
 20
19.4875791575571498
 30
0.0
 11
445.1892200014476089
 21
19.4865828613571495
 31
0.0
  0
LINE
  5
D5FA
  8
0
 10
445.1892200014476089
 20
19.4865828613571495
 30
0.0
 11
445.2051565396474757
 21
19.4852765205571501
 31
0.0
  0
LINE
  5
D5FB
  8
0
 10
445.2051565396474757
 20
19.4852765205571501
 30
0.0
 11
445.260331018747479
 21
19.485792473257149
 31
0.0
  0
LINE
  5
D5FC
  8
0
 10
445.260331018747479
 20
19.4806052004571484
 30
0.0
 11
445.2386658610474797
 21
19.4788185161571512
 31
0.0
  0
LINE
  5
D5FD
  8
0
 10
445.2386658610474797
 20
19.4788185161571512
 30
0.0
 11
445.1892200014476089
 21
19.4798148123571515
 31
0.0
  0
LINE
  5
D5FE
  8
0
 10
445.1892200014476089
 20
19.4798148123571515
 30
0.0
 11
445.2051565396474757
 21
19.4811211531571509
 31
0.0
  0
LINE
  5
D5FF
  8
0
 10
445.2051565396474757
 20
19.4811211531571509
 30
0.0
 11
445.260331018747479
 21
19.4806052004571484
 31
0.0
  0
LINE
  5
D600
  8
0
 10
445.2347288531474874
 20
19.4785805330571513
 30
0.0
 11
445.1847933661784964
 21
19.4795541019423908
 31
0.0
  0
LINE
  5
D601
  8
0
 10
445.1847933661784964
 20
19.4795541019423908
 30
0.0
 11
445.16083462634748
 21
19.4784419953571515
 31
0.0
  0
LINE
  5
D602
  8
0
 10
445.16083462634748
 20
19.4784419953571515
 30
0.0
 11
445.2012251483474756
 21
19.4770323864571502
 31
0.0
  0
LINE
  5
D603
  8
0
 10
445.2012251483474756
 20
19.4770323864571502
 30
0.0
 11
445.2347288531474874
 21
19.4785805330571513
 31
0.0
  0
LINE
  5
D604
  8
0
 10
445.1257546369301963
 20
19.48077628005516
 30
0.0
 11
445.180167657047491
 21
19.4796798993571514
 31
0.0
  0
LINE
  5
D605
  8
0
 10
445.180167657047491
 20
19.4796798993571514
 30
0.0
 11
445.1142285449474798
 21
19.4773786575571499
 31
0.0
  0
LINE
  5
D606
  8
0
 10
445.1142285449474798
 20
19.4773786575571499
 30
0.0
 11
445.0827229806474747
 21
19.4792830965571504
 31
0.0
  0
LINE
  5
D607
  8
0
 10
445.1900896084833903
 20
19.4766437617351293
 30
0.0
 11
445.1416303321310011
 21
19.4783349661280916
 31
0.0
  0
LINE
  5
D608
  8
0
 10
445.1900896084475221
 20
19.4766437617571491
 30
0.0
 11
445.1457294662143909
 21
19.4754744992979809
 31
0.0
  0
LINE
  5
D609
  8
0
 10
445.1457294662143909
 20
19.4754744992979809
 30
0.0
 11
445.1142285449474798
 21
19.4773786575571499
 31
0.0
  0
LINE
  5
D60A
  8
0
 10
445.1452289264474871
 20
19.4833362364571485
 30
0.0
 11
445.0821829970474823
 21
19.4833362364571485
 31
0.0
  0
LINE
  5
D60B
  8
0
 10
445.1452289264474871
 20
19.4830614372571489
 30
0.0
 11
445.0821829970474823
 21
19.4830614372571489
 31
0.0
  0
ARC
  5
D60C
  8
0
 10
445.07346365056992
 20
19.444846370714739
 30
0.0
 40
0.0394651335721343
 50
77.2358695812747555
 51
88.0298109078414086
  0
ARC
  5
D60D
  8
0
 10
445.0402367234373173
 20
18.9006320925058198
 30
0.0
 40
0.5846797889785817
 50
86.6089841779437251
 51
88.9255876164229591
  0
LINE
  5
D60E
  8
0
 10
445.0512000159474724
 20
19.4852090864571501
 30
0.0
 11
445.0827229806474747
 21
19.4871145771571506
 31
0.0
  0
LINE
  5
D60F
  8
0
 10
445.0827229806474747
 20
19.4871145771571506
 30
0.0
 11
445.1140823223533971
 21
19.4861719524957309
 31
0.0
  0
ARC
  5
D610
  8
0
 10
445.0923286614631138
 20
18.9135187114421015
 30
0.0
 40
0.5730662756185885
 50
85.9593443240121786
 51
87.8245230244103112
  0
ARC
  5
D611
  8
0
 10
445.1202733264207154
 20
19.30911196572373
 30
0.0
 40
0.176487245496314
 50
83.8776454392379236
 51
85.9593443240121786
  0
ARC
  5
D612
  8
0
 10
445.1360061017635985
 20
19.4492549757041289
 30
0.0
 40
0.0354724605036714
 50
76.0379994404523956
 51
85.0027298675852165
  0
ARC
  5
D613
  8
0
 10
445.1442330161979726
 20
19.4822232619840889
 30
0.0
 40
0.0014935023946033
 50
48.17722888735765
 51
77.1630838688290623
  0
ARC
  5
D614
  8
0
 10
445.1396800564660907
 20
19.4965431634200392
 30
0.0
 40
0.0145789882502714
 50
274.3322550232329036
 51
292.3713079501474112
  0
ARC
  5
D615
  8
0
 10
445.1112559781972209
 20
19.7504066972142489
 30
0.0
 40
0.2700199491934653
 50
272.5908680070448895
 51
276.2775686751036801
  0
ARC
  5
D616
  8
0
 10
445.0629244959566222
 20
20.6967450138280391
 30
0.0
 40
1.2175881121218579
 50
271.4009289608130189
 51
272.8498703259373883
  0
LINE
  5
D617
  8
0
 10
445.0926925610049238
 20
19.4795208466822487
 30
0.0
 11
445.0827229806474747
 21
19.4792830965571504
 31
0.0
  0
LINE
  5
D618
  8
0
 10
445.0827229806474747
 20
19.4792830965571504
 30
0.0
 11
445.0512000159496893
 21
19.4811885872570194
 31
0.0
  0
ARC
  5
D619
  8
0
 10
445.0781639103685166
 20
19.4956779081733593
 30
0.0
 40
0.0132411629441265
 50
273.5102230466707738
 51
287.6697310907819087
  0
ARC
  5
D61A
  8
0
 10
445.0598637412538778
 20
19.6868868871282992
 30
0.0
 40
0.2053166555776702
 50
272.2284857572875012
 51
275.3408240743797251
  0
ARC
  5
D61B
  8
0
 10
445.0341893697626006
 20
20.2669511756709397
 30
0.0
 40
0.7859466950338551
 50
271.2401786902622121
 51
272.4544323094285119
  0
LINE
  5
D61C
  8
0
 10
445.0821829970474823
 20
19.4833362364571485
 30
0.0
 11
445.0821829970474823
 21
19.4870819363907195
 31
0.0
  0
LINE
  5
D61D
  8
0
 10
445.0821829970474823
 20
19.4830614372571489
 30
0.0
 11
445.0821829970474823
 21
19.4793157373235815
 31
0.0
  0
LINE
  5
D61E
  8
0
 10
445.2012251483474756
 20
19.4770323864571502
 30
0.0
 11
445.2012251483474756
 21
19.4792337391539299
 31
0.0
  0
LINE
  5
D61F
  8
0
 10
445.2386658610474797
 20
19.4788185161571512
 30
0.0
 11
445.2386658610474797
 21
19.4808077976867686
 31
0.0
  0
LINE
  5
D620
  8
0
 10
445.2051565396474757
 20
19.4852765205571501
 30
0.0
 11
445.2051565396474757
 21
19.4869039703959714
 31
0.0
  0
LINE
  5
D621
  8
0
 10
445.1852829935475029
 20
19.4868208444571493
 30
0.0
 11
445.1852829935475029
 21
19.488808914074081
 31
0.0
  0
LINE
  5
D622
  8
0
 10
445.1142285449474798
 20
19.4773786575571499
 30
0.0
 11
445.1142285449474798
 21
19.4802382504528317
 31
0.0
  0
LINE
  5
D623
  8
0
 10
445.1307149245474761
 20
19.4857213397236606
 30
0.0
 11
445.1307149245474761
 21
19.4884436498129894
 31
0.0
  0
LINE
  5
D624
  8
0
 10
445.2082400550474972
 20
19.4833362364571485
 30
0.0
 11
445.1511369582474913
 21
19.483336236632411
 31
0.0
  0
LINE
  5
D625
  8
0
 10
445.2082400550474972
 20
19.4830614372571489
 30
0.0
 11
445.1511369582474913
 21
19.4830614372571489
 31
0.0
  0
ARC
  5
D626
  8
0
 10
445.1472204674518025
 20
19.4757068174982706
 30
0.0
 40
0.0085759508978422
 50
62.8267276150358285
 51
86.387076052822195
  0
ARC
  5
D627
  8
0
 10
445.1246801077743953
 20
19.3069534313944402
 30
0.0
 40
0.1788081974248348
 50
82.5834977362990657
 51
86.8030546245408345
  0
LINE
  5
D628
  8
0
 10
445.1346519324624751
 20
19.4854833565574488
 30
0.0
 11
445.1841046649474833
 21
19.4864797912571497
 31
0.0
  0
ARC
  5
D629
  8
0
 10
445.1606015201002151
 20
19.0995829800561197
 30
0.0
 40
0.3876100364222317
 50
84.6591147031958968
 51
86.5236772868082653
  0
ARC
  5
D62A
  8
0
 10
445.1866813973106787
 20
19.3785510337304991
 30
0.0
 40
0.1074255704606268
 50
79.5194361912372329
 51
84.6591147031958968
  0
ARC
  5
D62B
  8
0
 10
445.2052892630351266
 20
19.4791405137355618
 30
0.0
 40
0.0051294505219753
 50
54.8818259074331323
 51
79.519436191233936
  0
ARC
  5
D62C
  8
0
 10
445.2060627230652017
 20
19.4856326963120203
 30
0.0
 40
0.0033692948354572
 50
278.9377442931790938
 51
310.2577940804478089
  0
ARC
  5
D62D
  8
0
 10
445.193778872650114
 20
19.5401626014860703
 30
0.0
 40
0.0592588285500488
 50
275.566354777245806
 51
282.4815307329017742
  0
ARC
  5
D62E
  8
0
 10
445.1638199023922198
 20
19.8217744034152794
 30
0.0
 40
0.3424578112899726
 50
273.3957817316933188
 51
275.9849263653848084
  0
LINE
  5
D62F
  8
0
 10
445.1841046649474833
 20
19.4799178824571513
 30
0.0
 11
445.1346519324475253
 21
19.4809143171571506
 31
0.0
  0
ARC
  5
D630
  8
0
 10
445.1212998645145831
 20
19.7044086381276706
 30
0.0
 40
0.223892807442959
 50
273.4189187888226229
 51
276.0961300992184988
  0
ARC
  5
D631
  8
0
 10
445.1400675454867724
 20
19.5286826984986703
 30
0.0
 40
0.0471675073086321
 50
276.0961300992184988
 51
282.2827228652997746
  0
ARC
  5
D632
  8
0
 10
445.1495198286370965
 20
19.4852677202563207
 30
0.0
 40
0.0027354694019841
 50
282.2827228652997746
 51
306.2401351768924087
  0
LINE
  5
D633
  8
0
 10
445.1511369582474913
 20
19.4833362364571485
 30
0.0
 11
445.1511369582474913
 21
19.4858155172064684
 31
0.0
  0
LINE
  5
D634
  8
0
 10
445.1511369582474913
 20
19.4830614372571489
 30
0.0
 11
445.1511369582474913
 21
19.4805821565078396
 31
0.0
  0
LINE
  5
D635
  8
0
 10
445.1841046649474833
 20
19.4799178824571513
 30
0.0
 11
445.1841046649474833
 21
19.4830614372571489
 31
0.0
  0
LINE
  5
D636
  8
0
 10
445.1457294662143909
 20
19.4754744992979809
 30
0.0
 11
445.1457294662143909
 21
19.4781919084084691
 31
0.0
  0
LINE
  5
D637
  8
0
 10
445.1389103680683093
 20
19.4753370996861186
 30
0.0
 11
445.1074094472475053
 21
19.4772412579571501
 31
0.0
  0
LINE
  5
D638
  8
0
 10
445.1074094472475053
 20
19.4772412579571501
 30
0.0
 11
445.0729312807474116
 21
19.4765065581571513
 31
0.0
  0
LINE
  5
D639
  8
0
 10
445.0729312807474116
 20
19.4765065581571513
 30
0.0
 11
445.0877152378474761
 21
19.474580996557151
 31
0.0
  0
LINE
  5
D63A
  8
0
 10
445.0877152378474761
 20
19.474580996557151
 30
0.0
 11
445.1389103680683093
 21
19.4753370996861186
 31
0.0
  0
LINE
  5
D63B
  8
0
 10
445.1074094472475053
 20
19.4772412579571501
 30
0.0
 11
445.0759038829963856
 21
19.4791456968345216
 31
0.0
  0
LINE
  5
D63C
  8
0
 10
445.0759038829963856
 20
19.4791456968345216
 30
0.0
 11
445.0133979371505006
 21
19.4785959503985602
 31
0.0
  0
LINE
  5
D63D
  8
0
 10
445.0173349450474802
 20
19.478630576801379
 30
0.0
 11
445.0173349450474802
 21
19.4763989449571504
 31
0.0
  0
LINE
  5
D63E
  8
0
 10
445.0173349450474802
 20
19.4763989449571504
 30
0.0
 11
445.0892918315561815
 21
19.476855187293431
 31
0.0
  0
LINE
  5
D63F
  8
0
 10
445.0555915863391192
 20
19.4766415110303583
 30
0.0
 11
445.0725038075474913
 21
19.4744387500571499
 31
0.0
  0
LINE
  5
D640
  8
0
 10
445.0725038075474913
 20
19.4744387500571499
 30
0.0
 11
445.0173349450009255
 21
19.4742002123816995
 31
0.0
  0
LINE
  5
D641
  8
0
 10
445.0173349450009255
 20
19.4742002123816995
 30
0.0
 11
445.0173328716476249
 21
19.4763989318107704
 31
0.0
  0
LINE
  5
D642
  8
0
 10
445.0759038829963856
 20
19.4791456968345216
 30
0.0
 11
445.0443809182474979
 21
19.481051187657151
 31
0.0
  0
LINE
  5
D643
  8
0
 10
445.0443809182474979
 20
19.481051187657151
 30
0.0
 11
445.0133979371474879
 21
19.4807914480647391
 31
0.0
  0
LINE
  5
D644
  8
0
 10
445.0877152378474761
 20
19.474580996557151
 30
0.0
 11
445.0877152378474761
 21
19.4768215914500189
 31
0.0
  0
LINE
  5
D645
  8
0
 10
445.0414228753119801
 20
19.4812299945391914
 30
0.0
 11
445.0236265836475127
 21
19.4823057394571499
 31
0.0
  0
LINE
  5
D646
  8
0
 10
445.0236265836475127
 20
19.4823057394571499
 30
0.0
 11
445.0133979371474879
 21
19.4822316349271887
 31
0.0
  0
LINE
  5
D647
  8
0
 10
445.0133979371474879
 20
19.4809977990367109
 30
0.0
 11
445.0414228753119801
 21
19.4812299945391914
 31
0.0
  0
LINE
  5
D648
  8
0
 10
445.076266911247501
 20
19.4833362364571485
 30
0.0
 11
445.0406743277475243
 21
19.4833362364571485
 31
0.0
  0
LINE
  5
D649
  8
0
 10
445.076266911247501
 20
19.4830614372571489
 30
0.0
 11
445.0406743277475243
 21
19.4830614372571489
 31
0.0
  0
ARC
  5
D64A
  8
0
 10
445.0292301031005877
 20
19.3789283998511905
 30
0.0
 40
0.1050331691538956
 50
83.744736363453967
 51
89.3368851676671767
  0
ARC
  5
D64B
  8
0
 10
445.0289157613343036
 20
19.5926695005571894
 30
0.0
 40
0.1102369784803525
 50
270.7952029297385934
 51
276.1231755394322249
  0
ARC
  5
D64C
  8
0
 10
445.0697277769402262
 20
19.4566375696571683
 30
0.0
 40
0.0274877988639632
 50
76.2378274537207261
 51
87.7740803201708246
  0
ARC
  5
D64D
  8
0
 10
445.0392013949074226
 20
18.9895385223229383
 30
0.0
 40
0.4955742260652377
 50
86.3447825403550269
 51
88.9547162073691453
  0
LINE
  5
D64E
  8
0
 10
445.0482419730474817
 20
19.4850302795571508
 30
0.0
 11
445.0304456812474996
 21
19.4839545346571512
 31
0.0
  0
ARC
  5
D64F
  8
0
 10
445.0708501835961215
 20
19.5038221860588301
 30
0.0
 40
0.0214557598153779
 50
273.4627361612646155
 51
284.6231482116343159
  0
ARC
  5
D650
  8
0
 10
445.0509108658990272
 20
19.7503413183709391
 30
0.0
 40
0.2687759014850447
 50
271.9063224207591247
 51
274.5315019635646081
  0
ARC
  5
D651
  8
0
 10
445.0303023634695023
 20
20.2764922909283101
 30
0.0
 40
0.7953272477773826
 50
271.2924882154396187
 51
272.1292480250153858
  0
LINE
  5
D652
  8
0
 10
445.0482419730474817
 20
19.4813673941571501
 30
0.0
 11
445.0304456812480112
 21
19.4824431390571213
 31
0.0
  0
LINE
  5
D653
  8
0
 10
445.0482419730474817
 20
19.4813673941571501
 30
0.0
 11
445.0482419730474817
 21
19.4830614372571489
 31
0.0
  0
LINE
  5
D654
  8
0
 10
445.0406743277475243
 20
19.4833362364571805
 30
0.0
 11
445.0406743277475243
 21
19.4845728328076788
 31
0.0
  0
LINE
  5
D655
  8
0
 10
445.2712418976474851
 20
19.4833362364571485
 30
0.0
 11
445.2141467368475105
 21
19.4833362364571485
 31
0.0
  0
LINE
  5
D656
  8
0
 10
445.2712418976474851
 20
19.4830614372571489
 30
0.0
 11
445.2141467368475105
 21
19.4830614372571489
 31
0.0
  0
ARC
  5
D657
  8
0
 10
445.2083012863719773
 20
19.472226710641479
 30
0.0
 40
0.0125535196304151
 50
62.2481977541060232
 51
85.7462411923411025
  0
ARC
  5
D658
  8
0
 10
445.2081915613831029
 20
19.4945535495037987
 30
0.0
 40
0.0129434446227172
 50
274.6125161393006806
 51
297.39304495653289
  0
LINE
  5
D659
  8
0
 10
445.2092324300541009
 20
19.4847456493572118
 30
0.0
 11
445.2644069092476116
 21
19.4852616019571485
 31
0.0
  0
LINE
  5
D65A
  8
0
 10
445.209232430047507
 20
19.4816520243571496
 30
0.0
 11
445.2644069092476116
 21
19.4811360717571489
 31
0.0
  0
ARC
  5
D65B
  8
0
 10
445.2670643720794033
 20
19.4775872491393685
 30
0.0
 40
0.0071065163795152
 50
53.9958138417732698
 51
82.8060550047399886
  0
ARC
  5
D65C
  8
0
 10
445.2562302054004135
 20
19.4283622873233988
 30
0.0
 40
0.0574838280875117
 50
78.23167749297032
 51
81.8223082431334774
  0
ARC
  5
D65D
  8
0
 10
445.2679721567939737
 20
19.4868958993209489
 30
0.0
 40
0.0050392761948468
 50
276.1490264304139259
 51
310.4550498580978228
  0
ARC
  5
D65E
  8
0
 10
445.257138679996217
 20
19.5325577717964016
 30
0.0
 40
0.0519328257595897
 50
278.0452095666927903
 51
282.6502702933638034
  0
LINE
  5
D65F
  8
0
 10
445.2141467368475105
 20
19.4833362364571698
 30
0.0
 11
445.2141467368475105
 21
19.4847916044691409
 31
0.0
  0
LINE
  5
D660
  8
0
 10
445.2644069092476116
 20
19.4811360717571489
 30
0.0
 11
445.2644069092476116
 21
19.4830614372571489
 31
0.0
  0
ARC
  5
D661
  8
0
 10
444.7541972788228009
 20
-21.8475885120396391
 30
0.0
 40
41.3414239902776899
 50
89.4765437402778332
 51
89.6407670651753534
  0
ARC
  5
D662
  8
0
 10
445.0601033819618806
 20
14.8982244432399806
 30
0.0
 40
4.5944465565678589
 50
88.0941164337176446
 51
89.1047529215576333
  0
ARC
  5
D663
  8
0
 10
445.1522962696644186
 20
17.6687583095723006
 30
0.0
 40
1.8223791993347691
 50
86.7856423559263277
 51
88.0941164337176446
  0
ARC
  5
D664
  8
0
 10
445.2173328364442
 20
18.8268157052161484
 30
0.0
 40
0.6624970128072241
 50
84.4810544566421981
 51
86.7856423559263277
  0
ARC
  5
D665
  8
0
 10
445.270582673170793
 20
19.3779262511007495
 30
0.0
 40
0.108819869612176
 50
78.8705354172006281
 51
84.4810544566421981
  0
ARC
  5
D666
  8
0
 10
445.2893728514418967
 20
19.4734405674963007
 30
0.0
 40
0.0114748366830728
 50
63.1268691690249995
 51
78.8705354172006281
  0
ARC
  5
D667
  8
0
 10
445.2942733543558802
 20
19.4831112237220587
 30
0.0
 40
0.0006334105477971
 50
16.9087984736032695
 51
63.1268691690288293
  0
ARC
  5
D668
  8
0
 10
445.2944178147355956
 20
19.4832092044015717
 30
0.0
 40
0.0004695557984487
 50
327.6995671263055101
 51
10.5839613364385201
  0
ARC
  5
D669
  8
0
 10
445.290714928704972
 20
19.4892172034933999
 30
0.0
 40
0.0075258807917718
 50
280.7582856128299795
 51
301.90052367941189
  0
ARC
  5
D66A
  8
0
 10
445.2575167058532202
 20
19.6747448315548006
 30
0.0
 40
0.1959999282294478
 50
273.3314782640885028
 51
280.1686520983622017
  0
ARC
  5
D66B
  8
0
 10
445.1566040839081211
 20
21.1454956663862887
 30
0.0
 40
1.670199372246395
 50
271.6209951221222241
 51
273.8554243501624228
  0
ARC
  5
D66C
  8
0
 10
445.0358338744944717
 20
25.1304260837252293
 30
0.0
 40
5.6569570768787036
 50
270.317952962132722
 51
271.701986234633921
  0
ARC
  5
D66D
  8
0
 10
445.0745543218927196
 20
9.3093436299255643
 30
0.0
 40
10.1642151215730703
 50
90.0413097539175169
 51
90.344741215800795
  0
ARC
  5
D66E
  8
0
 10
444.8509745243356974
 20
-8.1392563785168051
 30
0.0
 40
27.7772667078623492
 50
89.117267609757306
 51
89.6649695890194351
  0
ARC
  5
D66F
  8
0
 10
445.1538378498167958
 20
14.0701376384829295
 30
0.0
 40
5.5659815340740151
 50
87.6429834583550047
 51
88.7124039342735813
  0
ARC
  5
D670
  8
0
 10
445.2993447313360207
 20
17.6052111656942003
 30
0.0
 40
2.0279146755537569
 50
85.5903907025308968
 51
87.6429834583550047
  0
ARC
  5
D671
  8
0
 10
445.4302711758223268
 20
19.30302958037311
 30
0.0
 40
0.3250555788905619
 50
81.1711053696214151
 51
85.5903907025308968
  0
ARC
  5
D672
  8
0
 10
445.4718176828827723
 20
19.5705113821953987
 30
0.0
 40
0.0543664092604603
 50
74.419483106802943
 51
81.1711053696213867
  0
ARC
  5
D673
  8
0
 10
445.4829290182441923
 20
19.6103600236342217
 30
0.0
 40
0.0129976287849355
 50
61.8487631171536165
 51
74.4194831068030425
  0
ARC
  5
D674
  8
0
 10
445.4885131816614035
 20
19.6207957610965806
 30
0.0
 40
0.0011617723540195
 50
345.9597217590043101
 51
61.8487631171576098
  0
ARC
  5
D675
  8
0
 10
445.4842006271109085
 20
19.62731578930822
 30
0.0
 40
0.0087094784225665
 50
279.6430539855621191
 51
308.6501323773060221
  0
ARC
  5
D676
  8
0
 10
445.3995573789110836
 20
20.2077515383830004
 30
0.0
 40
0.5952820307550618
 50
274.9160895255283776
 51
278.3164890356530918
  0
ARC
  5
D677
  8
0
 10
445.3095585806071881
 20
21.4130684128733293
 30
0.0
 40
1.80392891884316
 50
272.1784495542161153
 51
274.4833654271658929
  0
LINE
  5
D678
  8
0
 10
453.918909748147712
 20
16.7593438798571306
 30
0.0
 11
453.918909748147712
 21
17.0506824192571216
 31
0.0
  0
LINE
  5
D679
  8
0
 10
451.9031617166476167
 20
15.6333596279571498
 30
0.0
 11
451.9031617166476167
 21
15.7593438798571306
 31
0.0
  0
LINE
  5
D67A
  8
0
 10
451.371665653647824
 20
15.8223360058571707
 30
0.0
 11
451.371665653647824
 21
16.6845407302571616
 31
0.0
  0
LINE
  5
D67B
  8
0
 10
451.3039097481474755
 20
16.7278478168571709
 30
0.0
 11
451.3039097481474755
 21
16.7160367932571212
 31
0.0
  0
LINE
  5
D67C
  8
0
 10
450.5339097481474937
 20
16.7278478168571709
 30
0.0
 11
450.5339097481474937
 21
16.7160367932571212
 31
0.0
  0
LINE
  5
D67D
  8
0
 10
450.4661538426478273
 20
15.8223360058571707
 30
0.0
 11
450.4661538426478273
 21
16.6845407302571616
 31
0.0
  0
LINE
  5
D67E
  8
0
 10
450.4661538426478273
 20
16.7593438798571306
 30
0.0
 11
450.4661538426478273
 21
17.0506824192571216
 31
0.0
  0
LINE
  5
D67F
  8
0
 10
449.9346577796474094
 20
15.6333596279571498
 30
0.0
 11
449.9346577796474094
 21
15.7593438798571306
 31
0.0
  0
LINE
  5
D680
  8
0
 10
451.9031617166476167
 20
15.6333596279571498
 30
0.0
 11
449.9346577796474094
 21
15.6333596279571498
 31
0.0
  0
LINE
  5
D681
  8
0
 10
451.871665653647824
 20
15.7908399428571506
 30
0.0
 11
449.9661538426478273
 21
15.7908399428571506
 31
0.0
  0
LINE
  5
D682
  8
0
 10
451.340169590647406
 20
16.7160367932571212
 30
0.0
 11
450.49764990564762
 21
16.7160367932571212
 31
0.0
  0
LINE
  5
D683
  8
0
 10
453.8874136851474077
 20
16.7278478168571709
 30
0.0
 11
450.49764990564762
 21
16.7278478168571709
 31
0.0
  0
LINE
  5
D684
  8
0
 10
450.49764990564762
 20
17.0821784822571416
 30
0.0
 11
453.8874136851474077
 21
17.0821784822571416
 31
0.0
  0
ARC
  5
D685
  8
0
 10
453.8874136851474077
 20
16.7593438798571306
 30
0.0
 40
0.031496063
 50
270.0
 51
0.0
  0
ARC
  5
D686
  8
0
 10
453.8874136851474077
 20
17.0506824192571216
 30
0.0
 40
0.031496063
 50
0.0
 51
90.0
  0
ARC
  5
D687
  8
0
 10
450.49764990564762
 20
16.7593438798571306
 30
0.0
 40
0.031496063
 50
180.0
 51
270.0
  0
ARC
  5
D688
  8
0
 10
450.49764990564762
 20
17.0506824192571216
 30
0.0
 40
0.031496063
 50
90.0
 51
180.0
  0
ARC
  5
D689
  8
0
 10
450.49764990564762
 20
16.6845407302571616
 30
0.0
 40
0.031496063
 50
90.0
 51
180.0
  0
ARC
  5
D68A
  8
0
 10
451.340169590647406
 20
16.6845407302571616
 30
0.0
 40
0.031496063
 50
0.0
 51
90.0
  0
ARC
  5
D68B
  8
0
 10
451.4031617166476167
 20
15.8223360058571707
 30
0.0
 40
0.031496063
 50
180.0
 51
270.0
  0
ARC
  5
D68C
  8
0
 10
450.4346577796474094
 20
15.8223360058571707
 30
0.0
 40
0.031496063
 50
270.0
 51
0.0
  0
ARC
  5
D68D
  8
0
 10
449.9661538426478273
 20
15.7593438798571306
 30
0.0
 40
0.031496063
 50
90.0
 51
180.0
  0
ARC
  5
D68E
  8
0
 10
451.871665653647824
 20
15.7593438798571306
 30
0.0
 40
0.031496063
 50
0.0
 51
90.0
  0
ENDSEC
  0
EOF
