  0
SECTION
  2
HEADER
  9
$ACADVER
  1
AC1009
  9
$INSBASE
 10
4098.9887687466280113
 20
133.1575533428259064
 30
0.0
  9
$EXTMIN
 10
4092.2692548122267908
 20
133.1474826168559957
 30
-0.0000000000000058
  9
$EXTMAX
 10
4100.6936659851608056
 20
137.7284368062572071
 30
0.0000000000000104
  9
$LIMMIN
 10
0.0
 20
0.0
  9
$LIMMAX
 10
11.6929133858000007
 20
8.2677165353999982
  9
$ORTHOMODE
 70
     0
  9
$REGENMODE
 70
     1
  9
$FILLMODE
 70
     1
  9
$QTEXTMODE
 70
     0
  9
$MIRRTEXT
 70
     0
  9
$DRAGMODE
 70
     2
  9
$LTSCALE
 40
0.6431102362
  9
$OSMODE
 70
  4095
  9
$ATTMODE
 70
     1
  9
$TEXTSIZE
 40
0.2
  9
$TRACEWID
 40
0.05
  9
$TEXTSTYLE
  7
STANDARD
  9
$CLAYER
  8
0
  9
$CELTYPE
  6
BYLAYER
  9
$CECOLOR
 62
   256
  9
$DIMSCALE
 40
1.0
  9
$DIMASZ
 40
0.1875
  9
$DIMEXO
 40
0.0625
  9
$DIMDLI
 40
0.4443307087
  9
$DIMRND
 40
0.0
  9
$DIMDLE
 40
0.0
  9
$DIMEXE
 40
0.125
  9
$DIMTP
 40
0.01
  9
$DIMTM
 40
0.01
  9
$DIMTXT
 40
2.0
  9
$DIMCEN
 40
0.1052362205
  9
$DIMTSZ
 40
0.0
  9
$DIMTOL
 70
     1
  9
$DIMLIM
 70
     0
  9
$DIMTIH
 70
     1
  9
$DIMTOH
 70
     1
  9
$DIMSE1
 70
     0
  9
$DIMSE2
 70
     0
  9
$DIMTAD
 70
     0
  9
$DIMZIN
 70
     0
  9
$DIMBLK
  1

  9
$DIMASO
 70
     1
  9
$DIMSHO
 70
     1
  9
$DIMPOST
  1
\X
  9
$DIMAPOST
  1

  9
$DIMALT
 70
     1
  9
$DIMALTD
 70
     2
  9
$DIMALTF
 40
25.3999999999999986
  9
$DIMLFAC
 40
1.0
  9
$DIMTOFL
 70
     0
  9
$DIMTVP
 40
0.0
  9
$DIMTIX
 70
     0
  9
$DIMSOXD
 70
     0
  9
$DIMSAH
 70
     0
  9
$DIMBLK1
  1

  9
$DIMBLK2
  1

  9
$DIMSTYLE
  2
STANDARD
  9
$DIMCLRD
 70
     0
  9
$DIMCLRE
 70
     0
  9
$DIMCLRT
 70
     0
  9
$DIMTFAC
 40
1.0
  9
$DIMGAP
 40
0.09
  9
$LUNITS
 70
     2
  9
$LUPREC
 70
     4
  9
$SKETCHINC
 40
0.1
  9
$FILLETRAD
 40
0.0
  9
$AUNITS
 70
     0
  9
$AUPREC
 70
     0
  9
$MENU
  1
.
  9
$ELEVATION
 40
0.0
  9
$PELEVATION
 40
0.0
  9
$THICKNESS
 40
0.0
  9
$LIMCHECK
 70
     0
  9
$BLIPMODE
 70
     0
  9
$CHAMFERA
 40
0.0
  9
$CHAMFERB
 40
0.0
  9
$SKPOLY
 70
     0
  9
$TDCREATE
 40
2458060.468368056230247
  9
$TDUPDATE
 40
2460096.8197453701868653
  9
$TDINDWG
 40
0.3047408565
  9
$TDUSRTIMER
 40
0.3047408565
  9
$USRTIMER
 70
     1
  9
$ANGBASE
 50
0.0
  9
$ANGDIR
 70
     0
  9
$PDMODE
 70
     0
  9
$PDSIZE
 40
0.3125
  9
$PLINEWID
 40
0.0
  9
$COORDS
 70
     1
  9
$SPLFRAME
 70
     0
  9
$SPLINETYPE
 70
     6
  9
$SPLINESEGS
 70
     8
  9
$ATTDIA
 70
     1
  9
$ATTREQ
 70
     1
  9
$HANDLING
 70
     1
  9
$HANDSEED
  5
6ED1
  9
$SURFTAB1
 70
     6
  9
$SURFTAB2
 70
     6
  9
$SURFTYPE
 70
     6
  9
$SURFU
 70
     6
  9
$SURFV
 70
     6
  9
$UCSNAME
  2

  9
$UCSORG
 10
0.0
 20
0.0
 30
0.0
  9
$UCSXDIR
 10
1.0
 20
0.0
 30
0.0
  9
$UCSYDIR
 10
0.0
 20
1.0
 30
0.0
  9
$PUCSNAME
  2

  9
$PUCSORG
 10
0.0
 20
0.0
 30
0.0
  9
$PUCSXDIR
 10
1.0
 20
0.0
 30
0.0
  9
$PUCSYDIR
 10
0.0
 20
1.0
 30
0.0
  9
$USERI1
 70
     0
  9
$USERI2
 70
     0
  9
$USERI3
 70
     0
  9
$USERI4
 70
     0
  9
$USERI5
 70
     0
  9
$USERR1
 40
0.0
  9
$USERR2
 40
0.0
  9
$USERR3
 40
0.0
  9
$USERR4
 40
0.0
  9
$USERR5
 40
0.0
  9
$WORLDVIEW
 70
     1
  9
$SHADEDGE
 70
     3
  9
$SHADEDIF
 70
    70
  9
$TILEMODE
 70
     1
  9
$MAXACTVP
 70
    64
  9
$PLIMCHECK
 70
     0
  9
$PEXTMIN
 10
1.0000000000000000E+20
 20
1.0000000000000000E+20
 30
1.0000000000000000E+20
  9
$PEXTMAX
 10
-1.0000000000000000E+20
 20
-1.0000000000000000E+20
 30
-1.0000000000000000E+20
  9
$PLIMMIN
 10
0.0
 20
0.0
  9
$PLIMMAX
 10
12.0
 20
9.0
  9
$UNITMODE
 70
     0
  9
$VISRETAIN
 70
     1
  9
$PLINEGEN
 70
     0
  9
$PSLTSCALE
 70
     1
  0
ENDSEC
  0
SECTION
  2
TABLES
  0
TABLE
  2
VPORT
 70
     1
  0
VPORT
  2
*ACTIVE
 70
     0
 10
0.0
 20
0.0
 11
1.0
 21
1.0
 12
54.23573285963176
 22
-0.1541509815988888
 13
0.0
 23
0.0
 14
1.0
 24
1.0
 15
0.0
 25
0.0
 16
0.0
 26
0.0
 36
53.2874995227186403
 17
4042.2457275390629547
 27
135.5921106931554903
 37
0.0
 40
5.3625118493593069
 41
1.577702702702702
 42
50.0
 43
0.0
 44
0.0
 50
0.0
 51
0.0
 71
     0
 72
   100
 73
     1
 74
     1
 75
     0
 76
     0
 77
     0
 78
     0
  0
ENDTAB
  0
TABLE
  2
LTYPE
 70
     2
  0
LTYPE
  2
CONTINUOUS
 70
     0
  3
Solid line
 72
    65
 73
     0
 40
0.0
  0
LTYPE
  2
PHANTOM2
 70
     0
  3
___ _ _ ___ _ _ ___ _ _ ___ _ _
 72
    65
 73
     6
 40
1.25
 49
0.625
 49
-0.125
 49
0.125
 49
-0.125
 49
0.125
 49
-0.125
  0
ENDTAB
  0
TABLE
  2
LAYER
 70
     2
  0
LAYER
  2
0
 70
     0
 62
   255
  6
CONTINUOUS
  0
LAYER
  2
DEFPOINTS
 70
     0
 62
     7
  6
CONTINUOUS
  0
ENDTAB
  0
TABLE
  2
STYLE
 70
     1
  0
STYLE
  2
STANDARD
 70
     0
 40
0.0
 41
0.8
 50
0.0
 71
     0
 42
0.2
  3
txt
  4

  0
ENDTAB
  0
TABLE
  2
VIEW
 70
     0
  0
ENDTAB
  0
TABLE
  2
UCS
 70
     0
  0
ENDTAB
  0
TABLE
  2
APPID
 70
     9
  0
APPID
  2
ACAD
 70
     0
  0
APPID
  2
ACAD_MLEADERVER
 70
     0
  0
APPID
  2
ACAD_EXEMPT_FROM_CAD_STANDARDS
 70
     0
  0
APPID
  2
ACAD_NAV_VCDISPLAY
 70
     0
  0
APPID
  2
ACAECLAYERSTANDARD
 70
     0
  0
APPID
  2
ACCMTRANSPARENCY
 70
     0
  0
APPID
  2
ACAD_DSTYLE_DIMJAG
 70
     0
  0
APPID
  2
ACAD_DSTYLE_DIMTALN
 70
     0
  0
APPID
  2
ACDBATTR
 70
     0
  0
ENDTAB
  0
TABLE
  2
DIMSTYLE
 70
     1
  0
DIMSTYLE
  2
STANDARD
 70
     0
  3

  4

  5

  6

  7

 40
1.0
 41
0.1875
 42
0.0625
 43
0.38
 44
0.125
 45
0.0
 46
0.0
 47
0.01
 48
0.01
140
0.15625
141
0.09
142
0.0
143
25.3999999999999986
144
1.0
145
0.0
146
1.0
147
0.09
 71
     1
 72
     0
 73
     1
 74
     1
 75
     0
 76
     0
 77
     0
 78
     4
170
     0
171
     2
172
     0
173
     0
174
     0
175
     0
176
     0
177
     0
178
     0
  0
ENDTAB
  0
ENDSEC
  0
SECTION
  2
BLOCKS
  0
BLOCK
  8
0
  2
$MODEL_SPACE
 70
     0
 10
0.0
 20
0.0
 30
0.0
  3
$MODEL_SPACE
  1

  0
ENDBLK
  5
21
  8
0
  0
BLOCK
 67
     1
  8
0
  2
$PAPER_SPACE
 70
     0
 10
0.0
 20
0.0
 30
0.0
  3
$PAPER_SPACE
  1

  0
ENDBLK
  5
1D
 67
     1
  8
0
  0
ENDSEC
  0
SECTION
  2
ENTITIES
  0
ATTDEF
  5
3930
  8
DEFPOINTS
 10
4098.986785207527646
 20
133.1623090945867034
 30
0.0
 40
0.001
  1
K-73060T-B9ACH
  3

  2
MODELNUMBER
 70
     0
1001
ACDBATTR
1070
     0
1070
     1
  0
ATTDEF
  5
3931
  8
DEFPOINTS
 10
4098.986785207527646
 20
133.1606424279200098
 30
0.0
 40
0.001
  1
COMPOSED
  3

  2
TRADENAME
 70
     0
1001
ACDBATTR
1070
     0
1070
     1
  0
ATTDEF
  5
3932
  8
DEFPOINTS
 10
4098.986785207527646
 20
133.1589757612534015
 30
0.0
 40
0.001
  1
BATHROOM SINK FAUCET
  3

  2
PRODUCT
 70
     0
1001
ACDBATTR
1070
     0
1070
     1
  0
LINE
  5
6D76
  8
0
 10
4092.3600508428780813
 20
137.2000760930260128
 30
0.0
 11
4092.3770883924780719
 21
137.6879676778260091
 31
0.0
  0
LINE
  5
6D77
  8
0
 10
4100.6078943359279947
 20
135.1192576787258872
 30
0.0
 11
4100.1551384304284511
 21
135.1192576787258872
 31
0.0
  0
LINE
  5
6D78
  8
0
 10
4100.6078943359279947
 20
135.3357931117259056
 30
0.0
 11
4100.1551384304284511
 21
135.3357931117259056
 31
0.0
  0
LINE
  5
6D79
  8
0
 10
4092.3904285225239619
 20
137.1675000197753889
 30
0.0
 11
4099.6474042275267493
 21
136.9140808441258912
 31
0.0
  0
LINE
  5
6D7A
  8
0
 10
4098.2997923686780268
 20
136.9285276802260114
 30
0.0
 11
4098.2997923686780268
 21
135.4803879884260027
 31
0.0
  0
LINE
  5
6D7B
  8
0
 10
4092.4096644656769968
 20
137.7183453575260046
 30
0.0
 11
4099.6465168607583109
 21
137.465627825841608
 31
0.0
  0
LINE
  5
6D7C
  8
0
 10
4099.6773986958769456
 20
136.9456776911258942
 30
0.0
 11
4099.6769113340778858
 21
137.4341776569260105
 31
0.0
  0
LINE
  5
6D7D
  8
0
 10
4099.6777451245779957
 20
136.8826035970259056
 30
0.0
 11
4099.6777451245779957
 21
135.4803879884260027
 31
0.0
  0
LINE
  5
6D7E
  8
0
 10
4100.6275793753284233
 20
135.1389427180259872
 30
0.0
 11
4100.6275793753284233
 21
135.3161080724260046
 31
0.0
  0
ARC
  5
6D7F
  8
0
 10
4100.1556048901293252
 20
134.8335055450388893
 30
0.0
 40
0.5022877832806538
 50
90.0532088913050757
 51
116.2243173802790039
  0
ARC
  5
6D80
  8
0
 10
4100.1551384304284511
 20
134.8338246078259033
 30
0.0
 40
0.2854330709
 50
90.0
 51
140.8931526552518108
  0
ARC
  5
6D81
  8
0
 10
4099.6454187862964318
 20
137.4341544189989861
 30
0.0
 40
0.0314925563554767
 50
0.0422777764541548
 51
88.0018202775802934
  0
ARC
  5
6D82
  8
0
 10
4099.6457317565145786
 20
136.945825737901913
 30
0.0
 40
0.0316672854292943
 50
268.1426747312747239
 51
359.7321372445372845
  0
ARC
  5
6D83
  8
0
 10
4092.3915277194691953
 20
137.198976896359909
 30
0.0
 40
0.0314960630894728
 50
178.0000000674195064
 51
267.9999997437445813
  0
ARC
  5
6D84
  8
0
 10
4092.408565268878192
 20
137.6868684811259129
 30
0.0
 40
0.031496063
 50
87.9999999999963336
 51
177.9999999999992895
  0
ARC
  5
6D85
  8
0
 10
4098.3312198625153542
 20
136.9285962896973956
 30
0.0
 40
0.0314275687276539
 50
88.0007553137941159
 51
180.1250824173907006
  0
ARC
  5
6D86
  8
0
 10
4099.646280949946231
 20
136.8826367090750011
 30
0.0
 40
0.0314641920542308
 50
359.9397034886673055
 51
87.9540951399637976
  0
ARC
  5
6D87
  8
0
 10
4100.6078943359279947
 20
135.3161080724260046
 30
0.0
 40
0.0196850394
 50
0.0
 51
90.0
  0
ARC
  5
6D88
  8
0
 10
4100.6078943359279947
 20
135.1389427180259872
 30
0.0
 40
0.0196850394
 50
270.0
 51
0.0
  0
LINE
  5
6D89
  8
0
 10
4097.9848317387768475
 20
133.1575533428259064
 30
0.0
 11
4099.9927057544782656
 21
133.1575533428259064
 31
0.0
  0
LINE
  5
6D8A
  8
0
 10
4099.9730207151778814
 20
133.315033657825893
 30
0.0
 11
4099.9139655970284366
 21
133.315033657825893
 31
0.0
  0
LINE
  5
6D8B
  8
0
 10
4098.0635718962266765
 20
133.315033657825893
 30
0.0
 11
4098.0045167780781412
 21
133.315033657825893
 31
0.0
  0
LINE
  5
6D8C
  8
0
 10
4097.9848317387768475
 20
133.1575533428259064
 30
0.0
 11
4097.9848317387768475
 21
133.2953486184260044
 31
0.0
  0
ARC
  5
6D8D
  8
0
 10
4098.0045167780781412
 20
133.2953486184260044
 30
0.0
 40
0.0196850394
 50
90.0
 51
180.0
  0
LINE
  5
6D8E
  8
0
 10
4099.9927057544782656
 20
133.1575533428259064
 30
0.0
 11
4099.9927057544782656
 21
133.2953486184260044
 31
0.0
  0
ARC
  5
6D8F
  8
0
 10
4099.9730207151778814
 20
133.2953486184260044
 30
0.0
 40
0.0196850394
 50
0.0
 51
90.0
  0
LINE
  5
6D91
  8
0
 10
4098.0438868568271573
 20
133.6103092483259047
 30
0.0
 11
4098.0438868568271573
 21
135.4607029491259027
 31
0.0
  0
LINE
  5
6D92
  8
0
 10
4098.0481065291278355
 20
135.4295213470259114
 30
0.0
 11
4098.0481065291278355
 21
133.6414908503259085
 31
0.0
  0
LINE
  5
6D93
  8
0
 10
4098.0635718962266765
 20
133.1575533428259064
 30
0.0
 11
4098.0635718962266765
 21
133.4410179097260141
 31
0.0
  0
LINE
  5
6D94
  8
0
 10
4098.122627014327918
 20
133.5315690908259114
 30
0.0
 11
4098.122627014327918
 21
133.5906242089259024
 31
0.0
  0
LINE
  5
6D95
  8
0
 10
4098.292847523826822
 20
133.6414908503259085
 30
0.0
 11
4098.292847523826822
 21
135.4295213470259114
 31
0.0
  0
LINE
  5
6D96
  8
0
 10
4098.3043758830281149
 20
135.4295213470259114
 30
0.0
 11
4098.3043758830281149
 21
133.6414908503259085
 31
0.0
  0
LINE
  5
6D97
  8
0
 10
4098.5753829198283711
 20
133.5040100357259121
 30
0.0
 11
4098.5753829198283711
 21
133.5315690908259114
 31
0.0
  0
LINE
  5
6D98
  8
0
 10
4098.7282797204279632
 20
133.6414908503259085
 30
0.0
 11
4098.7282797204279632
 21
135.4295213470259114
 31
0.0
  0
LINE
  5
6D99
  8
0
 10
4098.7440277519281153
 20
135.4295213470259114
 30
0.0
 11
4098.7440277519281153
 21
133.6414908503259085
 31
0.0
  0
LINE
  5
6D9A
  8
0
 10
4098.0635718962266765
 20
133.5906242089259024
 30
0.0
 11
4098.0438868568271573
 21
133.6103092483259047
 31
0.0
  0
LINE
  5
6D9B
  8
0
 10
4099.2335097412269533
 20
133.6414908503259085
 30
0.0
 11
4099.2335097412269533
 21
135.4295213470259114
 31
0.0
  0
LINE
  5
6D9C
  8
0
 10
4099.249257772728015
 20
135.4295213470259114
 30
0.0
 11
4099.249257772728015
 21
133.6414908503259085
 31
0.0
  0
LINE
  5
6D9D
  8
0
 10
4099.4021545733266976
 20
133.5040100357259121
 30
0.0
 11
4099.4021545733266976
 21
133.5315690908259114
 31
0.0
  0
LINE
  5
6D9E
  8
0
 10
4099.6731616102279077
 20
133.6414908503259085
 30
0.0
 11
4099.6731616102279077
 21
135.4295213470259114
 31
0.0
  0
LINE
  5
6D9F
  8
0
 10
4099.6846899693282467
 20
135.4295213470259114
 30
0.0
 11
4099.6846899693282467
 21
133.6414908503259085
 31
0.0
  0
LINE
  5
6DA0
  8
0
 10
4099.8549104788271507
 20
133.5315690908259114
 30
0.0
 11
4099.8549104788271507
 21
133.5906242089259024
 31
0.0
  0
LINE
  5
6DA1
  8
0
 10
4099.9139655970284366
 20
133.1575533428259064
 30
0.0
 11
4099.9139655970284366
 21
133.4410179097260141
 31
0.0
  0
LINE
  5
6DA2
  8
0
 10
4099.9294309640281426
 20
133.6414908503259085
 30
0.0
 11
4099.9294309640281426
 21
135.4295213470259114
 31
0.0
  0
LINE
  5
6DA3
  8
0
 10
4099.9336506363270018
 20
135.4607029491259027
 30
0.0
 11
4099.9336506363270018
 21
133.6103092483259047
 31
0.0
  0
LINE
  5
6DA4
  8
0
 10
4098.0635718962266765
 20
135.4803879884260027
 30
0.0
 11
4098.0438868568271573
 21
135.4607029491259027
 31
0.0
  0
LINE
  5
6DA5
  8
0
 10
4099.9139655970284366
 20
135.4803879884260027
 30
0.0
 11
4099.9336506363270018
 21
135.4607029491259027
 31
0.0
  0
LINE
  5
6DA6
  8
0
 10
4099.9139655970284366
 20
133.5906242089259024
 30
0.0
 11
4099.9336506363270018
 21
133.6103092483259047
 31
0.0
  0
LINE
  5
6DA7
  8
0
 10
4099.8824695339280879
 20
133.472513972725892
 30
0.0
 11
4098.0950679592278902
 21
133.472513972725892
 31
0.0
  0
LINE
  5
6DA8
  8
0
 10
4098.122627014327918
 20
133.5315690908259114
 30
0.0
 11
4099.8549104788271507
 21
133.5315690908259114
 31
0.0
  0
LINE
  5
6DA9
  8
0
 10
4098.0635718962266765
 20
133.5906242089259024
 30
0.0
 11
4099.9139655970284366
 21
133.5906242089259024
 31
0.0
  0
LINE
  5
6DAA
  8
0
 10
4099.9139655970284366
 20
135.4803879884260027
 30
0.0
 11
4098.0635718962266765
 21
135.4803879884260027
 31
0.0
  0
ARC
  5
6DAB
  8
0
 10
4099.8824695340281323
 20
133.4410179097260141
 30
0.0
 40
0.031496063
 50
0.0
 51
90.0
  0
ARC
  5
6DAC
  8
0
 10
4098.0950679592278902
 20
133.4410179097260141
 30
0.0
 40
0.031496063
 50
90.0
 51
180.0
  0
ARC
  5
6DAD
  8
0
 10
4099.4336506363279113
 20
133.5040100357259121
 30
0.0
 40
0.031496063
 50
180.0
 51
270.0
  0
ARC
  5
6DAE
  8
0
 10
4098.5438868568280668
 20
133.5040100357259121
 30
0.0
 40
0.031496063
 50
270.0
 51
0.0
  0
ARC
  5
6DAF
  8
0
 10
4098.170477026476874
 20
135.202724217813909
 30
0.0
 40
0.2577042421856668
 50
61.6505074715610775
 51
118.3494925284389012
  0
ARC
  5
6DB0
  8
0
 10
4098.2986117034279232
 20
135.4402044725655969
 30
0.0
 40
0.0121389842144025
 50
241.6505074715610988
 51
298.349492528438077
  0
ARC
  5
6DB1
  8
0
 10
4098.516327801728039
 20
134.7246918911920943
 30
0.0
 40
0.7360082728146972
 50
73.2632441776307672
 51
106.7367558223692043
  0
ARC
  5
6DB2
  8
0
 10
4098.7361537361775845
 20
135.4441147678761013
 30
0.0
 40
0.0165821607802092
 50
241.6505074715618093
 51
298.349492528438077
  0
ARC
  5
6DB3
  8
0
 10
4098.9887687465779891
 20
134.4846394586006113
 30
0.0
 40
0.9760634905253464
 50
75.4785222057658984
 51
104.5214777942341016
  0
ARC
  5
6DB4
  8
0
 10
4099.2413837569783936
 20
135.4441147678761013
 30
0.0
 40
0.0165821607802093
 50
241.6505074715618093
 51
298.349492528438077
  0
ARC
  5
6DB5
  8
0
 10
4099.4612096914779613
 20
134.7246918908521991
 30
0.0
 40
0.7360082731545907
 50
73.2632441815219124
 51
106.7367558184781018
  0
ARC
  5
6DB6
  8
0
 10
4099.6789257897780772
 20
135.440204472472999
 30
0.0
 40
0.0121389841091049
 50
241.6505074715618093
 51
298.349492528438077
  0
ARC
  5
6DB7
  8
0
 10
4099.8070604666781946
 20
135.202724217813909
 30
0.0
 40
0.257704242185681
 50
61.650507471561852
 51
118.3494925284381054
  0
ARC
  5
6DB8
  8
0
 10
4099.9315408001766627
 20
135.4334316423363873
 30
0.0
 40
0.0044431765658125
 50
241.6505074715587966
 51
298.3494925283783914
  0
ARC
  5
6DB9
  8
0
 10
4098.0459072536568783
 20
135.4316266613460016
 30
0.0
 40
0.0030445296809445
 50
228.4238086505534966
 51
316.2504612048203967
  0
ARC
  5
6DBA
  8
0
 10
4098.0461199984401901
 20
133.6382754485601083
 30
0.0
 40
0.0037795651453716
 50
58.2915122251535323
 51
126.2170784240375951
  0
ARC
  5
6DBB
  8
0
 10
4098.170477026476874
 20
133.8664478953265871
 30
0.0
 40
0.2560863344989773
 50
241.4550150494422098
 51
298.5449849505577049
  0
ARC
  5
6DBC
  8
0
 10
4098.2986117034279232
 20
133.6321609399541899
 30
0.0
 40
0.010966904485994
 50
58.2915122251535323
 51
121.7084877748465033
  0
ARC
  5
6DBD
  8
0
 10
4098.516327801728039
 20
134.3489823995628001
 30
0.0
 40
0.7385579923623301
 50
253.3227166583129986
 51
286.677283341686973
  0
ARC
  5
6DBE
  8
0
 10
4098.7361537361775845
 20
133.6287459557684087
 30
0.0
 40
0.0149810700991096
 50
58.2915122251535323
 51
121.7084877748465033
  0
ARC
  5
6DBF
  8
0
 10
4098.9887687465779891
 20
134.588826263900188
 30
0.0
 40
0.978438828069557
 50
255.5145475507582944
 51
284.4854524492416772
  0
ARC
  5
6DC0
  8
0
 10
4099.2413837569783936
 20
133.6287459557684087
 30
0.0
 40
0.0149810700991097
 50
58.2915122251535323
 51
121.7084877748455938
  0
ARC
  5
6DC1
  8
0
 10
4099.4612096914779613
 20
134.3476306258233137
 30
0.0
 40
0.7372631812326752
 50
253.2925687687454115
 51
286.7074312312544748
  0
ARC
  5
6DC2
  8
0
 10
4099.6789257897780772
 20
133.6321609400351917
 30
0.0
 40
0.0109669043908633
 50
58.2915122251535323
 51
121.7084877748465033
  0
ARC
  5
6DC3
  8
0
 10
4099.8070604666781946
 20
133.8664046679753028
 30
0.0
 40
0.256048362602264
 50
241.450392840459898
 51
298.5496071595400736
  0
ARC
  5
6DC4
  8
0
 10
4099.9315408001766627
 20
133.6380758661400989
 30
0.0
 40
0.0040141656131168
 50
58.2915122251773923
 51
121.7084877748481944
  0
LINE
  5
6DC5
  8
0
 10
4092.7456363110532038
 20
137.0172166226267905
 30
0.0
 11
4093.3082854776139357
 21
136.9975684808212009
 31
0.0
  0
LINE
  5
6DC6
  8
0
 10
4093.3840985453221037
 20
137.0815879985279082
 30
0.0
 11
4092.6758688254722074
 21
137.1063199253225946
 31
0.0
  0
ARC
  5
6DC7
  8
0
 10
4093.2864716004719412
 20
137.2611264003247129
 30
0.0
 40
0.6299212597936652
 50
189.4308292047695943
 51
194.2264727573513028
  0
ARC
  5
6DC8
  8
0
 10
4092.7857819217779252
 20
137.278610869126112
 30
0.0
 40
0.6299212598007129
 50
341.7735272479886817
 51
346.569170801896405
  0
ARC
  5
6DC9
  8
0
 10
4093.1974266241782061
 20
137.1094182203260061
 30
0.0
 40
0.157480315000021
 50
314.745078470795022
 51
350.2271807387484728
  0
ARC
  5
6DCA
  8
0
 10
4092.8640273612791134
 20
137.1210607791259974
 30
0.0
 40
0.15748031500009
 50
185.7728192579367885
 51
221.2549215472247965
  0
ENDSEC
  0
EOF
