  0
SECTION
  2
HEADER
  9
$ACADVER
  1
AC1009
  9
$INSBASE
 10
3482.6639533701850269
 20
201.8116850034481047
 30
0.0
  9
$EXTMIN
 10
3475.7269454961838164
 20
200.8274330348480134
 30
0.0
  9
$EXTMAX
 10
3489.6009612441839636
 20
202.7959369719480947
 30
0.0
  9
$LIMMIN
 10
0.0
 20
0.0
  9
$LIMMAX
 10
11.6929133858000007
 20
8.2677165353999982
  9
$ORTHOMODE
 70
     0
  9
$REGENMODE
 70
     1
  9
$FILLMODE
 70
     1
  9
$QTEXTMODE
 70
     0
  9
$MIRRTEXT
 70
     0
  9
$DRAGMODE
 70
     2
  9
$LTSCALE
 40
0.6431102362
  9
$OSMODE
 70
  3839
  9
$ATTMODE
 70
     1
  9
$TEXTSIZE
 40
0.2
  9
$TRACEWID
 40
0.05
  9
$TEXTSTYLE
  7
STANDARD
  9
$CLAYER
  8
0
  9
$CELTYPE
  6
BYLAYER
  9
$CECOLOR
 62
   256
  9
$DIMSCALE
 40
1.0
  9
$DIMASZ
 40
0.1875
  9
$DIMEXO
 40
0.0625
  9
$DIMDLI
 40
0.4443307087
  9
$DIMRND
 40
0.0
  9
$DIMDLE
 40
0.0
  9
$DIMEXE
 40
0.125
  9
$DIMTP
 40
0.01
  9
$DIMTM
 40
0.01
  9
$DIMTXT
 40
2.0
  9
$DIMCEN
 40
0.1052362205
  9
$DIMTSZ
 40
0.0
  9
$DIMTOL
 70
     1
  9
$DIMLIM
 70
     0
  9
$DIMTIH
 70
     1
  9
$DIMTOH
 70
     1
  9
$DIMSE1
 70
     0
  9
$DIMSE2
 70
     0
  9
$DIMTAD
 70
     0
  9
$DIMZIN
 70
     0
  9
$DIMBLK
  1

  9
$DIMASO
 70
     1
  9
$DIMSHO
 70
     1
  9
$DIMPOST
  1
\X
  9
$DIMAPOST
  1

  9
$DIMALT
 70
     1
  9
$DIMALTD
 70
     2
  9
$DIMALTF
 40
25.3999999999999986
  9
$DIMLFAC
 40
1.0
  9
$DIMTOFL
 70
     0
  9
$DIMTVP
 40
0.0
  9
$DIMTIX
 70
     0
  9
$DIMSOXD
 70
     0
  9
$DIMSAH
 70
     0
  9
$DIMBLK1
  1

  9
$DIMBLK2
  1

  9
$DIMSTYLE
  2
STANDARD
  9
$DIMCLRD
 70
     0
  9
$DIMCLRE
 70
     0
  9
$DIMCLRT
 70
     0
  9
$DIMTFAC
 40
1.0
  9
$DIMGAP
 40
0.09
  9
$LUNITS
 70
     2
  9
$LUPREC
 70
     4
  9
$SKETCHINC
 40
0.1
  9
$FILLETRAD
 40
0.0
  9
$AUNITS
 70
     0
  9
$AUPREC
 70
     0
  9
$MENU
  1
.
  9
$ELEVATION
 40
0.0
  9
$PELEVATION
 40
0.0
  9
$THICKNESS
 40
0.0
  9
$LIMCHECK
 70
     0
  9
$BLIPMODE
 70
     0
  9
$CHAMFERA
 40
0.0
  9
$CHAMFERB
 40
0.0
  9
$SKPOLY
 70
     0
  9
$TDCREATE
 40
2458060.468368056230247
  9
$TDUPDATE
 40
2459023.7057870370335877
  9
$TDINDWG
 40
0.684983912
  9
$TDUSRTIMER
 40
0.684983912
  9
$USRTIMER
 70
     1
  9
$ANGBASE
 50
0.0
  9
$ANGDIR
 70
     0
  9
$PDMODE
 70
     0
  9
$PDSIZE
 40
0.3125
  9
$PLINEWID
 40
0.0
  9
$COORDS
 70
     1
  9
$SPLFRAME
 70
     0
  9
$SPLINETYPE
 70
     6
  9
$SPLINESEGS
 70
     8
  9
$ATTDIA
 70
     1
  9
$ATTREQ
 70
     1
  9
$HANDLING
 70
     1
  9
$HANDSEED
  5
9E9A
  9
$SURFTAB1
 70
     6
  9
$SURFTAB2
 70
     6
  9
$SURFTYPE
 70
     6
  9
$SURFU
 70
     6
  9
$SURFV
 70
     6
  9
$UCSNAME
  2

  9
$UCSORG
 10
0.0
 20
0.0
 30
0.0
  9
$UCSXDIR
 10
1.0
 20
0.0
 30
0.0
  9
$UCSYDIR
 10
0.0
 20
1.0
 30
0.0
  9
$PUCSNAME
  2

  9
$PUCSORG
 10
0.0
 20
0.0
 30
0.0
  9
$PUCSXDIR
 10
1.0
 20
0.0
 30
0.0
  9
$PUCSYDIR
 10
0.0
 20
1.0
 30
0.0
  9
$USERI1
 70
     0
  9
$USERI2
 70
     0
  9
$USERI3
 70
     0
  9
$USERI4
 70
     0
  9
$USERI5
 70
     0
  9
$USERR1
 40
0.0
  9
$USERR2
 40
0.0
  9
$USERR3
 40
0.0
  9
$USERR4
 40
0.0
  9
$USERR5
 40
0.0
  9
$WORLDVIEW
 70
     1
  9
$SHADEDGE
 70
     3
  9
$SHADEDIF
 70
    70
  9
$TILEMODE
 70
     1
  9
$MAXACTVP
 70
    64
  9
$PLIMCHECK
 70
     0
  9
$PEXTMIN
 10
1.0000000000000000E+20
 20
1.0000000000000000E+20
 30
1.0000000000000000E+20
  9
$PEXTMAX
 10
-1.0000000000000000E+20
 20
-1.0000000000000000E+20
 30
-1.0000000000000000E+20
  9
$PLIMMIN
 10
0.0
 20
0.0
  9
$PLIMMAX
 10
12.0
 20
9.0
  9
$UNITMODE
 70
     0
  9
$VISRETAIN
 70
     1
  9
$PLINEGEN
 70
     0
  9
$PSLTSCALE
 70
     1
  0
ENDSEC
  0
SECTION
  2
TABLES
  0
TABLE
  2
VPORT
 70
     1
  0
VPORT
  2
*ACTIVE
 70
     0
 10
0.0
 20
0.0
 11
1.0
 21
1.0
 12
0.0
 22
0.0
 13
0.0
 23
0.0
 14
1.0
 24
1.0
 15
0.0
 25
0.0
 16
0.0
 26
0.0
 36
58.1741845208959418
 17
3482.6640625
 27
201.8116836547850994
 37
0.0
 40
14.0126498488411695
 41
3.314341846758349
 42
50.0
 43
0.0
 44
0.0
 50
0.0
 51
0.0
 71
     0
 72
   100
 73
     1
 74
     1
 75
     0
 76
     0
 77
     0
 78
     0
  0
ENDTAB
  0
TABLE
  2
LTYPE
 70
     2
  0
LTYPE
  2
CONTINUOUS
 70
     0
  3
Solid line
 72
    65
 73
     0
 40
0.0
  0
LTYPE
  2
PHANTOM2
 70
     0
  3
___ _ _ ___ _ _ ___ _ _ ___ _ _
 72
    65
 73
     6
 40
1.25
 49
0.625
 49
-0.125
 49
0.125
 49
-0.125
 49
0.125
 49
-0.125
  0
ENDTAB
  0
TABLE
  2
LAYER
 70
     2
  0
LAYER
  2
0
 70
     0
 62
   255
  6
CONTINUOUS
  0
LAYER
  2
DEFPOINTS
 70
     0
 62
     7
  6
CONTINUOUS
  0
ENDTAB
  0
TABLE
  2
STYLE
 70
     1
  0
STYLE
  2
STANDARD
 70
     0
 40
0.0
 41
0.8
 50
0.0
 71
     0
 42
0.2
  3
txt
  4

  0
ENDTAB
  0
TABLE
  2
VIEW
 70
     0
  0
ENDTAB
  0
TABLE
  2
UCS
 70
     0
  0
ENDTAB
  0
TABLE
  2
APPID
 70
     9
  0
APPID
  2
ACAD
 70
     0
  0
APPID
  2
ACAD_MLEADERVER
 70
     0
  0
APPID
  2
ACAD_EXEMPT_FROM_CAD_STANDARDS
 70
     0
  0
APPID
  2
ACAD_NAV_VCDISPLAY
 70
     0
  0
APPID
  2
ACAECLAYERSTANDARD
 70
     0
  0
APPID
  2
ACCMTRANSPARENCY
 70
     0
  0
APPID
  2
ACAD_DSTYLE_DIMJAG
 70
     0
  0
APPID
  2
ACAD_DSTYLE_DIMTALN
 70
     0
  0
APPID
  2
ACDBATTR
 70
     0
  0
ENDTAB
  0
TABLE
  2
DIMSTYLE
 70
     1
  0
DIMSTYLE
  2
STANDARD
 70
     0
  3

  4

  5

  6

  7

 40
1.0
 41
0.1875
 42
0.0625
 43
0.38
 44
0.125
 45
0.0
 46
0.0
 47
0.01
 48
0.01
140
0.15625
141
0.09
142
0.0
143
25.3999999999999986
144
1.0
145
0.0
146
1.0
147
0.09
 71
     1
 72
     0
 73
     1
 74
     1
 75
     0
 76
     0
 77
     0
 78
     4
170
     0
171
     2
172
     0
173
     0
174
     0
175
     0
176
     0
177
     0
178
     0
  0
ENDTAB
  0
ENDSEC
  0
SECTION
  2
BLOCKS
  0
BLOCK
  8
0
  2
$MODEL_SPACE
 70
     0
 10
0.0
 20
0.0
 30
0.0
  3
$MODEL_SPACE
  1

  0
ENDBLK
  5
21
  8
0
  0
BLOCK
 67
     1
  8
0
  2
$PAPER_SPACE
 70
     0
 10
0.0
 20
0.0
 30
0.0
  3
$PAPER_SPACE
  1

  0
ENDBLK
  5
1D
 67
     1
  8
0
  0
BLOCK
  8
0
  2
_FILLED
 70
     0
 10
0.0
 20
0.0
 30
0.0
  3
_FILLED
  1

  0
SOLID
  5
6F59
  8
0
  6
BYBLOCK
 62
     0
 10
0.0
 20
0.0
 30
0.0
 11
-1.0
 21
0.1666666667
 31
0.0
 12
-1.0
 22
-0.1666666667
 32
0.0
 13
-1.0
 23
-0.1666666667
 33
0.0
  0
ENDBLK
  5
6F5A
  8
0
  6
BYBLOCK
 62
     0
  0
ENDSEC
  0
SECTION
  2
ENTITIES
  0
ATTDEF
  5
3930
  8
DEFPOINTS
 10
3482.6640907567762042
 20
201.8103547132531048
 30
0.0
 40
0.001
  1
K-73067M-4
  3

  2
MODELNUMBER
 70
     0
1001
ACDBATTR
1070
     0
1070
     1
  0
ATTDEF
  5
3931
  8
DEFPOINTS
 10
3482.6640907567762042
 20
201.8086880465864112
 30
0.0
 40
0.001
  1
COMPOSED
  3

  2
TRADENAME
 70
     0
1001
ACDBATTR
1070
     0
1070
     1
  0
ATTDEF
  5
3932
  8
DEFPOINTS
 10
3482.6640907567762042
 20
201.8070213799198029
 30
0.0
 40
0.001
  1
BATHROOM SINK FAUCET
  3

  2
PRODUCT
 70
     0
1001
ACDBATTR
1070
     0
1070
     1
  0
ARC
  5
9C59
  8
0
 10
3482.6639899756278282
 20
201.8120533808547918
 30
0.0
 40
0.4723858074249655
 50
205.8998459399913088
 51
269.9955601176304185
  0
ARC
  5
9C5A
  8
0
 10
3482.0534254399740348
 20
201.5349558063246036
 30
0.0
 40
0.1986550415740534
 50
20.8666451190976403
 51
89.6663197889878063
  0
LINE
  5
9C5B
  8
0
 10
3482.0545823643069525
 20
201.73360747903061
 30
0.0
 11
3482.0064730552840047
 21
201.7336086927674899
 31
0.0
  0
ARC
  5
9C5C
  8
0
 10
3482.006470312483998
 20
201.7651022588480885
 30
0.0
 40
0.031493566199998
 50
180.0095082965995914
 51
270.004989935500987
  0
LINE
  5
9C5D
  8
0
 10
3481.9749767467178572
 20
201.7650970324567083
 30
0.0
 11
3481.9749769922841551
 21
202.5623173740480922
 31
0.0
  0
ARC
  5
9C5E
  8
0
 10
3482.0066968892601835
 20
202.5624299861840996
 30
0.0
 40
0.0317200968736015
 50
103.1305914301476037
 51
180.2034114198710029
  0
ARC
  5
9C5F
  8
0
 10
3482.1382056070870021
 20
200.5308891737768135
 30
0.0
 40
2.067091137861893
 50
90.3775870480352523
 51
93.847793162420146
  0
ARC
  5
9C60
  8
0
 10
3482.6638748307841524
 20
201.8744009894481053
 30
0.0
 40
0.4724562574999993
 50
204.3429659092805935
 51
270.0095246408428125
  0
ARC
  5
9C61
  8
0
 10
3482.0540303281932211
 20
201.5984948984255993
 30
0.0
 40
0.1968975266866545
 50
24.3429659092791297
 51
89.9987181087916355
  0
LINE
  5
9C62
  8
0
 10
3482.0540347334249418
 20
201.7953924250629996
 30
0.0
 11
3481.9749767560688269
 21
201.795394193844686
 31
0.0
  0
ARC
  5
9C63
  8
0
 10
3482.0062987458750285
 20
202.0743675595342097
 30
0.0
 40
0.0313219587212326
 50
179.8927771732076906
 51
270.3799178800159098
  0
ARC
  5
9C64
  8
0
 10
3482.1061779979409039
 20
200.8529352647630901
 30
0.0
 40
1.194277468380796
 50
89.1169661852832178
 51
94.7873382388296761
  0
LINE
  5
9C65
  8
0
 10
3482.124583291484214
 20
202.0470709005481069
 30
0.0
 11
3482.6639533701850269
 21
202.0470709005481069
 31
0.0
  0
LINE
  5
9C66
  8
0
 10
3482.3821787378092267
 20
201.8752351735481056
 30
0.0
 11
3482.6639533701850269
 21
201.8752351735481056
 31
0.0
  0
ARC
  5
9C67
  8
0
 10
3482.6524915111767768
 20
207.909156192991702
 30
0.0
 40
6.0438933582963648
 50
268.1391413556506791
 51
270.1086578635976139
  0
ARC
  5
9C68
  8
0
 10
3482.4578459865770128
 20
202.2869939163919071
 30
0.0
 40
0.4186535499005904
 50
259.5871613028807019
 51
270.2311466027306892
  0
ARC
  5
9C69
  8
0
 10
3482.3922281771551752
 20
201.8534628724374045
 30
0.0
 40
0.0239796648604644
 50
103.3267532451403952
 51
114.7766266015348009
  0
ARC
  5
9C6A
  8
0
 10
3482.4905093013981059
 20
200.9524893369610083
 30
0.0
 40
0.9301185372277886
 50
90.6006423463646939
 51
96.408009729180236
  0
ARC
  5
9C6B
  8
0
 10
3482.6559541934771005
 20
195.4083922971634024
 30
0.0
 40
6.4765344875836552
 50
89.9292338854439492
 51
91.6660713684701847
  0
LINE
  5
9C6C
  8
0
 10
3482.6600163623838853
 20
201.8680917418481044
 30
0.0
 11
3482.6600163623838853
 21
201.8660991494481038
 31
0.0
  0
ARC
  5
9C6D
  8
0
 10
3482.6633370031800041
 20
209.0139264057009996
 30
0.0
 40
7.1478280275820048
 50
269.5311528092541948
 51
270.0049406935689831
  0
LINE
  5
9C6E
  8
0
 10
3482.6048474997778612
 20
201.8663376871274977
 30
0.0
 11
3482.6196314568837806
 21
201.8682632486481054
 31
0.0
  0
LINE
  5
9C6F
  8
0
 10
3482.6196314568837806
 20
201.8682632486481054
 30
0.0
 11
3482.6196314568837806
 21
201.8682632486481054
 31
0.0
  0
LINE
  5
9C70
  8
0
 10
3482.6196314568837806
 20
201.8682632486481054
 30
0.0
 11
3482.6639533701850269
 21
201.86807502214549
 31
0.0
  0
ARC
  5
9C71
  8
0
 10
3482.4134551672441376
 20
201.8863385569194975
 30
0.0
 40
0.0133133495568216
 50
236.5122432488446123
 51
267.8012970424881019
  0
LINE
  5
9C72
  8
0
 10
3482.4129443980850738
 20
201.8730350088480918
 30
0.0
 11
3482.4681188772838141
 21
201.8735509614481032
 31
0.0
  0
ARC
  5
9C73
  8
0
 10
3482.4712116424561827
 20
201.8895508521696911
 30
0.0
 40
0.0162960639269226
 50
241.458902073282502
 51
259.0597029566583274
  0
LINE
  5
9C74
  8
0
 10
3482.4187858138711817
 20
201.8725206474917115
 30
0.0
 11
3482.472194767784913
 21
201.8730200902481045
 31
0.0
  0
LINE
  5
9C75
  8
0
 10
3482.472194767784913
 20
201.8730200902481045
 30
0.0
 11
3482.4881313058840533
 21
201.8717137494481051
 31
0.0
  0
LINE
  5
9C76
  8
0
 10
3482.4881313058840533
 20
201.8717137494481051
 30
0.0
 11
3482.4394568159700611
 21
201.8707329957564127
 31
0.0
  0
LINE
  5
9C77
  8
0
 10
3482.4394568159700611
 20
201.8707329957564127
 30
0.0
 11
3482.4187858138711817
 21
201.8725206474917115
 31
0.0
  0
LINE
  5
9C78
  8
0
 10
3482.4434649259119396
 20
201.8704405410281879
 30
0.0
 11
3482.4920683137838751
 21
201.8714757663481123
 31
0.0
  0
LINE
  5
9C79
  8
0
 10
3482.4873015118050716
 20
201.8716970297328999
 30
0.0
 11
3482.5165166809852053
 21
201.8703409324481015
 31
0.0
  0
LINE
  5
9C7A
  8
0
 10
3482.5647935296669857
 20
201.872025770182205
 30
0.0
 11
3482.4761261589837886
 21
201.8689313235481109
 31
0.0
  0
LINE
  5
9C7B
  8
0
 10
3482.4761261589837886
 20
201.8689313235481109
 30
0.0
 11
3482.4434649259119396
 21
201.8704405410281879
 31
0.0
  0
LINE
  5
9C7C
  8
0
 10
3482.476172314948144
 20
201.868155684827002
 30
0.0
 11
3482.527652220885102
 21
201.8699523076481057
 31
0.0
  0
LINE
  5
9C7D
  8
0
 10
3482.5147160090991747
 20
201.8702780899050993
 30
0.0
 11
3482.5669885191850881
 21
201.8689616723480924
 31
0.0
  0
LINE
  5
9C7E
  8
0
 10
3482.5669885191850881
 20
201.8689616723480924
 30
0.0
 11
3482.5310070614168581
 21
201.8673458280458135
 31
0.0
  0
LINE
  5
9C7F
  8
0
 10
3482.531621841184915
 20
201.8673734363875099
 30
0.0
 11
3482.4162153969700739
 21
201.87041536575191
 31
0.0
  0
LINE
  5
9C80
  8
0
 10
3482.524594284244813
 20
201.8666162282250127
 30
0.0
 11
3482.5674096385100711
 21
201.8685327432748124
 31
0.0
  0
LINE
  5
9C81
  8
0
 10
3482.5674096385100711
 20
201.8685327432748124
 30
0.0
 11
3482.6044200265841937
 21
201.8684054952481119
 31
0.0
  0
LINE
  5
9C82
  8
0
 10
3482.6044200265841937
 20
201.8684054952481119
 30
0.0
 11
3482.589636069484186
 21
201.8664799336480939
 31
0.0
  0
LINE
  5
9C83
  8
0
 10
3482.589636069484186
 20
201.8664799336480939
 30
0.0
 11
3482.4431916385251498
 21
201.8686427778870893
 31
0.0
  0
ARC
  5
9C84
  8
0
 10
3482.4913889636482054
 20
201.9517784270404945
 30
0.0
 40
0.0799831835016217
 50
253.8275134385633862
 51
271.3308637937552135
  0
LINE
  5
9C85
  8
0
 10
3482.4927574097509932
 20
201.8718069508861106
 30
0.0
 11
3482.5458419822980431
 21
201.8728777578398024
 31
0.0
  0
ARC
  5
9C86
  8
0
 10
3482.5429303205050928
 20
201.9389684703176044
 30
0.0
 40
0.0661548187980672
 50
255.3638676022690959
 51
275.6788244858295229
  0
LINE
  5
9C87
  8
0
 10
3482.5321223808841751
 20
201.8749603743480918
 30
0.0
 11
3482.4691112522841649
 21
201.8749603743480918
 31
0.0
  0
LINE
  5
9C88
  8
0
 10
3482.636676979584081
 20
201.8749603743480918
 30
0.0
 11
3482.6469056260830257
 21
201.8743420761479967
 31
0.0
  0
LINE
  5
9C89
  8
0
 10
3482.6469056260830257
 20
201.8743420761479967
 30
0.0
 11
3482.6291093343838838
 21
201.8732663312480895
 31
0.0
  0
LINE
  5
9C8A
  8
0
 10
3482.6291093343838838
 20
201.8732663312480895
 30
0.0
 11
3482.6010843960839338
 21
201.8749603743480918
 31
0.0
  0
LINE
  5
9C8B
  8
0
 10
3482.6010843960839338
 20
201.8749603743480918
 30
0.0
 11
3482.636676979584081
 21
201.8749603743480918
 31
0.0
  0
LINE
  5
9C8C
  8
0
 10
3482.5262143490840572
 20
201.8749603743480918
 30
0.0
 11
3482.5951683103839969
 21
201.8749603743480918
 31
0.0
  0
ARC
  5
9C8D
  8
0
 10
3482.6268129926420443
 20
202.1412498528316917
 30
0.0
 40
0.2681631448693593
 50
263.2230011519073969
 51
269.8586206831774916
  0
LINE
  5
9C8E
  8
0
 10
3482.6261512914820742
 20
201.8730875243479943
 30
0.0
 11
3482.59462832668396
 21
201.8711820335481093
 31
0.0
  0
ARC
  5
9C8F
  8
0
 10
3482.59415048018991
 20
202.3821910755812894
 30
0.0
 40
0.5110092654512127
 50
262.7786481742560909
 51
270.0535774852561985
  0
LINE
  5
9C90
  8
0
 10
3482.5699418600838726
 20
201.8691401950480895
 30
0.0
 11
3482.5984934084849556
 21
201.8708660705480895
 31
0.0
  0
LINE
  5
9C91
  8
0
 10
3482.5984934084849556
 20
201.8708660705480895
 30
0.0
 11
3482.6639533701850269
 21
201.870253935339008
 31
0.0
  0
LINE
  5
9C92
  8
0
 10
3482.6600163623838853
 20
201.8702907514480955
 30
0.0
 11
3482.6600163623838853
 21
201.8682978820480969
 31
0.0
  0
LINE
  5
9C93
  8
0
 10
3482.5699418600838726
 20
201.8691401950480895
 30
0.0
 11
3482.6639533701850269
 21
201.8682610659373893
 31
0.0
  0
LINE
  5
9C94
  8
0
 10
3482.6639533701850269
 20
201.8704948875895013
 30
0.0
 11
3482.6014474243838777
 21
201.8710446339480882
 31
0.0
  0
LINE
  5
9C95
  8
0
 10
3482.6014474243838777
 20
201.8710446339480882
 30
0.0
 11
3482.6335614493291359
 21
201.8729402126135994
 31
0.0
  0
LINE
  5
9C96
  8
0
 10
3482.6248810339538977
 20
201.8730107401987084
 30
0.0
 11
3482.6639533701850269
 21
201.8726932810218955
 31
0.0
  0
LINE
  5
9C97
  8
0
 10
3482.6639533701850269
 20
201.8728993804226945
 30
0.0
 11
3482.6164022316111186
 21
201.8732888699983903
 31
0.0
  0
LINE
  5
9C98
  8
0
 10
3482.6359284320178631
 20
201.8731289316301059
 30
0.0
 11
3482.6639533701850269
 21
201.8748229747135952
 31
0.0
  0
LINE
  5
9C99
  8
0
 10
3482.6537247236851726
 20
201.8742046765480893
 30
0.0
 11
3482.6639533701850269
 21
201.8741355850202126
 31
0.0
  0
LINE
  5
9C9A
  8
0
 10
3482.6600163623838853
 20
201.8823786052479079
 30
0.0
 11
3482.6600163623838853
 21
201.8843711976479085
 31
0.0
  0
ARC
  5
9C9B
  8
0
 10
3482.6633370031718187
 20
194.736543941395098
 30
0.0
 40
7.1478280275820048
 50
89.9950593063527862
 51
90.4688471906676028
  0
LINE
  5
9C9C
  8
0
 10
3482.6048474997778612
 20
201.8841326599685999
 30
0.0
 11
3482.6196314568837806
 21
201.8822070984479922
 31
0.0
  0
LINE
  5
9C9D
  8
0
 10
3482.6196314568837806
 20
201.8822070984479922
 30
0.0
 11
3482.6196314568837806
 21
201.8822070984479922
 31
0.0
  0
LINE
  5
9C9E
  8
0
 10
3482.6196314568837806
 20
201.8822070984479922
 30
0.0
 11
3482.6639533701850269
 21
201.8823953249504939
 31
0.0
  0
ARC
  5
9C9F
  8
0
 10
3482.4134551672441376
 20
201.8641317901767991
 30
0.0
 40
0.0133133495568216
 50
92.1987029574337384
 51
123.4877567510931016
  0
LINE
  5
9CA0
  8
0
 10
3482.4129443980850738
 20
201.8774353382482047
 30
0.0
 11
3482.4681188772838141
 21
201.8769193856481081
 31
0.0
  0
ARC
  5
9CA1
  8
0
 10
3482.4712116424561827
 20
201.8609194949266055
 30
0.0
 40
0.0162960639269226
 50
100.9402970432627029
 51
118.5410979266577982
  0
LINE
  5
9CA2
  8
0
 10
3482.4187858138711817
 20
201.8779496996046134
 30
0.0
 11
3482.472194767784913
 21
201.8774502568481921
 31
0.0
  0
LINE
  5
9CA3
  8
0
 10
3482.472194767784913
 20
201.8774502568481921
 30
0.0
 11
3482.4881313058840533
 21
201.8787565976481062
 31
0.0
  0
LINE
  5
9CA4
  8
0
 10
3482.4881313058840533
 20
201.8787565976481062
 30
0.0
 11
3482.4394568159700611
 21
201.8797373513397986
 31
0.0
  0
LINE
  5
9CA5
  8
0
 10
3482.4394568159700611
 20
201.8797373513397986
 30
0.0
 11
3482.4187858138711817
 21
201.8779496996046134
 31
0.0
  0
LINE
  5
9CA6
  8
0
 10
3482.4434649259119396
 20
201.8800298060681087
 30
0.0
 11
3482.4920683137838751
 21
201.878994580748099
 31
0.0
  0
LINE
  5
9CA7
  8
0
 10
3482.4873015118050716
 20
201.8787733173633114
 30
0.0
 11
3482.5165166809852053
 21
201.8801294146481098
 31
0.0
  0
LINE
  5
9CA8
  8
0
 10
3482.5647935296669857
 20
201.8784445769138927
 30
0.0
 11
3482.4761261589837886
 21
201.8815390235481004
 31
0.0
  0
LINE
  5
9CA9
  8
0
 10
3482.4761261589837886
 20
201.8815390235481004
 30
0.0
 11
3482.4434649259119396
 21
201.8800298060681087
 31
0.0
  0
LINE
  5
9CAA
  8
0
 10
3482.476172314948144
 20
201.8823146622692093
 30
0.0
 11
3482.527652220885102
 21
201.8805180394481056
 31
0.0
  0
LINE
  5
9CAB
  8
0
 10
3482.5147160090991747
 20
201.880192257191112
 30
0.0
 11
3482.5669885191850881
 21
201.8815086747480052
 31
0.0
  0
LINE
  5
9CAC
  8
0
 10
3482.5669885191850881
 20
201.8815086747480052
 30
0.0
 11
3482.5310070614168581
 21
201.8831245190503978
 31
0.0
  0
LINE
  5
9CAD
  8
0
 10
3482.531621841184915
 20
201.8830969107085878
 30
0.0
 11
3482.4247402589030571
 21
201.8802796830759974
 31
0.0
  0
LINE
  5
9CAE
  8
0
 10
3482.5286045429788828
 20
201.8836746103432063
 30
0.0
 11
3482.5674096385100711
 21
201.8819376038213989
 31
0.0
  0
LINE
  5
9CAF
  8
0
 10
3482.5674096385100711
 20
201.8819376038213989
 30
0.0
 11
3482.6044200265841937
 21
201.8820648518480141
 31
0.0
  0
LINE
  5
9CB0
  8
0
 10
3482.6044200265841937
 20
201.8820648518480141
 30
0.0
 11
3482.589636069484186
 21
201.8839904134480037
 31
0.0
  0
LINE
  5
9CB1
  8
0
 10
3482.589636069484186
 20
201.8839904134480037
 30
0.0
 11
3482.4583347513939771
 21
201.8820512185089058
 31
0.0
  0
ARC
  5
9CB2
  8
0
 10
3482.4913889636482054
 20
201.7986919200556883
 30
0.0
 40
0.0799831835016217
 50
88.6691362061927038
 51
106.1724865613815041
  0
LINE
  5
9CB3
  8
0
 10
3482.4927574097509932
 20
201.8786633962101007
 30
0.0
 11
3482.5458419822980431
 21
201.8775925892562952
 31
0.0
  0
ARC
  5
9CB4
  8
0
 10
3482.5429303205050928
 20
201.8115018767786069
 30
0.0
 40
0.0661548187980672
 50
84.3211755140921042
 51
104.6361323976767039
  0
LINE
  5
9CB5
  8
0
 10
3482.5321223808841751
 20
201.8755099727480911
 30
0.0
 11
3482.4691112522841649
 21
201.8755099727480911
 31
0.0
  0
LINE
  5
9CB6
  8
0
 10
3482.636676979584081
 20
201.8755099727480058
 30
0.0
 11
3482.6469056260830257
 21
201.8761282709479872
 31
0.0
  0
LINE
  5
9CB7
  8
0
 10
3482.6469056260830257
 20
201.8761282709479872
 30
0.0
 11
3482.6291093343838838
 21
201.8772040158480081
 31
0.0
  0
LINE
  5
9CB8
  8
0
 10
3482.6291093343838838
 20
201.8772040158480081
 30
0.0
 11
3482.6010843960839338
 21
201.8755099727480058
 31
0.0
  0
LINE
  5
9CB9
  8
0
 10
3482.6010843960839338
 20
201.8755099727480058
 30
0.0
 11
3482.636676979584081
 21
201.8755099727480058
 31
0.0
  0
LINE
  5
9CBA
  8
0
 10
3482.5262143490840572
 20
201.8755099727480911
 30
0.0
 11
3482.5951683103839969
 21
201.8755099727480058
 31
0.0
  0
ARC
  5
9CBB
  8
0
 10
3482.6268129926411348
 20
201.6092204942644059
 30
0.0
 40
0.2681631448693593
 50
90.141379316770383
 51
96.7769988480140029
  0
LINE
  5
9CBC
  8
0
 10
3482.6261512914820742
 20
201.8773828227481033
 30
0.0
 11
3482.59462832668396
 21
201.8792883135479883
 31
0.0
  0
ARC
  5
9CBD
  8
0
 10
3482.5941504801890005
 20
201.3682792715148082
 30
0.0
 40
0.5110092654512127
 50
89.946422514691605
 51
97.2213518256653515
  0
LINE
  5
9CBE
  8
0
 10
3482.5699418600838726
 20
201.8813301520480081
 30
0.0
 11
3482.5984934084849556
 21
201.8796042765480081
 31
0.0
  0
LINE
  5
9CBF
  8
0
 10
3482.5984934084849556
 20
201.8796042765480081
 30
0.0
 11
3482.6639533701850269
 21
201.8802164117570896
 31
0.0
  0
LINE
  5
9CC0
  8
0
 10
3482.6600163623838853
 20
201.8801795956480021
 30
0.0
 11
3482.6600163623838853
 21
201.8821724650480007
 31
0.0
  0
LINE
  5
9CC1
  8
0
 10
3482.5699418600838726
 20
201.8813301520480081
 30
0.0
 11
3482.6639533701850269
 21
201.8822092811587083
 31
0.0
  0
LINE
  5
9CC2
  8
0
 10
3482.6639533701850269
 20
201.879975459506511
 30
0.0
 11
3482.6014474243838777
 21
201.8794257131480094
 31
0.0
  0
LINE
  5
9CC3
  8
0
 10
3482.6014474243838777
 20
201.8794257131480094
 30
0.0
 11
3482.6335614493291359
 21
201.8775301344824982
 31
0.0
  0
LINE
  5
9CC4
  8
0
 10
3482.6248810339538977
 20
201.8774596068973892
 30
0.0
 11
3482.6639533701850269
 21
201.8777770660742021
 31
0.0
  0
LINE
  5
9CC5
  8
0
 10
3482.6639533701850269
 20
201.8775709666732894
 30
0.0
 11
3482.6164022316111186
 21
201.8771814770977073
 31
0.0
  0
LINE
  5
9CC6
  8
0
 10
3482.6359284320178631
 20
201.8773414154659065
 30
0.0
 11
3482.6639533701850269
 21
201.8756473723823888
 31
0.0
  0
LINE
  5
9CC7
  8
0
 10
3482.6537247236851726
 20
201.8762656705478946
 30
0.0
 11
3482.6639533701850269
 21
201.8763347620757997
 31
0.0
  0
ARC
  5
9CC8
  8
0
 10
3482.497417099921222
 20
201.9829529321870041
 30
0.0
 40
0.1577434487658484
 50
187.7777142435651001
 51
223.0680704228705906
  0
ARC
  5
9CC9
  8
0
 10
3482.6553096864909094
 20
195.1144962309608957
 30
0.0
 40
6.8584351667052443
 50
89.927790127915074
 51
92.1110630831606869
  0
ARC
  5
9CCA
  8
0
 10
3482.6440539034419999
 20
194.9389205902949982
 30
0.0
 40
7.0351327009701352
 50
89.8379338346996263
 51
92.1124230132397344
  0
ARC
  5
9CCB
  8
0
 10
3482.4202930743581419
 20
201.5184653114166053
 30
0.0
 40
0.4501564435936902
 50
92.2439128005521809
 51
100.1291946366928016
  0
ARC
  5
9CCC
  8
0
 10
3482.4351613989451835
 20
201.1117477712406014
 30
0.0
 40
0.8590059224810568
 50
93.3652999938048538
 51
98.4023074546892218
  0
ARC
  5
9CCD
  8
0
 10
3482.3453485401100806
 20
202.0844611758325016
 30
0.0
 40
0.128008750762261
 50
253.8026809098059005
 51
268.4597274653110048
  0
ARC
  5
9CCE
  8
0
 10
3482.9140927753142023
 20
202.1375631883865935
 30
0.0
 40
0.6295620777358861
 50
191.4377823588218916
 51
196.2367236016322067
  0
ARC
  5
9CCF
  8
0
 10
3482.6053434261748407
 20
198.4669213827941974
 30
0.0
 40
3.559175973525353
 50
89.0564517621778151
 51
94.9694170276135594
  0
ARC
  5
9CD0
  8
0
 10
3482.6335470888398049
 20
194.0980599752282103
 30
0.0
 40
7.9313334473864563
 50
89.7803451499454894
 51
92.6564566829043343
  0
ARC
  5
9CD1
  8
0
 10
3482.2941188480981509
 20
201.486066190529499
 30
0.0
 40
0.5355453830002076
 50
93.0149368097452509
 51
98.2291152701603494
  0
ARC
  5
9CD2
  8
0
 10
3482.2184593131860311
 20
202.0023754614925053
 30
0.0
 40
0.0137578968611213
 50
94.1435352751254015
 51
128.194990281325687
  0
ARC
  5
9CD3
  8
0
 10
3482.3040397792969998
 20
202.4775904270713056
 30
0.0
 40
0.4738376601310211
 50
258.5469501506415213
 51
269.3796269197267179
  0
ARC
  5
9CD4
  8
0
 10
3482.2390797518010004
 20
201.971792885478493
 30
0.0
 40
0.0507023977188638
 50
94.4837930073080798
 51
125.0618050683213056
  0
ARC
  5
9CD5
  8
0
 10
3482.6651131455828363
 20
197.1398839247335104
 30
0.0
 40
4.9013545003296279
 50
90.0135575250057371
 51
95.0330446396607442
  0
LINE
  5
9CD6
  8
0
 10
3482.6639533701850269
 20
202.0412382878481026
 30
0.0
 11
3482.3841214290141579
 21
202.0380676204572126
 31
0.0
  0
LINE
  5
9CD7
  8
0
 10
3482.3841214290141579
 20
202.0380676204572126
 30
0.0
 11
3482.2620636428500802
 21
202.0335393065325889
 31
0.0
  0
ARC
  5
9CD8
  8
0
 10
3482.2684865277169592
 20
201.8604145805149983
 30
0.0
 40
0.1732438287751797
 50
92.1246849225827162
 51
103.0694398128427025
  0
ARC
  5
9CD9
  8
0
 10
3482.2532163397299882
 20
201.9212468308386974
 30
0.0
 40
0.1105399178109558
 50
102.4896634905123989
 51
107.9147751483173039
  0
ARC
  5
9CDA
  8
0
 10
3482.2206228590548562
 20
202.0219856466048896
 30
0.0
 40
0.0046596633663018
 50
107.5984161234836023
 51
155.8712639473311867
  0
LINE
  5
9CDB
  8
0
 10
3482.2163703138839992
 20
202.0238904621481026
 30
0.0
 11
3482.2163703138839992
 21
202.0171251539408104
 31
0.0
  0
ARC
  5
9CDC
  8
0
 10
3482.2361738603822232
 20
202.2526470447508018
 30
0.0
 40
0.2345694650692434
 50
259.5728098109107123
 51
265.1570342966049907
  0
ARC
  5
9CDD
  8
0
 10
3482.1964148349129573
 20
202.0365946586454129
 30
0.0
 40
0.014889211864701
 50
233.5837091766684921
 51
259.5728098109107123
  0
ARC
  5
9CDE
  8
0
 10
3482.262429773320946
 20
201.7077071750825041
 30
0.0
 40
0.3256261139282505
 50
90.9169583478587953
 51
103.2898178307429049
  0
LINE
  5
9CDF
  8
0
 10
3482.5989927402838475
 20
201.3588811023481071
 30
0.0
 11
3482.5894301150851788
 21
201.3684437275481116
 31
0.0
  0
ARC
  5
9CE0
  8
0
 10
3482.6070079251940115
 20
201.4545255147170053
 30
0.0
 40
0.0903326124927109
 50
249.848816312259089
 51
260.7469523721031806
  0
ARC
  5
9CE1
  8
0
 10
3482.5759829395619818
 20
201.3699798586044096
 30
0.0
 40
0.0002741997766401
 50
145.6095218789274099
 51
249.8488163121768082
  0
ARC
  5
9CE2
  8
0
 10
3482.5777067144808825
 20
201.3267516613877035
 30
0.0
 40
0.0434268781164884
 50
82.2920805785145149
 51
92.5736830969915161
  0
ARC
  5
9CE3
  8
0
 10
3482.6674714963428414
 20
202.0480340747510013
 30
0.0
 40
0.6834224109787423
 50
262.8669162183492745
 51
269.7050511254493017
  0
ARC
  5
9CE4
  8
0
 10
3482.6727711474832176
 20
202.2136407891651118
 30
0.0
 40
0.8492960618342728
 50
263.4382175844719995
 51
269.4051185166661071
  0
ARC
  5
9CE5
  8
0
 10
3482.5879827551239032
 20
201.3537654310268863
 30
0.0
 40
0.0147494826899145
 50
84.3685287410276459
 51
100.8227985287958006
  0
ARC
  5
9CE6
  8
0
 10
3482.5956624964542243
 20
201.388994339390706
 30
0.0
 40
0.023225179935857
 50
243.2619718018422077
 51
260.3704068332118027
  0
ARC
  5
9CE7
  8
0
 10
3478.7269454961838164
 20
201.8116850035617063
 30
0.0
 40
0.4527559055000663
 50
269.9999999936686095
 51
90.0000000063313905
  0
ARC
  5
9CE8
  8
0
 10
3478.7269454961838164
 20
201.8116850035117125
 30
0.0
 40
0.4842519685000003
 50
249.2215785575752989
 51
110.7784213757355047
  0
ARC
  5
9CE9
  8
0
 10
3475.8253706929140208
 20
202.1660157123824035
 30
0.0
 40
0.0984251967292904
 50
89.9999999496354803
 51
180.0000000993740912
  0
LINE
  5
9CEA
  8
0
 10
3475.7269454961838164
 20
202.1660157122117027
 30
0.0
 11
3475.7269454974129985
 21
201.4573542949117098
 31
0.0
  0
ARC
  5
9CEB
  8
0
 10
3475.8253706943119141
 20
201.457354295009992
 30
0.0
 40
0.0984251968982997
 50
180.0000000572202055
 51
270.0000001003642751
  0
LINE
  5
9CEC
  8
0
 10
3475.825370692999968
 20
202.2644409091116984
 30
0.0
 11
3478.7269454961337942
 21
202.2644409091116984
 31
0.0
  0
LINE
  5
9CED
  8
0
 10
3475.8253706944838086
 20
201.3589290981117017
 30
0.0
 11
3478.7269454961337942
 21
201.3589290981117017
 31
0.0
  0
ARC
  5
9CEE
  8
0
 10
3478.7269454961337942
 20
201.8116850033979972
 30
0.0
 40
0.9842519685500636
 50
207.3871075004855129
 51
152.6128924929550124
  0
ARC
  5
9CEF
  8
0
 10
3482.6639167647408613
 20
201.8120533808547918
 30
0.0
 40
0.4723858074249655
 50
270.0044398823695246
 51
334.1001540600087196
  0
ARC
  5
9CF0
  8
0
 10
3483.2744813003951094
 20
201.5349558063246036
 30
0.0
 40
0.1986550415740534
 50
90.3336802110122363
 51
159.1333548809022886
  0
LINE
  5
9CF1
  8
0
 10
3483.2733243760621917
 20
201.73360747903061
 30
0.0
 11
3483.3214336850837753
 21
201.7336086927674899
 31
0.0
  0
ARC
  5
9CF2
  8
0
 10
3483.3214364278851463
 20
201.7651022588480885
 30
0.0
 40
0.031493566199998
 50
269.9950100644988993
 51
359.9904917034003802
  0
LINE
  5
9CF3
  8
0
 10
3483.3529299936508323
 20
201.7650970324567083
 30
0.0
 11
3483.3529297480849891
 21
202.5623173740480922
 31
0.0
  0
ARC
  5
9CF4
  8
0
 10
3483.3212098511089607
 20
202.5624299861840996
 30
0.0
 40
0.0317200968736015
 50
359.7965885801290256
 51
76.8694085698523537
  0
ARC
  5
9CF5
  8
0
 10
3483.1897011332821421
 20
200.5308891737765862
 30
0.0
 40
2.0670911378620822
 50
86.1522068375798682
 51
89.6224129519647477
  0
ARC
  5
9CF6
  8
0
 10
3482.6640319095840823
 20
201.8744009894481053
 30
0.0
 40
0.4724562574999993
 50
269.9904753591571875
 51
335.6570340907193781
  0
ARC
  5
9CF7
  8
0
 10
3483.2738764121759232
 20
201.5984948984255993
 30
0.0
 40
0.1968975266866545
 50
90.0012818912083787
 51
155.6570340907209129
  0
LINE
  5
9CF8
  8
0
 10
3483.2738720069442024
 20
201.7953924250629996
 30
0.0
 11
3483.3529299842989531
 21
201.795394193844686
 31
0.0
  0
ARC
  5
9CF9
  8
0
 10
3483.3216079944941157
 20
202.0743675595342097
 30
0.0
 40
0.0313219587212326
 50
269.6200821199839766
 51
0.1072228267922856
  0
ARC
  5
9CFA
  8
0
 10
3483.2217287424268761
 20
200.8529352647630901
 30
0.0
 40
1.194277468380796
 50
85.2126617611703239
 51
90.883033814716768
  0
LINE
  5
9CFB
  8
0
 10
3483.2033234488840208
 20
202.0470709005481069
 30
0.0
 11
3482.6639533701850269
 21
202.0470709005481069
 31
0.0
  0
LINE
  5
9CFC
  8
0
 10
3482.945728002559008
 20
201.8752351735481056
 30
0.0
 11
3482.6639533701850269
 21
201.8752351735481056
 31
0.0
  0
ARC
  5
9CFD
  8
0
 10
3482.6754152291919127
 20
207.909156192991702
 30
0.0
 40
6.0438933582963648
 50
269.8913421364023861
 51
271.8608586443493209
  0
ARC
  5
9CFE
  8
0
 10
3482.8700607537912219
 20
202.2869939163919071
 30
0.0
 40
0.4186535499006024
 50
269.7688533972691971
 51
280.4128386971194118
  0
ARC
  5
9CFF
  8
0
 10
3482.935678563213969
 20
201.8534628724374045
 30
0.0
 40
0.0239796648604635
 50
65.2233733984659096
 51
76.6732467548849854
  0
ARC
  5
9D00
  8
0
 10
3482.8373974389710384
 20
200.9524893369610083
 30
0.0
 40
0.9301185372277886
 50
83.591990270819764
 51
89.3993576536353345
  0
ARC
  5
9D01
  8
0
 10
3482.6719525468911343
 20
195.4083922971634024
 30
0.0
 40
6.4765344875836552
 50
88.3339286315298153
 51
90.0707661145560508
  0
LINE
  5
9D02
  8
0
 10
3482.6678903779838947
 20
201.8680917418481044
 30
0.0
 11
3482.6678903779838947
 21
201.8660991494481038
 31
0.0
  0
ARC
  5
9D03
  8
0
 10
3482.6645697371900496
 20
209.0139264057009996
 30
0.0
 40
7.1478280275820048
 50
269.9950593064309032
 51
270.4688471907456915
  0
LINE
  5
9D04
  8
0
 10
3482.7230592405908283
 20
201.8663376871274977
 30
0.0
 11
3482.7082752834839994
 21
201.8682632486481054
 31
0.0
  0
LINE
  5
9D05
  8
0
 10
3482.7082752834839994
 20
201.8682632486481054
 30
0.0
 11
3482.7082752834839994
 21
201.8682632486481054
 31
0.0
  0
LINE
  5
9D06
  8
0
 10
3482.7082752834839994
 20
201.8682632486481054
 30
0.0
 11
3482.6639533701850269
 21
201.86807502214549
 31
0.0
  0
ARC
  5
9D07
  8
0
 10
3482.9144515731250067
 20
201.8863385569194975
 30
0.0
 40
0.0133133495568216
 50
272.1987029575118981
 51
303.4877567511554162
  0
LINE
  5
9D08
  8
0
 10
3482.91496234228498
 20
201.8730350088480918
 30
0.0
 11
3482.8597878630839659
 21
201.8735509614481032
 31
0.0
  0
ARC
  5
9D09
  8
0
 10
3482.856695097912052
 20
201.8895508521696911
 30
0.0
 40
0.0162960639269226
 50
280.9402970433416726
 51
298.5410979267176117
  0
LINE
  5
9D0A
  8
0
 10
3482.909120926497053
 20
201.8725206474917115
 30
0.0
 11
3482.8557119725851408
 21
201.8730200902481045
 31
0.0
  0
LINE
  5
9D0B
  8
0
 10
3482.8557119725851408
 20
201.8730200902481045
 30
0.0
 11
3482.8397754344841815
 21
201.8717137494481051
 31
0.0
  0
LINE
  5
9D0C
  8
0
 10
3482.8397754344841815
 20
201.8717137494481051
 30
0.0
 11
3482.8884499243990831
 21
201.8707329957564127
 31
0.0
  0
LINE
  5
9D0D
  8
0
 10
3482.8884499243990831
 20
201.8707329957564127
 30
0.0
 11
3482.909120926497053
 21
201.8725206474917115
 31
0.0
  0
LINE
  5
9D0E
  8
0
 10
3482.8844418144572046
 20
201.8704405410281879
 30
0.0
 11
3482.8358384265839049
 21
201.8714757663481123
 31
0.0
  0
LINE
  5
9D0F
  8
0
 10
3482.8406052285640726
 20
201.8716970297328999
 30
0.0
 11
3482.8113900593839389
 21
201.8703409324481015
 31
0.0
  0
LINE
  5
9D10
  8
0
 10
3482.7631132107021585
 20
201.872025770182205
 30
0.0
 11
3482.8517805813839914
 21
201.8689313235481109
 31
0.0
  0
LINE
  5
9D11
  8
0
 10
3482.8517805813839914
 20
201.8689313235481109
 30
0.0
 11
3482.8844418144572046
 21
201.8704405410281879
 31
0.0
  0
LINE
  5
9D12
  8
0
 10
3482.8517344254210002
 20
201.868155684827002
 30
0.0
 11
3482.8002545194840422
 21
201.8699523076481057
 31
0.0
  0
LINE
  5
9D13
  8
0
 10
3482.8131907312690601
 20
201.8702780899050993
 30
0.0
 11
3482.7609182211849657
 21
201.8689616723480924
 31
0.0
  0
LINE
  5
9D14
  8
0
 10
3482.7609182211849657
 20
201.8689616723480924
 30
0.0
 11
3482.7968996789518314
 21
201.8673458280458135
 31
0.0
  0
LINE
  5
9D15
  8
0
 10
3482.7962848991851388
 20
201.8673734363875099
 30
0.0
 11
3482.9116913433990703
 21
201.87041536575191
 31
0.0
  0
LINE
  5
9D16
  8
0
 10
3482.803312456122967
 20
201.8666162282250127
 30
0.0
 11
3482.7604971018590732
 21
201.8685327432748124
 31
0.0
  0
LINE
  5
9D17
  8
0
 10
3482.7604971018590732
 20
201.8685327432748124
 30
0.0
 11
3482.7234867137840411
 21
201.8684054952481119
 31
0.0
  0
LINE
  5
9D18
  8
0
 10
3482.7234867137840411
 20
201.8684054952481119
 30
0.0
 11
3482.7382706708840487
 21
201.8664799336480939
 31
0.0
  0
LINE
  5
9D19
  8
0
 10
3482.7382706708840487
 20
201.8664799336480939
 30
0.0
 11
3482.884715101844904
 21
201.8686427778870893
 31
0.0
  0
ARC
  5
9D1A
  8
0
 10
3482.8365177767200294
 20
201.9517784270404945
 30
0.0
 40
0.0799831835016217
 50
268.6691362062447865
 51
286.1724865614365854
  0
LINE
  5
9D1B
  8
0
 10
3482.8351493306167868
 20
201.8718069508861106
 30
0.0
 11
3482.7820647580701916
 21
201.8728777578398024
 31
0.0
  0
ARC
  5
9D1C
  8
0
 10
3482.7849764198631419
 20
201.9389684703176044
 30
0.0
 40
0.0661548187980672
 50
264.3211755141705908
 51
284.6361323977308757
  0
LINE
  5
9D1D
  8
0
 10
3482.7957843594840597
 20
201.8749603743480918
 30
0.0
 11
3482.8587954880840698
 21
201.8749603743480918
 31
0.0
  0
LINE
  5
9D1E
  8
0
 10
3482.6912297607841538
 20
201.8749603743480918
 30
0.0
 11
3482.681001114285209
 21
201.8743420761479967
 31
0.0
  0
LINE
  5
9D1F
  8
0
 10
3482.681001114285209
 20
201.8743420761479967
 30
0.0
 11
3482.6987974059838962
 21
201.8732663312480895
 31
0.0
  0
LINE
  5
9D20
  8
0
 10
3482.6987974059838962
 20
201.8732663312480895
 30
0.0
 11
3482.7268223442852104
 21
201.8749603743480918
 31
0.0
  0
LINE
  5
9D21
  8
0
 10
3482.7268223442852104
 20
201.8749603743480918
 30
0.0
 11
3482.6912297607841538
 21
201.8749603743480918
 31
0.0
  0
LINE
  5
9D22
  8
0
 10
3482.8016923912841776
 20
201.8749603743480918
 30
0.0
 11
3482.7327384299837831
 21
201.8749603743480918
 31
0.0
  0
ARC
  5
9D23
  8
0
 10
3482.7010937477271
 20
202.1412498528316917
 30
0.0
 40
0.2681631448693593
 50
270.1413793168225084
 51
276.7769988480926031
  0
LINE
  5
9D24
  8
0
 10
3482.7017554488861606
 20
201.8730875243479943
 30
0.0
 11
3482.7332784136851842
 21
201.8711820335481093
 31
0.0
  0
ARC
  5
9D25
  8
0
 10
3482.7337562601787795
 20
202.3821910755812894
 30
0.0
 40
0.5110092654512127
 50
269.9464225147436878
 51
277.2213518257439091
  0
LINE
  5
9D26
  8
0
 10
3482.7579648802839074
 20
201.8691401950480895
 30
0.0
 11
3482.7294133318850982
 21
201.8708660705480895
 31
0.0
  0
LINE
  5
9D27
  8
0
 10
3482.7294133318850982
 20
201.8708660705480895
 30
0.0
 11
3482.6639533701850269
 21
201.870253935339008
 31
0.0
  0
LINE
  5
9D28
  8
0
 10
3482.6678903779838947
 20
201.8702907514480955
 30
0.0
 11
3482.6678903779838947
 21
201.8682978820480969
 31
0.0
  0
LINE
  5
9D29
  8
0
 10
3482.7579648802839074
 20
201.8691401950480895
 30
0.0
 11
3482.6639533701850269
 21
201.8682610659373893
 31
0.0
  0
LINE
  5
9D2A
  8
0
 10
3482.6639533701850269
 20
201.8704948875895013
 30
0.0
 11
3482.7264593159839023
 21
201.8710446339480882
 31
0.0
  0
LINE
  5
9D2B
  8
0
 10
3482.7264593159839023
 20
201.8710446339480882
 30
0.0
 11
3482.6943452910400083
 21
201.8729402126135994
 31
0.0
  0
LINE
  5
9D2C
  8
0
 10
3482.7030257064147918
 20
201.8730107401987084
 30
0.0
 11
3482.6639533701850269
 21
201.8726932810218955
 31
0.0
  0
LINE
  5
9D2D
  8
0
 10
3482.6639533701850269
 20
201.8728993804226945
 30
0.0
 11
3482.7115045087571161
 21
201.8732888699983903
 31
0.0
  0
LINE
  5
9D2E
  8
0
 10
3482.6919783083508264
 20
201.8731289316301059
 30
0.0
 11
3482.6639533701850269
 21
201.8748229747135952
 31
0.0
  0
LINE
  5
9D2F
  8
0
 10
3482.6741820166839716
 20
201.8742046765480893
 30
0.0
 11
3482.6639533701850269
 21
201.8741355850202126
 31
0.0
  0
LINE
  5
9D30
  8
0
 10
3482.6678903779838947
 20
201.8823786052479079
 30
0.0
 11
3482.6678903779838947
 21
201.8843711976479085
 31
0.0
  0
ARC
  5
9D31
  8
0
 10
3482.6645697371968708
 20
194.736543941395098
 30
0.0
 40
7.1478280275820048
 50
89.531152809332383
 51
90.0049406936472565
  0
LINE
  5
9D32
  8
0
 10
3482.7230592405908283
 20
201.8841326599685999
 30
0.0
 11
3482.7082752834839994
 21
201.8822070984479922
 31
0.0
  0
LINE
  5
9D33
  8
0
 10
3482.7082752834839994
 20
201.8822070984479922
 30
0.0
 11
3482.7082752834839994
 21
201.8822070984479922
 31
0.0
  0
LINE
  5
9D34
  8
0
 10
3482.7082752834839994
 20
201.8822070984479922
 30
0.0
 11
3482.6639533701850269
 21
201.8823953249504939
 31
0.0
  0
ARC
  5
9D35
  8
0
 10
3482.9144515731250067
 20
201.8641317901767991
 30
0.0
 40
0.0133133495568216
 50
56.5122432489069126
 51
87.8012970425662758
  0
LINE
  5
9D36
  8
0
 10
3482.91496234228498
 20
201.8774353382482047
 30
0.0
 11
3482.8597878630839659
 21
201.8769193856481081
 31
0.0
  0
ARC
  5
9D37
  8
0
 10
3482.856695097912052
 20
201.8609194949266055
 30
0.0
 40
0.0162960639269226
 50
61.4589020733422231
 51
79.0597029567372402
  0
LINE
  5
9D38
  8
0
 10
3482.909120926497053
 20
201.8779496996046134
 30
0.0
 11
3482.8557119725851408
 21
201.8774502568481921
 31
0.0
  0
LINE
  5
9D39
  8
0
 10
3482.8557119725851408
 20
201.8774502568481921
 30
0.0
 11
3482.8397754344841815
 21
201.8787565976481062
 31
0.0
  0
LINE
  5
9D3A
  8
0
 10
3482.8397754344841815
 20
201.8787565976481062
 30
0.0
 11
3482.8884499243990831
 21
201.8797373513397986
 31
0.0
  0
LINE
  5
9D3B
  8
0
 10
3482.8884499243990831
 20
201.8797373513397986
 30
0.0
 11
3482.909120926497053
 21
201.8779496996046134
 31
0.0
  0
LINE
  5
9D3C
  8
0
 10
3482.8844418144572046
 20
201.8800298060681087
 30
0.0
 11
3482.8358384265839049
 21
201.878994580748099
 31
0.0
  0
LINE
  5
9D3D
  8
0
 10
3482.8406052285640726
 20
201.8787733173633114
 30
0.0
 11
3482.8113900593839389
 21
201.8801294146481098
 31
0.0
  0
LINE
  5
9D3E
  8
0
 10
3482.7631132107021585
 20
201.8784445769138927
 30
0.0
 11
3482.8517805813839914
 21
201.8815390235481004
 31
0.0
  0
LINE
  5
9D3F
  8
0
 10
3482.8517805813839914
 20
201.8815390235481004
 30
0.0
 11
3482.8844418144572046
 21
201.8800298060681087
 31
0.0
  0
LINE
  5
9D40
  8
0
 10
3482.8517344254210002
 20
201.8823146622692093
 30
0.0
 11
3482.8002545194840422
 21
201.8805180394481056
 31
0.0
  0
LINE
  5
9D41
  8
0
 10
3482.8131907312690601
 20
201.880192257191112
 30
0.0
 11
3482.7609182211849657
 21
201.8815086747480052
 31
0.0
  0
LINE
  5
9D42
  8
0
 10
3482.7609182211849657
 20
201.8815086747480052
 30
0.0
 11
3482.7968996789518314
 21
201.8831245190503978
 31
0.0
  0
LINE
  5
9D43
  8
0
 10
3482.7962848991851388
 20
201.8830969107085878
 30
0.0
 11
3482.9031664814660871
 21
201.8802796830759974
 31
0.0
  0
LINE
  5
9D44
  8
0
 10
3482.7993021973888972
 20
201.8836746103432063
 30
0.0
 11
3482.7604971018590732
 21
201.8819376038213989
 31
0.0
  0
LINE
  5
9D45
  8
0
 10
3482.7604971018590732
 20
201.8819376038213989
 30
0.0
 11
3482.7234867137840411
 21
201.8820648518480141
 31
0.0
  0
LINE
  5
9D46
  8
0
 10
3482.7234867137840411
 20
201.8820648518480141
 30
0.0
 11
3482.7382706708840487
 21
201.8839904134480037
 31
0.0
  0
LINE
  5
9D47
  8
0
 10
3482.7382706708840487
 20
201.8839904134480037
 30
0.0
 11
3482.8695719889751672
 21
201.8820512185089058
 31
0.0
  0
ARC
  5
9D48
  8
0
 10
3482.8365177767200294
 20
201.7986919200556883
 30
0.0
 40
0.0799831835016217
 50
73.8275134386184817
 51
91.3308637938073247
  0
LINE
  5
9D49
  8
0
 10
3482.8351493306167868
 20
201.8786633962101007
 30
0.0
 11
3482.7820647580701916
 21
201.8775925892562952
 31
0.0
  0
ARC
  5
9D4A
  8
0
 10
3482.7849764198631419
 20
201.8115018767786069
 30
0.0
 40
0.0661548187980672
 50
75.3638676023232392
 51
95.6788244859078816
  0
LINE
  5
9D4B
  8
0
 10
3482.7957843594840597
 20
201.8755099727480911
 30
0.0
 11
3482.8587954880840698
 21
201.8755099727480911
 31
0.0
  0
LINE
  5
9D4C
  8
0
 10
3482.6912297607841538
 20
201.8755099727480058
 30
0.0
 11
3482.681001114285209
 21
201.8761282709479872
 31
0.0
  0
LINE
  5
9D4D
  8
0
 10
3482.681001114285209
 20
201.8761282709479872
 30
0.0
 11
3482.6987974059838962
 21
201.8772040158480081
 31
0.0
  0
LINE
  5
9D4E
  8
0
 10
3482.6987974059838962
 20
201.8772040158480081
 30
0.0
 11
3482.7268223442852104
 21
201.8755099727480058
 31
0.0
  0
LINE
  5
9D4F
  8
0
 10
3482.7268223442852104
 20
201.8755099727480058
 30
0.0
 11
3482.6912297607841538
 21
201.8755099727480058
 31
0.0
  0
LINE
  5
9D50
  8
0
 10
3482.8016923912841776
 20
201.8755099727480911
 30
0.0
 11
3482.7327384299837831
 21
201.8755099727480058
 31
0.0
  0
ARC
  5
9D51
  8
0
 10
3482.7010937477271
 20
201.6092204942644059
 30
0.0
 40
0.2681631448693593
 50
83.2230011519859829
 51
89.8586206832296455
  0
LINE
  5
9D52
  8
0
 10
3482.7017554488861606
 20
201.8773828227481033
 30
0.0
 11
3482.7332784136851842
 21
201.8792883135479883
 31
0.0
  0
ARC
  5
9D53
  8
0
 10
3482.7337562601787795
 20
201.3682792715148082
 30
0.0
 40
0.5110092654512127
 50
82.7786481743346485
 51
90.053577485308395
  0
LINE
  5
9D54
  8
0
 10
3482.7579648802839074
 20
201.8813301520480081
 30
0.0
 11
3482.7294133318850982
 21
201.8796042765480081
 31
0.0
  0
LINE
  5
9D55
  8
0
 10
3482.7294133318850982
 20
201.8796042765480081
 30
0.0
 11
3482.6639533701850269
 21
201.8802164117570896
 31
0.0
  0
LINE
  5
9D56
  8
0
 10
3482.6678903779838947
 20
201.8801795956480021
 30
0.0
 11
3482.6678903779838947
 21
201.8821724650480007
 31
0.0
  0
LINE
  5
9D57
  8
0
 10
3482.7579648802839074
 20
201.8813301520480081
 30
0.0
 11
3482.6639533701850269
 21
201.8822092811587083
 31
0.0
  0
LINE
  5
9D58
  8
0
 10
3482.6639533701850269
 20
201.879975459506511
 30
0.0
 11
3482.7264593159839023
 21
201.8794257131480094
 31
0.0
  0
LINE
  5
9D59
  8
0
 10
3482.7264593159839023
 20
201.8794257131480094
 30
0.0
 11
3482.6943452910400083
 21
201.8775301344824982
 31
0.0
  0
LINE
  5
9D5A
  8
0
 10
3482.7030257064147918
 20
201.8774596068973892
 30
0.0
 11
3482.6639533701850269
 21
201.8777770660742021
 31
0.0
  0
LINE
  5
9D5B
  8
0
 10
3482.6639533701850269
 20
201.8775709666732894
 30
0.0
 11
3482.7115045087571161
 21
201.8771814770977073
 31
0.0
  0
LINE
  5
9D5C
  8
0
 10
3482.6919783083508264
 20
201.8773414154659065
 30
0.0
 11
3482.6639533701850269
 21
201.8756473723823888
 31
0.0
  0
LINE
  5
9D5D
  8
0
 10
3482.6741820166839716
 20
201.8762656705478946
 30
0.0
 11
3482.6639533701850269
 21
201.8763347620757997
 31
0.0
  0
ARC
  5
9D5E
  8
0
 10
3482.8304896404470128
 20
201.9829529321870041
 30
0.0
 40
0.1577434487658443
 50
316.931929577129381
 51
352.2222857564349283
  0
ARC
  5
9D5F
  8
0
 10
3482.6725970538768706
 20
195.1144962309608957
 30
0.0
 40
6.8584351667052443
 50
87.8889369168392847
 51
90.072209872084926
  0
ARC
  5
9D60
  8
0
 10
3482.6838528369271444
 20
194.9389205902949982
 30
0.0
 40
7.0351327009701352
 50
87.8875769867602656
 51
90.1620661653003737
  0
ARC
  5
9D61
  8
0
 10
3482.9076136660100929
 20
201.5184653114166053
 30
0.0
 40
0.4501564435936902
 50
79.87080536330717
 51
87.7560871994478333
  0
ARC
  5
9D62
  8
0
 10
3482.8927453414221418
 20
201.1117477712406014
 30
0.0
 40
0.8590059224810568
 50
81.5976925453108066
 51
86.634700006195132
  0
ARC
  5
9D63
  8
0
 10
3482.9825582002590636
 20
202.0844611758325016
 30
0.0
 40
0.128008750762261
 50
271.5402725346891089
 51
286.197319090194128
  0
ARC
  5
9D64
  8
0
 10
3482.4138139650549419
 20
202.1375631883865935
 30
0.0
 40
0.6295620777358861
 50
343.7632763983676796
 51
348.5622176411779947
  0
ARC
  5
9D65
  8
0
 10
3482.7225633141938488
 20
198.4669213827941974
 30
0.0
 40
3.559175973525353
 50
85.0305829723864548
 51
90.9435482378221991
  0
ARC
  5
9D66
  8
0
 10
3482.6943596515279751
 20
194.0980599752282103
 30
0.0
 40
7.9313334473864563
 50
87.3435433170956941
 51
90.2196548500544964
  0
ARC
  5
9D67
  8
0
 10
3483.0337878922709933
 20
201.486066190529499
 30
0.0
 40
0.5355453830002076
 50
81.7708847298396648
 51
86.9850631902547349
  0
ARC
  5
9D68
  8
0
 10
3483.1094474271831132
 20
202.0023754614925053
 30
0.0
 40
0.0137578968611213
 50
51.8050097186743201
 51
85.8564647248745842
  0
ARC
  5
9D69
  8
0
 10
3483.0238669610707802
 20
202.4775904270713056
 30
0.0
 40
0.4738376601310211
 50
270.6203730802732821
 51
281.4530498493584787
  0
ARC
  5
9D6A
  8
0
 10
3483.0888269885667796
 20
201.971792885478493
 30
0.0
 40
0.0507023977188638
 50
54.9381949316786375
 51
85.516206992691906
  0
ARC
  5
9D6B
  8
0
 10
3482.6627935947858532
 20
197.1398839247335104
 30
0.0
 40
4.9013545003296279
 50
84.96695536033927
 51
89.9864424749942913
  0
LINE
  5
9D6C
  8
0
 10
3482.6639533701850269
 20
202.0412382878481026
 30
0.0
 11
3482.9437853113549863
 21
202.0380676204572126
 31
0.0
  0
LINE
  5
9D6D
  8
0
 10
3482.9437853113549863
 20
202.0380676204572126
 30
0.0
 11
3483.0658430975167903
 21
202.0335393065325889
 31
0.0
  0
ARC
  5
9D6E
  8
0
 10
3483.0594202126508208
 20
201.8604145805149983
 30
0.0
 40
0.1732438287751797
 50
76.9305601871572833
 51
87.8753150774172838
  0
ARC
  5
9D6F
  8
0
 10
3483.074690400639156
 20
201.9212468308386974
 30
0.0
 40
0.1105399178109558
 50
72.0852248516827103
 51
77.5103365094875869
  0
ARC
  5
9D70
  8
0
 10
3483.1072838813129238
 20
202.0219856466048896
 30
0.0
 40
0.0046596633663018
 50
24.1287360526688097
 51
72.4015838765163693
  0
LINE
  5
9D71
  8
0
 10
3483.1115364264851451
 20
202.0238904621481026
 30
0.0
 11
3483.1115364264851451
 21
202.0171251539408104
 31
0.0
  0
ARC
  5
9D72
  8
0
 10
3483.0917328799860115
 20
202.2526470447508018
 30
0.0
 40
0.2345694650692434
 50
274.8429657033950093
 51
280.4271901890892877
  0
ARC
  5
9D73
  8
0
 10
3483.1314919054548227
 20
202.0365946586454129
 30
0.0
 40
0.014889211864701
 50
280.4271901890892877
 51
306.4162908233315079
  0
ARC
  5
9D74
  8
0
 10
3483.0654769670481983
 20
201.7077071750825041
 30
0.0
 40
0.3256261139282505
 50
76.7101821692570525
 51
89.0830416521412047
  0
LINE
  5
9D75
  8
0
 10
3482.7289140000839325
 20
201.3588811023481071
 30
0.0
 11
3482.7384766252839654
 21
201.3684437275481116
 31
0.0
  0
ARC
  5
9D76
  8
0
 10
3482.7208988151751328
 20
201.4545255147170053
 30
0.0
 40
0.0903326124927109
 50
279.2530476278967058
 51
290.1511836877407973
  0
ARC
  5
9D77
  8
0
 10
3482.7519238008071625
 20
201.3699798586044096
 30
0.0
 40
0.0002741997766401
 50
290.1511836878232202
 51
34.3904781210725332
  0
ARC
  5
9D78
  8
0
 10
3482.750200025887807
 20
201.3267516613877035
 30
0.0
 40
0.0434268781164884
 50
87.4263169030085265
 51
97.7079194214854994
  0
ARC
  5
9D79
  8
0
 10
3482.6604352440258481
 20
202.0480340747510013
 30
0.0
 40
0.6834224109787423
 50
270.2949488745506983
 51
277.1330837816506119
  0
ARC
  5
9D7A
  8
0
 10
3482.6551355928859266
 20
202.2136407891651118
 30
0.0
 40
0.8492960618342728
 50
270.5948814833338929
 51
276.5617824155280005
  0
ARC
  5
9D7B
  8
0
 10
3482.7399239852447863
 20
201.3537654310268863
 30
0.0
 40
0.0147494826899145
 50
79.1772014712041141
 51
95.6314712589723541
  0
ARC
  5
9D7C
  8
0
 10
3482.7322442439149199
 20
201.388994339390706
 30
0.0
 40
0.023225179935857
 50
279.6295931667881973
 51
296.7380281981577923
  0
LINE
  5
9D7D
  8
0
 10
3482.1245832914851235
 20
202.5979354250117979
 30
0.0
 11
3483.2033234488840208
 21
202.5979354250117979
 31
0.0
  0
ARC
  5
9D7E
  8
0
 10
3482.6639533701850269
 20
201.8116850034481047
 30
0.0
 40
0.9842519685000006
 50
134.4270051953006941
 51
45.572994804699313
  0
ARC
  5
9D7F
  8
0
 10
3482.6639533701850269
 20
201.8116850034481047
 30
0.0
 40
0.9842519685000006
 50
52.9155657317057191
 51
127.0844342682942028
  0
ARC
  5
9D81
  8
0
 10
3486.6009612441839636
 20
201.8116850035617063
 30
0.0
 40
0.4527559055000663
 50
89.9999999936686237
 51
270.0000000063313905
  0
ARC
  5
9D82
  8
0
 10
3486.6009612441839636
 20
201.8116850035117125
 30
0.0
 40
0.4842519685000003
 50
69.2215786242644668
 51
290.7784214424245874
  0
ARC
  5
9D83
  8
0
 10
3489.5025360474551235
 20
202.1660157123824035
 30
0.0
 40
0.0984251967292904
 50
359.9999999006258236
 51
90.0000000503645339
  0
LINE
  5
9D84
  8
0
 10
3489.6009612441839636
 20
202.1660157122117027
 30
0.0
 11
3489.6009612429547815
 21
201.4573542949117098
 31
0.0
  0
ARC
  5
9D85
  8
0
 10
3489.5025360460567754
 20
201.457354295009992
 30
0.0
 40
0.0984251968982997
 50
269.9999998996357249
 51
359.9999999427797093
  0
LINE
  5
9D86
  8
0
 10
3489.502536047367812
 20
202.2644409091116984
 30
0.0
 11
3486.6009612442339858
 21
202.2644409091116984
 31
0.0
  0
LINE
  5
9D87
  8
0
 10
3489.5025360458848809
 20
201.3589290981117017
 30
0.0
 11
3486.6009612442339858
 21
201.3589290981117017
 31
0.0
  0
ARC
  5
9D88
  8
0
 10
3486.6009612442339858
 20
201.8116850033979972
 30
0.0
 40
0.9842519685500636
 50
27.3871075070449912
 51
332.6128924995146008
  0
LINE
  5
9D89
  8
0
 10
3482.5989927402838475
 20
201.3588811023481071
 30
0.0
 11
3482.7289140000839325
 21
201.3588811023481071
 31
0.0
  0
ENDSEC
  0
EOF
