  0
SECTION
  2
HEADER
  9
$ACADVER
  1
AC1009
  9
$INSBASE
 10
363.2522179513159131
 20
-7.476052589194448
 30
0.0
  9
$EXTMIN
 10
354.0720127449143888
 20
-7.4817052074014434
 30
-0.0000000349181948
  9
$EXTMAX
 10
364.8152990602338832
 20
-0.9820315876963051
 30
0.0000000814935746
  9
$LIMMIN
 10
0.0
 20
0.0
  9
$LIMMAX
 10
11.6929133858000007
 20
8.2677165353999982
  9
$ORTHOMODE
 70
     0
  9
$REGENMODE
 70
     1
  9
$FILLMODE
 70
     1
  9
$QTEXTMODE
 70
     0
  9
$MIRRTEXT
 70
     0
  9
$DRAGMODE
 70
     2
  9
$LTSCALE
 40
0.6431102362
  9
$OSMODE
 70
  4095
  9
$ATTMODE
 70
     1
  9
$TEXTSIZE
 40
0.2
  9
$TRACEWID
 40
0.05
  9
$TEXTSTYLE
  7
STANDARD
  9
$CLAYER
  8
0
  9
$CELTYPE
  6
BYLAYER
  9
$CECOLOR
 62
   256
  9
$DIMSCALE
 40
1.0
  9
$DIMASZ
 40
0.1875
  9
$DIMEXO
 40
0.0625
  9
$DIMDLI
 40
0.4443307087
  9
$DIMRND
 40
0.0
  9
$DIMDLE
 40
0.0
  9
$DIMEXE
 40
0.125
  9
$DIMTP
 40
0.01
  9
$DIMTM
 40
0.01
  9
$DIMTXT
 40
0.15625
  9
$DIMCEN
 40
0.1052362205
  9
$DIMTSZ
 40
0.0
  9
$DIMTOL
 70
     1
  9
$DIMLIM
 70
     0
  9
$DIMTIH
 70
     1
  9
$DIMTOH
 70
     1
  9
$DIMSE1
 70
     0
  9
$DIMSE2
 70
     0
  9
$DIMTAD
 70
     0
  9
$DIMZIN
 70
     0
  9
$DIMBLK
  1

  9
$DIMASO
 70
     1
  9
$DIMSHO
 70
     1
  9
$DIMPOST
  1
\X
  9
$DIMAPOST
  1

  9
$DIMALT
 70
     1
  9
$DIMALTD
 70
     2
  9
$DIMALTF
 40
25.3999999999999986
  9
$DIMLFAC
 40
1.0
  9
$DIMTOFL
 70
     0
  9
$DIMTVP
 40
0.0
  9
$DIMTIX
 70
     0
  9
$DIMSOXD
 70
     0
  9
$DIMSAH
 70
     0
  9
$DIMBLK1
  1

  9
$DIMBLK2
  1

  9
$DIMSTYLE
  2
STANDARD
  9
$DIMCLRD
 70
     0
  9
$DIMCLRE
 70
     0
  9
$DIMCLRT
 70
     0
  9
$DIMTFAC
 40
1.0
  9
$DIMGAP
 40
0.09
  9
$LUNITS
 70
     2
  9
$LUPREC
 70
     4
  9
$SKETCHINC
 40
0.1
  9
$FILLETRAD
 40
0.0
  9
$AUNITS
 70
     0
  9
$AUPREC
 70
     0
  9
$MENU
  1
.
  9
$ELEVATION
 40
0.0
  9
$PELEVATION
 40
0.0
  9
$THICKNESS
 40
0.0
  9
$LIMCHECK
 70
     0
  9
$BLIPMODE
 70
     0
  9
$CHAMFERA
 40
0.0
  9
$CHAMFERB
 40
0.0
  9
$SKPOLY
 70
     0
  9
$TDCREATE
 40
2458018.639108797069639
  9
$TDUPDATE
 40
2460175.789224537089467
  9
$TDINDWG
 40
0.3274300926
  9
$TDUSRTIMER
 40
0.3274300926
  9
$USRTIMER
 70
     1
  9
$ANGBASE
 50
0.0
  9
$ANGDIR
 70
     0
  9
$PDMODE
 70
     0
  9
$PDSIZE
 40
0.3125
  9
$PLINEWID
 40
0.0
  9
$COORDS
 70
     1
  9
$SPLFRAME
 70
     0
  9
$SPLINETYPE
 70
     6
  9
$SPLINESEGS
 70
     8
  9
$ATTDIA
 70
     1
  9
$ATTREQ
 70
     1
  9
$HANDLING
 70
     1
  9
$HANDSEED
  5
AEF8
  9
$SURFTAB1
 70
     6
  9
$SURFTAB2
 70
     6
  9
$SURFTYPE
 70
     6
  9
$SURFU
 70
     6
  9
$SURFV
 70
     6
  9
$UCSNAME
  2

  9
$UCSORG
 10
0.0
 20
0.0
 30
0.0
  9
$UCSXDIR
 10
1.0
 20
0.0
 30
0.0
  9
$UCSYDIR
 10
0.0
 20
1.0
 30
0.0
  9
$PUCSNAME
  2

  9
$PUCSORG
 10
0.0
 20
0.0
 30
0.0
  9
$PUCSXDIR
 10
1.0
 20
0.0
 30
0.0
  9
$PUCSYDIR
 10
0.0
 20
1.0
 30
0.0
  9
$USERI1
 70
     0
  9
$USERI2
 70
     0
  9
$USERI3
 70
     0
  9
$USERI4
 70
     0
  9
$USERI5
 70
     0
  9
$USERR1
 40
0.0
  9
$USERR2
 40
0.0
  9
$USERR3
 40
0.0
  9
$USERR4
 40
0.0
  9
$USERR5
 40
0.0
  9
$WORLDVIEW
 70
     1
  9
$SHADEDGE
 70
     3
  9
$SHADEDIF
 70
    70
  9
$TILEMODE
 70
     1
  9
$MAXACTVP
 70
    64
  9
$PLIMCHECK
 70
     0
  9
$PEXTMIN
 10
1.0000000000000000E+20
 20
1.0000000000000000E+20
 30
1.0000000000000000E+20
  9
$PEXTMAX
 10
-1.0000000000000000E+20
 20
-1.0000000000000000E+20
 30
-1.0000000000000000E+20
  9
$PLIMMIN
 10
0.0
 20
0.0
  9
$PLIMMAX
 10
12.0
 20
9.0
  9
$UNITMODE
 70
     0
  9
$VISRETAIN
 70
     1
  9
$PLINEGEN
 70
     0
  9
$PSLTSCALE
 70
     1
  0
ENDSEC
  0
SECTION
  2
TABLES
  0
TABLE
  2
VPORT
 70
     1
  0
VPORT
  2
*ACTIVE
 70
     0
 10
0.0
 20
0.0
 11
1.0
 21
1.0
 12
264.1193949048363834
 22
-11.26820040877171
 13
0.0
 23
0.0
 14
1.0
 24
1.0
 15
0.0
 25
0.0
 16
-0.0000000000000142
 26
0.0
 36
39.3282560748450578
 17
95.3242609977377526
 27
7.0363320112228394
 37
0.0
 40
6.5556248990713231
 41
2.7227011494252871
 42
50.0
 43
0.0
 44
0.0
 50
0.0
 51
0.0
 71
     0
 72
   100
 73
     1
 74
     1
 75
     0
 76
     0
 77
     0
 78
     0
  0
ENDTAB
  0
TABLE
  2
LTYPE
 70
     2
  0
LTYPE
  2
CONTINUOUS
 70
     0
  3
Solid line
 72
    65
 73
     0
 40
0.0
  0
LTYPE
  2
PHANTOM2
 70
     0
  3
___ _ _ ___ _ _ ___ _ _ ___ _ _
 72
    65
 73
     6
 40
1.25
 49
0.625
 49
-0.125
 49
0.125
 49
-0.125
 49
0.125
 49
-0.125
  0
ENDTAB
  0
TABLE
  2
LAYER
 70
     2
  0
LAYER
  2
0
 70
     0
 62
   255
  6
CONTINUOUS
  0
LAYER
  2
DEFPOINTS
 70
     0
 62
     7
  6
CONTINUOUS
  0
ENDTAB
  0
TABLE
  2
STYLE
 70
     1
  0
STYLE
  2
STANDARD
 70
     0
 40
0.0
 41
0.8
 50
0.0
 71
     0
 42
0.2
  3
txt
  4

  0
ENDTAB
  0
TABLE
  2
VIEW
 70
     0
  0
ENDTAB
  0
TABLE
  2
UCS
 70
     0
  0
ENDTAB
  0
TABLE
  2
APPID
 70
    10
  0
APPID
  2
ACAD
 70
     0
  0
APPID
  2
ACAD_MLEADERVER
 70
     0
  0
APPID
  2
ACAD_DSTYLE_DIMJAG
 70
     0
  0
APPID
  2
ACAD_DSTYLE_DIMTALN
 70
     0
  0
APPID
  2
ACAD_NAV_VCDISPLAY
 70
     0
  0
APPID
  2
ACAD_EXEMPT_FROM_CAD_STANDARDS
 70
     0
  0
APPID
  2
ACAECLAYERSTANDARD
 70
     0
  0
APPID
  2
ACCMTRANSPARENCY
 70
     0
  0
APPID
  2
DCO15
 70
     0
  0
APPID
  2
ACDBATTR
 70
     0
  0
ENDTAB
  0
TABLE
  2
DIMSTYLE
 70
     1
  0
DIMSTYLE
  2
STANDARD
 70
     0
  3

  4

  5

  6

  7

 40
1.0
 41
0.1875
 42
0.0625
 43
0.38
 44
0.125
 45
0.0
 46
0.0
 47
0.01
 48
0.01
140
0.15625
141
0.09
142
0.0
143
25.3999999999999986
144
1.0
145
0.0
146
1.0
147
0.09
 71
     1
 72
     0
 73
     1
 74
     1
 75
     0
 76
     0
 77
     0
 78
     4
170
     0
171
     2
172
     0
173
     0
174
     0
175
     0
176
     0
177
     0
178
     0
  0
ENDTAB
  0
ENDSEC
  0
SECTION
  2
BLOCKS
  0
BLOCK
  8
0
  2
$MODEL_SPACE
 70
     0
 10
0.0
 20
0.0
 30
0.0
  3
$MODEL_SPACE
  1

  0
ENDBLK
  5
21
  8
0
  0
BLOCK
 67
     1
  8
0
  2
$PAPER_SPACE
 70
     0
 10
0.0
 20
0.0
 30
0.0
  3
$PAPER_SPACE
  1

  0
ENDBLK
  5
1D
 67
     1
  8
0
  0
BLOCK
  8
0
  2
_FILLED
 70
     0
 10
0.0
 20
0.0
 30
0.0
  3
_FILLED
  1

  0
SOLID
  5
92B9
  8
0
  6
BYBLOCK
 62
     0
 10
0.0
 20
0.0
 30
0.0
 11
-1.0
 21
0.1666666667
 31
0.0
 12
-1.0
 22
-0.1666666667
 32
0.0
 13
-1.0
 23
-0.1666666667
 33
0.0
  0
ENDBLK
  5
92BA
  8
0
  6
BYBLOCK
 62
     0
  0
ENDSEC
  0
SECTION
  2
ENTITIES
  0
ATTDEF
  5
7A6E
  8
DEFPOINTS
 10
363.2522601333948842
 20
-7.4776440424101898
 30
0.0
 40
0.001
  1
K-73081T-3
  3

  2
MODELNUMBER
 70
     0
1001
ACDBATTR
1070
     0
1070
     1
  0
ATTDEF
  5
7A6F
  8
DEFPOINTS
 10
363.2522601333948842
 20
-7.4793107090768549
 30
0.0
 40
0.001
  1
COMPOSED
  3

  2
TRADENAME
 70
     0
1001
ACDBATTR
1070
     0
1070
     1
  0
ATTDEF
  5
7A70
  8
DEFPOINTS
 10
363.2522601333948842
 20
-7.4809773757435201
 30
0.0
 40
0.001
  1
BATH FILLER
  3

  2
PRODUCT
 70
     0
1001
ACDBATTR
1070
     0
1070
     1
  0
LINE
  5
A9D7
  8
0
 10
354.1352944471515229
 20
-0.9826183495789386
 30
0.0
 11
364.1669460330497827
 21
-1.3329330292946111
 31
0.0
  0
LINE
  5
A9D8
  8
0
 10
364.1973466936158275
 20
-1.364413840161059
 30
0.0
 11
364.1973466936158275
 21
-1.852890823530966
 31
0.0
  0
LINE
  5
A9D9
  8
0
 10
364.1973466936158275
 20
-1.9159292248217681
 30
0.0
 11
364.1973466936158275
 21
-6.0272336915944491
 31
0.0
  0
ARC
  5
A9DA
  8
0
 10
364.1658466936157765
 20
-1.9159292248217681
 30
0.0
 40
0.0315
 50
359.9999999999998863
 51
88.0000000005959748
  0
LINE
  5
A9DB
  8
0
 10
354.1160584987670745
 20
-1.5334636872876191
 30
0.0
 11
364.1669460277615826
 21
-1.884448413770655
 31
0.0
  0
ARC
  5
A9DC
  8
0
 10
362.3385892090158222
 20
-1.8521199874189731
 30
0.0
 40
0.0315
 50
88.0000000005959748
 51
180.0
  0
LINE
  5
A9DD
  8
0
 10
354.1027142966664769
 20
-1.0129998262975319
 30
0.0
 11
354.0856770218617839
 21
-1.5008835420886579
 31
0.0
  0
ARC
  5
A9DE
  8
0
 10
354.1341951077175167
 20
-1.0140991604453859
 30
0.0
 40
0.0315
 50
87.9999903760614046
 51
177.9999999968576958
  0
ARC
  5
A9DF
  8
0
 10
354.1171578329128806
 20
-1.5019828762365119
 30
0.0
 40
0.0315
 50
177.9999999968596001
 51
268.0000000005993002
  0
ARC
  5
A9E0
  8
0
 10
364.1658466936157765
 20
-1.364413840161059
 30
0.0
 40
0.0315
 50
0.0000000000016284
 51
87.9999903760744502
  0
ARC
  5
A9E1
  8
0
 10
364.1658466936157765
 20
-1.852890823530966
 30
0.0
 40
0.0315
 50
268.0000000005927063
 51
0.0000000000032569
  0
LINE
  5
A9E2
  8
0
 10
361.748284880465917
 20
-6.0272336915944491
 30
0.0
 11
364.7561510221659091
 21
-6.0272336915944491
 31
0.0
  0
LINE
  5
A9E3
  8
0
 10
361.748284880465917
 20
-6.3815644001943372
 30
0.0
 11
364.7561510221659091
 21
-6.3815644001945611
 31
0.0
  0
LINE
  5
A9E4
  8
0
 10
362.3070892090158281
 20
-1.8521199874189731
 30
0.0
 11
362.3070892090158281
 21
-6.0272336915944491
 31
0.0
  0
LINE
  5
A9E5
  8
0
 10
362.3070892090158281
 20
-6.3815644001943781
 30
0.0
 11
362.3070892090158281
 21
-7.2477021954944494
 31
0.0
  0
LINE
  5
A9E6
  8
0
 10
361.7167848804659229
 20
-6.0587336915944494
 30
0.0
 11
361.7167848804659229
 21
-6.3500644001943378
 31
0.0
  0
ARC
  5
A9E7
  8
0
 10
361.748284880465917
 20
-6.0587336915944556
 30
0.0
 40
0.0315
 50
90.0000000000130314
 51
179.9999999999870965
  0
ARC
  5
A9E8
  8
0
 10
361.748284880465917
 20
-6.3500644001943369
 30
0.0
 40
0.0315
 50
180.0000000000007958
 51
270.0
  0
LINE
  5
A9E9
  8
0
 10
362.7915919670659264
 20
-6.3933754238944491
 30
0.0
 11
363.7128439355658998
 21
-6.3933754238944491
 31
0.0
  0
LINE
  5
A9EA
  8
0
 10
362.7600919670658186
 20
-6.4248754238944477
 30
0.0
 11
362.7600919670658186
 21
-7.2477021954944494
 31
0.0
  0
ARC
  5
A9EB
  8
0
 10
362.7915919670658127
 20
-6.4248754238944468
 30
0.0
 40
0.0315
 50
89.9999999999869686
 51
180.0000000000023022
  0
LINE
  5
A9EC
  8
0
 10
362.8978872426657745
 20
-6.0587336915944494
 30
0.0
 11
362.8978872426657745
 21
-6.350064400194424
 31
0.0
  0
ARC
  5
A9ED
  8
0
 10
362.9293872426658254
 20
-6.0587336915944494
 30
0.0
 40
0.0315
 50
90.0
 51
179.9999999999992042
  0
ARC
  5
A9EE
  8
0
 10
362.9293872426658254
 20
-6.3500644001944231
 30
0.0
 40
0.0315
 50
180.0000000000046896
 51
269.9999999999935199
  0
LINE
  5
A9EF
  8
0
 10
362.0238754316657719
 20
-7.2792021954944488
 30
0.0
 11
364.4805604709658269
 21
-7.2792021954944479
 31
0.0
  0
ARC
  5
A9F0
  8
0
 10
362.3385892090158222
 20
-7.2477021954944494
 30
0.0
 40
0.0315
 50
180.0
 51
270.0
  0
LINE
  5
A9F1
  8
0
 10
361.9923754316657778
 20
-7.476052589194448
 30
0.0
 11
364.512060470965821
 21
-7.476052589194448
 31
0.0
  0
ARC
  5
A9F2
  8
0
 10
362.7285919670658245
 20
-7.247702195494452
 30
0.0
 40
0.0315
 50
269.9999999999869829
 51
0.0000000000048853
  0
LINE
  5
A9F3
  8
0
 10
361.9923754316657778
 20
-7.3107021954944491
 30
0.0
 11
361.9923754316657778
 21
-7.476052589194448
 31
0.0
  0
ARC
  5
A9F4
  8
0
 10
362.0238754316657719
 20
-7.3107021954944482
 30
0.0
 40
0.0315
 50
89.9999999999934914
 51
180.0000000000032117
  0
ARC
  5
A9F5
  8
0
 10
362.0238754316657719
 20
-7.4445525891944504
 30
0.0
 40
0.0315
 50
179.9999999999974989
 51
270.0000000000064801
  0
LINE
  5
A9F6
  8
0
 10
364.1973466936158275
 20
-6.3815644001943781
 30
0.0
 11
364.1973466936158275
 21
-6.8253189424387353
 31
0.0
  0
LINE
  5
A9F7
  8
0
 10
364.1973466936158275
 20
-7.2216081512525534
 30
0.0
 11
364.1973466936158275
 21
-7.2477021954944494
 31
0.0
  0
LINE
  5
A9F8
  8
0
 10
364.7876510221657895
 20
-6.0587336915944494
 30
0.0
 11
364.7876510221657895
 21
-6.3500644001943378
 31
0.0
  0
ARC
  5
A9F9
  8
0
 10
364.7561510221659091
 20
-6.0587336915944556
 30
0.0
 40
0.0315
 50
0.0000000000129258
 51
89.9999999999869686
  0
ARC
  5
A9FA
  8
0
 10
364.7561510221659091
 20
-6.3500644001943369
 30
0.0
 40
0.0315
 50
270.0
 51
359.9999999999992042
  0
LINE
  5
A9FB
  8
0
 10
363.7443439355657802
 20
-6.4248754238944477
 30
0.0
 11
363.7443439355657802
 21
-7.2477021954944494
 31
0.0
  0
ARC
  5
A9FC
  8
0
 10
363.7128439355658998
 20
-6.4248754238944468
 30
0.0
 40
0.0315
 50
359.9999999999976126
 51
90.0000000000130314
  0
LINE
  5
A9FD
  8
0
 10
363.6065486599658243
 20
-6.0587336915944494
 30
0.0
 11
363.6065486599658243
 21
-6.350064400194424
 31
0.0
  0
ARC
  5
A9FE
  8
0
 10
363.5750486599657734
 20
-6.0587336915944494
 30
0.0
 40
0.0315
 50
0.0000000000008142
 51
90.0
  0
ARC
  5
A9FF
  8
0
 10
363.5750486599657734
 20
-6.3500644001944231
 30
0.0
 40
0.0315
 50
270.0000000000064801
 51
359.9999999999951115
  0
ARC
  5
AA00
  8
0
 10
364.1658466936157765
 20
-7.2477021954944494
 30
0.0
 40
0.0315
 50
270.0
 51
0.0
  0
ARC
  5
AA01
  8
0
 10
363.7758439355657742
 20
-7.247702195494452
 30
0.0
 40
0.0315
 50
179.9999999999951115
 51
270.0000000000130171
  0
LINE
  5
AA02
  8
0
 10
364.512060470965821
 20
-7.3107021954944491
 30
0.0
 11
364.512060470965821
 21
-7.476052589194448
 31
0.0
  0
ARC
  5
AA03
  8
0
 10
364.4805604709658269
 20
-7.3107021954944482
 30
0.0
 40
0.0315
 50
359.9999999999968168
 51
90.0000000000065086
  0
ARC
  5
AA04
  8
0
 10
364.4805604709658269
 20
-7.4445525891944504
 30
0.0
 40
0.0315
 50
269.9999999999935199
 51
0.0000000000024427
  0
ARC
  5
AA05
  8
0
 10
365.1496610274755881
 20
-7.0267327243197411
 30
0.0
 40
0.9733807590077317
 50
168.0579724205001071
 51
178.0427297549144043
  0
ARC
  5
AA06
  8
0
 10
365.0761167304988248
 20
-7.0242194138335829
 30
0.0
 40
0.8997935294946364
 50
178.0427297549144043
 51
187.3376833018321861
  0
ARC
  5
AA07
  8
0
 10
365.3348796917513823
 20
-6.9908981187476362
 30
0.0
 40
1.1606930864556091
 50
187.3376833018321008
 51
191.4649942393124036
  0
ARC
  5
AA08
  8
0
 10
363.8008333009657918
 20
-7.0232966836944479
 30
0.0
 40
0.4000000000000236
 50
343.1657484345009834
 51
16.8608895484167611
  0
LINE
  5
AA09
  8
0
 10
362.8672179513657738
 20
-6.3815644001944198
 30
0.0
 11
362.8672179513657738
 21
-6.3933754238944491
 31
0.0
  0
LINE
  5
AA0A
  8
0
 10
363.6372179512658249
 20
-6.3815644001944198
 30
0.0
 11
363.6372179512658249
 21
-6.3933754238944491
 31
0.0
  0
LINE
  5
AA0B
  8
0
 10
354.6519358824663755
 20
-1.642783313687832
 30
0.0
 11
355.3208195045800721
 21
-1.6661412446142869
 31
0.0
  0
LINE
  5
AA0C
  8
0
 10
354.5366455877659178
 20
-1.5599691348944491
 30
0.0
 11
355.4416057831303988
 21
-1.5915710413128921
 31
0.0
  0
LINE
  5
AA0D
  8
0
 10
354.6335280665700225
 20
-1.605864818635339
 30
0.0
 11
354.6343238287067834
 21
-1.583077172538359
 31
0.0
  0
LINE
  5
AA0E
  8
0
 10
354.6442495515025257
 20
-1.6345407328166059
 30
0.0
 11
354.6519358825657946
 21
-1.642783313794449
 31
0.0
  0
ARC
  5
AA0F
  8
0
 10
354.6735036996507802
 20
-1.6072607985036931
 30
0.0
 40
0.04
 50
177.9999999996367137
 51
222.9999998245521908
  0
LINE
  5
AA10
  8
0
 10
354.6153377788364196
 20
-1.5627171267628339
 30
0.0
 11
354.6343238287067834
 21
-1.583077172538359
 31
0.0
  0
LINE
  5
AA11
  8
0
 10
354.6343238287067834
 20
-1.583077172538361
 30
0.0
 11
355.3425535463695724
 21
-1.6078090991717791
 31
0.0
  0
LINE
  5
AA12
  8
0
 10
354.5252539579557265
 20
-1.5477531075907609
 30
0.0
 11
354.5366455877659178
 21
-1.5599691348944511
 31
0.0
  0
LINE
  5
AA13
  8
0
 10
354.9863776947515248
 20
-1.6544622791939501
 30
0.0
 11
354.9862433122337961
 21
-1.6583104931916739
 31
0.0
  0
LINE
  5
AA14
  8
0
 10
354.933559241528485
 20
-1.7004565043014579
 30
0.0
 11
354.935227770566712
 21
-1.6526760844711239
 31
0.0
  0
ARC
  5
AA15
  8
0
 10
355.0098623209585753
 20
-1.1001485876059141
 30
0.0
 40
0.6051377981731653
 50
244.463911717216007
 51
262.7561740162901174
  0
LINE
  5
AA16
  8
0
 10
354.8854846654680841
 20
-1.662120694729905
 30
0.0
 11
354.8857288645675112
 21
-1.655127748347283
 31
0.0
  0
LINE
  5
AA17
  8
0
 10
354.8857288645675112
 20
-1.655127748347283
 30
0.0
 11
354.9027979163287796
 21
-1.654815147705424
 31
0.0
  0
LINE
  5
AA18
  8
0
 10
354.9027979163287796
 20
-1.654815147705424
 30
0.0
 11
354.9036256504659264
 21
-1.655163396694449
 31
0.0
  0
LINE
  5
AA19
  8
0
 10
354.9036256504659264
 20
-1.655163396694449
 30
0.0
 11
354.9031516139659175
 21
-1.6687380254944479
 31
0.0
  0
LINE
  5
AA1A
  8
0
 10
354.9031516139659175
 20
-1.6687380254944479
 30
0.0
 11
354.9023117864637129
 21
-1.668736086356766
 31
0.0
  0
LINE
  5
AA1B
  8
0
 10
354.9023117864637129
 20
-1.668736086356766
 30
0.0
 11
354.8854846654680841
 21
-1.662120694729903
 31
0.0
  0
LINE
  5
AA1C
  8
0
 10
354.9027979163893178
 20
-1.6548151477043149
 30
0.0
 11
354.9023117864658161
 21
-1.668736086294448
 31
0.0
  0
LINE
  5
AA1D
  8
0
 10
354.8849387936667199
 20
-1.6777524171694651
 30
0.0
 11
354.8851080608657753
 21
-1.6729052399944491
 31
0.0
  0
LINE
  5
AA1E
  8
0
 10
354.8851080608657753
 20
-1.6729052399944491
 30
0.0
 11
354.9021420857657745
 21
-1.6735956779944481
 31
0.0
  0
LINE
  5
AA1F
  8
0
 10
354.9021420857657745
 20
-1.6735956779944481
 30
0.0
 11
354.9029718645659273
 21
-1.6738853737944479
 31
0.0
  0
LINE
  5
AA20
  8
0
 10
354.9029718645659273
 20
-1.6738853737944479
 30
0.0
 11
354.9026432002657998
 21
-1.6832970891944501
 31
0.0
  0
LINE
  5
AA21
  8
0
 10
354.9026432002657998
 20
-1.6832970891944501
 30
0.0
 11
354.9018043279647827
 21
-1.6832677951232
 31
0.0
  0
LINE
  5
AA22
  8
0
 10
354.9018043279647827
 20
-1.6832677951232
 30
0.0
 11
354.8849387936667199
 21
-1.6777524171694651
 31
0.0
  0
LINE
  5
AA23
  8
0
 10
354.9018043279647827
 20
-1.6832677951232
 30
0.0
 11
354.9021420857657745
 21
-1.6735956779944481
 31
0.0
  0
LINE
  5
AA24
  8
0
 10
354.8845941313658159
 20
-1.687622256294449
 30
0.0
 11
354.8846937738658198
 21
-1.6847688686971689
 31
0.0
  0
LINE
  5
AA25
  8
0
 10
354.8846937738658198
 20
-1.6847688686971689
 30
0.0
 11
354.9016946038955211
 21
-1.6864098814152171
 31
0.0
  0
LINE
  5
AA26
  8
0
 10
354.9016946038955211
 20
-1.6864098814152171
 30
0.0
 11
354.9025262210657843
 21
-1.686646934294449
 31
0.0
  0
LINE
  5
AA27
  8
0
 10
354.9025262210657843
 20
-1.686646934294449
 30
0.0
 11
354.9023327157659082
 21
-1.692188202194449
 31
0.0
  0
LINE
  5
AA28
  8
0
 10
354.9023327157659082
 20
-1.692188202194449
 30
0.0
 11
354.9014961674657798
 21
-1.6920923591944499
 31
0.0
  0
LINE
  5
AA29
  8
0
 10
354.9014961674657798
 20
-1.6920923591944499
 30
0.0
 11
354.8845941313659864
 21
-1.6876222562899439
 31
0.0
  0
LINE
  5
AA2A
  8
0
 10
354.9016946038955211
 20
-1.6864098814152171
 30
0.0
 11
354.9014961674657798
 21
-1.6920923591944499
 31
0.0
  0
LINE
  5
AA2B
  8
0
 10
354.8912098549391771
 20
-1.693539982121691
 30
0.0
 11
354.8844404267287018
 21
-1.6920237812944461
 31
0.0
  0
LINE
  5
AA2C
  8
0
 10
354.8844404267287018
 20
-1.6920237812944461
 30
0.0
 11
354.8844733345658256
 21
-1.6910814244944481
 31
0.0
  0
LINE
  5
AA2D
  8
0
 10
354.8844733345658256
 20
-1.6910814244944481
 30
0.0
 11
354.9014417118659139
 21
-1.693651761794448
 31
0.0
  0
LINE
  5
AA2E
  8
0
 10
354.9014417118659139
 20
-1.693651761794448
 30
0.0
 11
354.9022750348659088
 21
-1.6938399670944491
 31
0.0
  0
LINE
  5
AA2F
  8
0
 10
354.9022750348659088
 20
-1.6938399670944491
 30
0.0
 11
354.9022123750211222
 21
-1.6956343086081089
 31
0.0
  0
LINE
  5
AA30
  8
0
 10
354.9014417118659139
 20
-1.693651761794448
 30
0.0
 11
354.9013777696707166
 21
-1.695482827264374
 31
0.0
  0
LINE
  5
AA31
  8
0
 10
354.8687652372706225
 20
-1.6503551616519641
 30
0.0
 11
354.8749956012683811
 21
-1.653283004419938
 31
0.0
  0
LINE
  5
AA32
  8
0
 10
354.8749956012683811
 20
-1.653283004419938
 30
0.0
 11
354.8920518358658001
 21
-1.65333743929445
 31
0.0
  0
LINE
  5
AA33
  8
0
 10
354.8920518358658001
 20
-1.65333743929445
 30
0.0
 11
354.892127489969198
 21
-1.6511709894982129
 31
0.0
  0
LINE
  5
AA34
  8
0
 10
354.8575633153014905
 20
-1.663997270885248
 30
0.0
 11
354.8580515957584112
 21
-1.6580630709022119
 31
0.0
  0
LINE
  5
AA35
  8
0
 10
354.8580515957584112
 20
-1.6580630709022119
 30
0.0
 11
354.8747925377928141
 21
-1.6590979839254549
 31
0.0
  0
LINE
  5
AA36
  8
0
 10
354.8747925377928141
 20
-1.6590979839254549
 30
0.0
 11
354.8916060498659135
 21
-1.6661030825944501
 31
0.0
  0
LINE
  5
AA37
  8
0
 10
354.8916060498659135
 20
-1.6661030825944501
 30
0.0
 11
354.8913627952705951
 21
-1.6719858997205881
 31
0.0
  0
LINE
  5
AA38
  8
0
 10
354.8913627952705951
 20
-1.6719858997205881
 30
0.0
 11
354.8743790211673854
 21
-1.6709395479497351
 31
0.0
  0
LINE
  5
AA39
  8
0
 10
354.8743790211673854
 20
-1.6709395479497351
 30
0.0
 11
354.857563315365212
 21
-1.6639972709130071
 31
0.0
  0
LINE
  5
AA3A
  8
0
 10
354.8571152784658125
 20
-1.67682736909445
 30
0.0
 11
354.8572505644532953
 21
-1.672953285012805
 31
0.0
  0
LINE
  5
AA3B
  8
0
 10
354.8572505644532953
 20
-1.672953285012805
 30
0.0
 11
354.8742382977634975
 21
-1.6749693401619929
 31
0.0
  0
LINE
  5
AA3C
  8
0
 10
354.8742382977634975
 20
-1.6749693401619929
 30
0.0
 11
354.8910915435545803
 21
-1.6808366147499101
 31
0.0
  0
LINE
  5
AA3D
  8
0
 10
354.8910915435545803
 20
-1.6808366147499101
 30
0.0
 11
354.8909578358681074
 21
-1.6846655025318049
 31
0.0
  0
LINE
  5
AA3E
  8
0
 10
354.8909578358681074
 20
-1.6846655025318049
 30
0.0
 11
354.8739693133658193
 21
-1.6826720467944489
 31
0.0
  0
LINE
  5
AA3F
  8
0
 10
354.8739693133658193
 20
-1.6826720467944489
 30
0.0
 11
354.8571152784405172
 21
-1.6768273691021041
 31
0.0
  0
LINE
  5
AA40
  8
0
 10
354.856864566865795
 20
-1.68400680929445
 30
0.0
 11
354.856864566865795
 21
-1.6820950156772121
 31
0.0
  0
LINE
  5
AA41
  8
0
 10
354.856864566865795
 20
-1.6820950156772121
 30
0.0
 11
354.873886484564423
 21
-1.685043953035684
 31
0.0
  0
LINE
  5
AA42
  8
0
 10
354.873886484564423
 20
-1.685043953035684
 30
0.0
 11
354.8907759174658167
 21
-1.6898749618944491
 31
0.0
  0
LINE
  5
AA43
  8
0
 10
354.8907759174658167
 20
-1.6898749618944491
 30
0.0
 11
354.8907099937658245
 21
-1.6917627698944491
 31
0.0
  0
LINE
  5
AA44
  8
0
 10
354.8907099937658245
 20
-1.6917627698944491
 30
0.0
 11
354.8737538867217154
 21
-1.6888410562363481
 31
0.0
  0
LINE
  5
AA45
  8
0
 10
354.8737538867217154
 20
-1.6888410562363481
 30
0.0
 11
354.856864566865795
 21
-1.68400680929445
 31
0.0
  0
LINE
  5
AA46
  8
0
 10
354.8292290550750749
 20
-1.6776980469893501
 30
0.0
 11
354.8292638622659183
 21
-1.676701297094449
 31
0.0
  0
LINE
  5
AA47
  8
0
 10
354.8292638622659183
 20
-1.676701297094449
 30
0.0
 11
354.8461727316785073
 21
-1.6809757186460239
 31
0.0
  0
LINE
  5
AA48
  8
0
 10
354.8461727316785073
 20
-1.6809757186460239
 30
0.0
 11
354.8630492237944054
 21
-1.686177305903644
 31
0.0
  0
LINE
  5
AA49
  8
0
 10
354.8630492237944054
 20
-1.686177305903644
 30
0.0
 11
354.8630135748741168
 21
-1.687198160087874
 31
0.0
  0
LINE
  5
AA4A
  8
0
 10
354.8293873208659761
 20
-1.6731659055896
 30
0.0
 11
354.8294891839657907
 21
-1.6702489284944479
 31
0.0
  0
LINE
  5
AA4B
  8
0
 10
354.8294891839657907
 20
-1.6702489284944479
 30
0.0
 11
354.8464304338663737
 21
-1.673596094177169
 31
0.0
  0
LINE
  5
AA4C
  8
0
 10
354.8464304338663737
 20
-1.673596094177169
 30
0.0
 11
354.8632712688154243
 21
-1.6798187692965241
 31
0.0
  0
LINE
  5
AA4D
  8
0
 10
354.8632712688154243
 20
-1.6798187692965241
 30
0.0
 11
354.8631708961659115
 21
-1.6826930670944491
 31
0.0
  0
LINE
  5
AA4E
  8
0
 10
354.8631708961659115
 20
-1.6826930670944491
 30
0.0
 11
354.8462282126827176
 21
-1.679386953865279
 31
0.0
  0
LINE
  5
AA4F
  8
0
 10
354.8462282126827176
 20
-1.679386953865279
 30
0.0
 11
354.8293873209195795
 21
-1.673165905610581
 31
0.0
  0
LINE
  5
AA50
  8
0
 10
354.82973976257
 20
-1.6630732954757419
 30
0.0
 11
354.8299129537379031
 21
-1.658113749158671
 31
0.0
  0
LINE
  5
AA51
  8
0
 10
354.8299129537379031
 20
-1.658113749158671
 30
0.0
 11
354.8468867397502891
 21
-1.6605292050262039
 31
0.0
  0
LINE
  5
AA52
  8
0
 10
354.8468867397502891
 20
-1.6605292050262039
 30
0.0
 11
354.8636886721719179
 21
-1.667865899836158
 31
0.0
  0
LINE
  5
AA53
  8
0
 10
354.8636886721719179
 20
-1.667865899836158
 30
0.0
 11
354.8635181158658156
 21
-1.6727499947944491
 31
0.0
  0
LINE
  5
AA54
  8
0
 10
354.8635181158658156
 20
-1.6727499947944491
 30
0.0
 11
354.846543012365828
 21
-1.6703722679944499
 31
0.0
  0
LINE
  5
AA55
  8
0
 10
354.846543012365828
 20
-1.6703722679944499
 30
0.0
 11
354.82973976257
 21
-1.6630732954757419
 31
0.0
  0
LINE
  5
AA56
  8
0
 10
354.8341731840146167
 20
-1.6491471805266309
 30
0.0
 11
354.8470598961653764
 21
-1.6555706546070179
 31
0.0
  0
LINE
  5
AA57
  8
0
 10
354.8470598961653764
 20
-1.6555706546070179
 30
0.0
 11
354.8640682274361211
 21
-1.6569968595203191
 31
0.0
  0
LINE
  5
AA58
  8
0
 10
354.8640682274361211
 20
-1.6569968595203191
 30
0.0
 11
354.8643055990705193
 21
-1.6501994276534171
 31
0.0
  0
LINE
  5
AA59
  8
0
 10
354.8060302881439156
 20
-1.648164408941132
 30
0.0
 11
354.8192235154114087
 21
-1.65501402328211
 31
0.0
  0
LINE
  5
AA5A
  8
0
 10
354.8192235154114087
 20
-1.65501402328211
 30
0.0
 11
354.8361842335659162
 21
-1.657803693994448
 31
0.0
  0
LINE
  5
AA5B
  8
0
 10
354.8361842335659162
 20
-1.657803693994448
 30
0.0
 11
354.8363943539778234
 21
-1.6517866302723261
 31
0.0
  0
LINE
  5
AA5C
  8
0
 10
354.8363943539778234
 20
-1.6517866302723261
 30
0.0
 11
354.8310430794753074
 21
-1.649037874866863
 31
0.0
  0
LINE
  5
AA5D
  8
0
 10
354.8020139819147971
 20
-1.6593494935733619
 30
0.0
 11
354.802153105861521
 21
-1.655365507417585
 31
0.0
  0
LINE
  5
AA5E
  8
0
 10
354.802153105861521
 20
-1.655365507417585
 30
0.0
 11
354.8190792189129752
 21
-1.659146135753317
 31
0.0
  0
LINE
  5
AA5F
  8
0
 10
354.8190792189129752
 20
-1.659146135753317
 30
0.0
 11
354.8358684322678869
 21
-1.66684705883388
 31
0.0
  0
LINE
  5
AA60
  8
0
 10
354.8358684322678869
 20
-1.66684705883388
 30
0.0
 11
354.8357318570701864
 21
-1.6707580607700301
 31
0.0
  0
LINE
  5
AA61
  8
0
 10
354.8357318570701864
 20
-1.6707580607700301
 30
0.0
 11
354.8188035499281909
 21
-1.6670402619281071
 31
0.0
  0
LINE
  5
AA62
  8
0
 10
354.8188035499281909
 20
-1.6670402619281071
 30
0.0
 11
354.8020139819658993
 21
-1.6593494935944491
 31
0.0
  0
LINE
  5
AA63
  8
0
 10
354.8017563007699096
 20
-1.666728519078027
 30
0.0
 11
354.8018248166304147
 21
-1.6647664810043949
 31
0.0
  0
LINE
  5
AA64
  8
0
 10
354.8018248166304147
 20
-1.6647664810043949
 30
0.0
 11
354.8187187001660163
 21
-1.669470040589853
 31
0.0
  0
LINE
  5
AA65
  8
0
 10
354.8187187001660163
 20
-1.669470040589853
 30
0.0
 11
354.8355461001669937
 21
-1.676077442261497
 31
0.0
  0
LINE
  5
AA66
  8
0
 10
354.8355461001669937
 20
-1.676077442261497
 30
0.0
 11
354.8354788029658948
 21
-1.67800458179445
 31
0.0
  0
LINE
  5
AA67
  8
0
 10
354.8354788029658948
 20
-1.67800458179445
 30
0.0
 11
354.8185829029657725
 21
-1.67335876599445
 31
0.0
  0
LINE
  5
AA68
  8
0
 10
354.8185829029657725
 20
-1.67335876599445
 30
0.0
 11
354.8017563007699096
 21
-1.666728519078027
 31
0.0
  0
LINE
  5
AA69
  8
0
 10
354.7743874520493819
 20
-1.6527835223884031
 30
0.0
 11
354.7744927744429901
 21
-1.6497674852171269
 31
0.0
  0
LINE
  5
AA6A
  8
0
 10
354.7744927744429901
 20
-1.6497674852171269
 30
0.0
 11
354.7913701968658984
 21
-1.6549424305939939
 31
0.0
  0
LINE
  5
AA6B
  8
0
 10
354.7913701968658984
 20
-1.6549424305939939
 30
0.0
 11
354.8081453548110176
 21
-1.6630458487579309
 31
0.0
  0
LINE
  5
AA6C
  8
0
 10
354.8081453548110176
 20
-1.6630458487579309
 30
0.0
 11
354.8080423141727238
 21
-1.6659965462962949
 31
0.0
  0
LINE
  5
AA6D
  8
0
 10
354.8080423141727238
 20
-1.6659965462962949
 30
0.0
 11
354.7911618690826003
 21
-1.660908157805902
 31
0.0
  0
LINE
  5
AA6E
  8
0
 10
354.7911618690826003
 20
-1.660908157805902
 30
0.0
 11
354.7743874520493819
 21
-1.6527835223884031
 31
0.0
  0
LINE
  5
AA6F
  8
0
 10
354.7742219725985819
 20
-1.657522233379223
 30
0.0
 11
354.7742598508659171
 21
-1.656437541794449
 31
0.0
  0
LINE
  5
AA70
  8
0
 10
354.7742598508659171
 20
-1.656437541794449
 30
0.0
 11
354.7911047354676271
 21
-1.662544251142801
 31
0.0
  0
LINE
  5
AA71
  8
0
 10
354.7911047354676271
 20
-1.662544251142801
 30
0.0
 11
354.8079174448658932
 21
-1.66957233469445
 31
0.0
  0
LINE
  5
AA72
  8
0
 10
354.8079174448658932
 20
-1.66957233469445
 30
0.0
 11
354.8078821411900208
 21
-1.6705833005735711
 31
0.0
  0
LINE
  5
AA73
  8
0
 10
354.7836170414012145
 20
-1.647381721113315
 30
0.0
 11
354.7914862320685074
 21
-1.651619616918097
 31
0.0
  0
LINE
  5
AA74
  8
0
 10
354.7914862320685074
 20
-1.651619616918097
 30
0.0
 11
354.8083988837657898
 21
-1.6557857279944479
 31
0.0
  0
LINE
  5
AA75
  8
0
 10
354.8083988837657898
 20
-1.6557857279944479
 30
0.0
 11
354.8085741600654046
 21
-1.6507664732081979
 31
0.0
  0
LINE
  5
AA76
  8
0
 10
354.8085741600654046
 20
-1.6507664732081979
 30
0.0
 11
354.8035651550313787
 21
-1.648078324595422
 31
0.0
  0
LINE
  5
AA77
  8
0
 10
354.7680430407139056
 20
-1.64683786502195
 30
0.0
 11
354.7807127476659161
 21
-1.6509266567944501
 31
0.0
  0
LINE
  5
AA78
  8
0
 10
354.7807127476659161
 20
-1.6509266567944501
 30
0.0
 11
354.7808399260687793
 21
-1.647284742108357
 31
0.0
  0
LINE
  5
AA79
  8
0
 10
354.752473412984898
 20
-1.646294161637651
 30
0.0
 11
354.7636207450659072
 21
-1.65189648249445
 31
0.0
  0
LINE
  5
AA7A
  8
0
 10
354.7636207450659072
 20
-1.65189648249445
 30
0.0
 11
354.7804514814682193
 21
-1.6584083396276781
 31
0.0
  0
LINE
  5
AA7B
  8
0
 10
354.7804514814682193
 20
-1.6584083396276781
 30
0.0
 11
354.7805209411645819
 21
-1.656419276630378
 31
0.0
  0
LINE
  5
AA7C
  8
0
 10
354.7805209411645819
 20
-1.656419276630378
 30
0.0
 11
354.763761437635992
 21
-1.6478675744640949
 31
0.0
  0
LINE
  5
AA7D
  8
0
 10
354.763761437635992
 20
-1.6478675744640949
 30
0.0
 11
354.7602834798491926
 21
-1.64656689518399
 31
0.0
  0
LINE
  5
AA7E
  8
0
 10
354.7518235117607901
 20
-1.6462714665866749
 30
0.0
 11
354.752998286165905
 21
-1.646878715194448
 31
0.0
  0
LINE
  5
AA7F
  8
0
 10
354.752998286165905
 20
-1.646878715194448
 30
0.0
 11
354.7529629752659162
 21
-1.64788988909445
 31
0.0
  0
LINE
  5
AA80
  8
0
 10
354.7529629752659162
 20
-1.64788988909445
 30
0.0
 11
354.7492309580803749
 21
-1.6461809326166581
 31
0.0
  0
LINE
  5
AA81
  8
0
 10
354.8749956012683811
 20
-1.653283004419938
 30
0.0
 11
354.8749956012683811
 21
-1.650572730758304
 31
0.0
  0
LINE
  5
AA82
  8
0
 10
354.8747925377928141
 20
-1.6590979839254549
 30
0.0
 11
354.8743790211673854
 21
-1.6709395479497351
 31
0.0
  0
LINE
  5
AA83
  8
0
 10
354.8742382977634975
 20
-1.6749693401619929
 30
0.0
 11
354.8739693133658193
 21
-1.6826720467944489
 31
0.0
  0
LINE
  5
AA84
  8
0
 10
354.873886484564423
 20
-1.685043953035684
 30
0.0
 11
354.8737538867217154
 21
-1.6888410562363481
 31
0.0
  0
LINE
  5
AA85
  8
0
 10
354.8462282126827176
 20
-1.679386953865279
 30
0.0
 11
354.8464304338663737
 21
-1.673596094177169
 31
0.0
  0
LINE
  5
AA86
  8
0
 10
354.846543012365828
 20
-1.6703722679944499
 30
0.0
 11
354.8468867397502891
 21
-1.6605292050262039
 31
0.0
  0
LINE
  5
AA87
  8
0
 10
354.8190792189129752
 20
-1.659146135753317
 30
0.0
 11
354.8188035499281909
 21
-1.6670402619281071
 31
0.0
  0
LINE
  5
AA88
  8
0
 10
354.8187187001660163
 20
-1.669470040589853
 30
0.0
 11
354.8185829029657725
 21
-1.67335876599445
 31
0.0
  0
LINE
  5
AA89
  8
0
 10
354.7911618690826003
 20
-1.660908157805902
 30
0.0
 11
354.7913701968658984
 21
-1.6549424305939939
 31
0.0
  0
LINE
  5
AA8A
  8
0
 10
354.7914862320685074
 20
-1.651619616918097
 30
0.0
 11
354.7914862320685074
 21
-1.6476565193083661
 31
0.0
  0
LINE
  5
AA8B
  8
0
 10
354.7911047354676271
 20
-1.662544251142801
 30
0.0
 11
354.7911047354676271
 21
-1.6643620875933001
 31
0.0
  0
LINE
  5
AA8C
  8
0
 10
354.7636207450659072
 20
-1.65189648249445
 30
0.0
 11
354.763761437635992
 21
-1.6478675744640949
 31
0.0
  0
LINE
  5
AA8D
  8
0
 10
354.8192235154114087
 20
-1.65501402328211
 30
0.0
 11
354.8192235154114087
 21
-1.6486251265921901
 31
0.0
  0
LINE
  5
AA8E
  8
0
 10
354.8470598961653764
 20
-1.6555706546070179
 30
0.0
 11
354.8470598961653764
 21
-1.649597194433887
 31
0.0
  0
LINE
  5
AA8F
  8
0
 10
354.8461727316785073
 20
-1.6809757186460239
 30
0.0
 11
354.8461727316785073
 21
-1.6827268854673669
 31
0.0
  0
LINE
  5
AA90
  8
0
 10
354.9350500219943001
 20
-1.6577661375767769
 30
0.0
 11
354.9474630725632096
 21
-1.6619397899716719
 31
0.0
  0
LINE
  5
AA91
  8
0
 10
354.9474630725632096
 20
-1.6619397899716719
 30
0.0
 11
354.9690105630659218
 21
-1.6633107727944489
 31
0.0
  0
LINE
  5
AA92
  8
0
 10
354.9690105630659218
 20
-1.6633107727944489
 30
0.0
 11
354.9692699820952839
 21
-1.655881983598638
 31
0.0
  0
LINE
  5
AA93
  8
0
 10
354.9692699820952839
 20
-1.655881983598638
 30
0.0
 11
354.9782424253839963
 21
-1.654178189325888
 31
0.0
  0
LINE
  5
AA94
  8
0
 10
354.9690374474085957
 20
-1.6625409059273251
 30
0.0
 11
354.986243312258523
 21
-1.658310492485078
 31
0.0
  0
LINE
  5
AA95
  8
0
 10
354.9510589703276082
 20
-1.653228922152111
 30
0.0
 11
354.9584758620320031
 21
-1.6557799492562539
 31
0.0
  0
LINE
  5
AA96
  8
0
 10
354.9584758620320031
 20
-1.6557799492562539
 30
0.0
 11
354.9696278387646089
 21
-1.653877361330458
 31
0.0
  0
LINE
  5
AA97
  8
0
 10
354.9584758620674165
 20
-1.6557799492502181
 30
0.0
 11
354.9585558037675241
 21
-1.653490717346175
 31
0.0
  0
LINE
  5
AA98
  8
0
 10
354.9474630725632096
 20
-1.6619397899716719
 30
0.0
 11
354.9474630725632096
 21
-1.6531033506344011
 31
0.0
  0
LINE
  5
AA99
  8
0
 10
355.3417577841141792
 20
-1.6305967453778361
 30
0.0
 11
355.3425535462525886
 21
-1.6078090992809111
 31
0.0
  0
LINE
  5
AA9A
  8
0
 10
355.329062085523276
 20
-1.658454913490178
 30
0.0
 11
355.3208195045918956
 21
-1.6661412446033479
 31
0.0
  0
ARC
  5
AA9B
  8
0
 10
355.3017821510335921
 20
-1.6292007655067271
 30
0.0
 40
0.04
 50
313.0000001707721253
 51
357.999999995688313
  0
LINE
  5
AA9C
  8
0
 10
355.3629135920598969
 20
-1.5888230494445099
 30
0.0
 11
355.3425535462525886
 21
-1.6078090992809111
 31
0.0
  0
LINE
  5
AA9D
  8
0
 10
355.4538218105408873
 20
-1.5801794115186849
 30
0.0
 11
355.4416057831303988
 21
-1.5915710413129469
 31
0.0
  0
LINE
  5
AA9E
  8
0
 10
355.0358590875749201
 20
-1.704028893648464
 30
0.0
 11
355.0375276165949003
 21
-1.6562484738174961
 31
0.0
  0
ARC
  5
AA9F
  8
0
 10
355.001617242089992
 20
-1.0998606631069621
 30
0.0
 40
0.6051377981731652
 50
273.2438259790359893
 51
291.5360882781087071
  0
LINE
  5
AAA0
  8
0
 10
355.0864907272809887
 20
-1.669139981089125
 30
0.0
 11
355.0867349263194797
 21
-1.6621470347043821
 31
0.0
  0
LINE
  5
AAA1
  8
0
 10
355.0867349263194797
 20
-1.6621470347043821
 30
0.0
 11
355.0697292598289891
 21
-1.660644518679564
 31
0.0
  0
LINE
  5
AAA2
  8
0
 10
355.0697292598289891
 20
-1.660644518679564
 30
0.0
 11
355.0688792493892834
 21
-1.660934179536887
 31
0.0
  0
LINE
  5
AAA3
  8
0
 10
355.0688792493892834
 20
-1.660934179536887
 30
0.0
 11
355.0684052129216184
 21
-1.674508808338014
 31
0.0
  0
LINE
  5
AAA4
  8
0
 10
355.0684052129216184
 20
-1.674508808338014
 30
0.0
 11
355.069243129913616
 21
-1.674565457329146
 31
0.0
  0
LINE
  5
AAA5
  8
0
 10
355.069243129913616
 20
-1.674565457329146
 30
0.0
 11
355.0864907272809887
 21
-1.6691399810891241
 31
0.0
  0
LINE
  5
AAA6
  8
0
 10
355.069729259768792
 20
-1.6606445186742369
 30
0.0
 11
355.0692431299157761
 21
-1.67456545726683
 31
0.0
  0
LINE
  5
AAA7
  8
0
 10
355.0859448555287941
 20
-1.6847717035304051
 30
0.0
 11
355.086114122643778
 21
-1.6799245263524509
 31
0.0
  0
LINE
  5
AAA8
  8
0
 10
355.086114122643778
 20
-1.6799245263524509
 30
0.0
 11
355.0690734292522279
 21
-1.679425048968102
 31
0.0
  0
LINE
  5
AAA9
  8
0
 10
355.0690734292522279
 20
-1.679425048968102
 30
0.0
 11
355.0682254635942172
 21
-1.679656156640547
 31
0.0
  0
LINE
  5
AAAA
  8
0
 10
355.0682254635942172
 20
-1.679656156640547
 30
0.0
 11
355.0678967992055277
 21
-1.689067872037451
 31
0.0
  0
LINE
  5
AAAB
  8
0
 10
355.0678967992055277
 20
-1.689067872037451
 30
0.0
 11
355.0687356715067722
 21
-1.689097166098799
 31
0.0
  0
LINE
  5
AAAC
  8
0
 10
355.0687356715067722
 20
-1.689097166098799
 30
0.0
 11
355.0859448555287941
 21
-1.6847717035304051
 31
0.0
  0
LINE
  5
AAAD
  8
0
 10
355.0687356715067722
 20
-1.689097166098799
 30
0.0
 11
355.0690734292522279
 21
-1.679425048968102
 31
0.0
  0
LINE
  5
AAAE
  8
0
 10
355.0856001930749812
 20
-1.694641542650051
 30
0.0
 11
355.0856998355565111
 21
-1.6917881550521281
 31
0.0
  0
LINE
  5
AAAF
  8
0
 10
355.0856998355565111
 20
-1.6917881550521281
 30
0.0
 11
355.0686259474335884
 21
-1.6922392523906811
 31
0.0
  0
LINE
  5
AAB0
  8
0
 10
355.0686259474335884
 20
-1.6922392523906811
 30
0.0
 11
355.0677798200679831
 21
-1.6924177171396351
 31
0.0
  0
LINE
  5
AAB1
  8
0
 10
355.0677798200679831
 20
-1.6924177171396351
 30
0.0
 11
355.0675863146896063
 21
-1.6979589850368959
 31
0.0
  0
LINE
  5
AAB2
  8
0
 10
355.0675863146896063
 20
-1.6979589850368959
 30
0.0
 11
355.0684275108696966
 21
-1.697921730165221
 31
0.0
  0
LINE
  5
AAB3
  8
0
 10
355.0684275108696966
 20
-1.697921730165221
 30
0.0
 11
355.0856001930752086
 21
-1.6946415426455479
 31
0.0
  0
LINE
  5
AAB4
  8
0
 10
355.0686259474335884
 20
-1.6922392523906811
 30
0.0
 11
355.0684275108696966
 21
-1.697921730165221
 31
0.0
  0
LINE
  5
AAB5
  8
0
 10
355.078587785385082
 20
-1.7000833636462851
 30
0.0
 11
355.0854464884320123
 21
-1.6990430676498389
 31
0.0
  0
LINE
  5
AAB6
  8
0
 10
355.0854464884320123
 20
-1.6990430676498389
 30
0.0
 11
355.0854793962441249
 21
-1.6981007108489721
 31
0.0
  0
LINE
  5
AAB7
  8
0
 10
355.0854793962441249
 20
-1.6981007108489721
 30
0.0
 11
355.0683730553918735
 21
-1.6994811327694901
 31
0.0
  0
LINE
  5
AAB8
  8
0
 10
355.0683730553918735
 20
-1.6994811327694901
 30
0.0
 11
355.0675286337868215
 21
-1.6996107499367981
 31
0.0
  0
LINE
  5
AAB9
  8
0
 10
355.0675286337868215
 20
-1.6996107499367981
 30
0.0
 11
355.0674659740585071
 21
-1.701405091454526
 31
0.0
  0
LINE
  5
AABA
  8
0
 10
355.0683730553918735
 20
-1.6994811327694901
 30
0.0
 11
355.0683091131566016
 21
-1.7013121982380099
 31
0.0
  0
LINE
  5
AABB
  8
0
 10
355.1039901498917857
 20
-1.6585693966139321
 30
0.0
 11
355.0975707267601251
 21
-1.661055499080919
 31
0.0
  0
LINE
  5
AABC
  8
0
 10
355.0975707267601251
 20
-1.661055499080919
 30
0.0
 11
355.0805522431081158
 21
-1.659920018572558
 31
0.0
  0
LINE
  5
AABD
  8
0
 10
355.0805522431081158
 20
-1.659920018572558
 30
0.0
 11
355.080627897192926
 21
-1.657753568775671
 31
0.0
  0
LINE
  5
AABE
  8
0
 10
355.1142131591062139
 20
-1.6729596809313261
 30
0.0
 11
355.1141400169416897
 21
-1.6670058756383179
 31
0.0
  0
LINE
  5
AABF
  8
0
 10
355.1141400169416897
 20
-1.6670058756383179
 30
0.0
 11
355.0973676631177227
 21
-1.6668704785806121
 31
0.0
  0
LINE
  5
AAC0
  8
0
 10
355.0973676631177227
 20
-1.6668704785806121
 30
0.0
 11
355.0801064569330947
 21
-1.672685661866445
 31
0.0
  0
LINE
  5
AAC1
  8
0
 10
355.0801064569330947
 20
-1.672685661866445
 30
0.0
 11
355.079938754393595
 21
-1.6785711173285089
 31
0.0
  0
LINE
  5
AAC2
  8
0
 10
355.079938754393595
 20
-1.6785711173285089
 30
0.0
 11
355.0969541466864143
 21
-1.6787120426116751
 31
0.0
  0
LINE
  5
AAC3
  8
0
 10
355.0969541466864143
 20
-1.6787120426116751
 30
0.0
 11
355.1142131590406734
 21
-1.6729596809545779
 31
0.0
  0
LINE
  5
AAC4
  8
0
 10
355.1137651221367264
 20
-1.6857897791358589
 30
0.0
 11
355.113900408143877
 21
-1.6819156950548999
 31
0.0
  0
LINE
  5
AAC5
  8
0
 10
355.113900408143877
 20
-1.6819156950548999
 30
0.0
 11
355.0968134232002171
 21
-1.6827418348210581
 31
0.0
  0
LINE
  5
AAC6
  8
0
 10
355.0968134232002171
 20
-1.6827418348210581
 30
0.0
 11
355.0795919506826976
 21
-1.687419194024034
 31
0.0
  0
LINE
  5
AAC7
  8
0
 10
355.0795919506826976
 20
-1.687419194024034
 30
0.0
 11
355.0794582429537058
 21
-1.6912480818044431
 31
0.0
  0
LINE
  5
AAC8
  8
0
 10
355.0794582429537058
 20
-1.6912480818044431
 30
0.0
 11
355.0965444387117032
 21
-1.6904445414503431
 31
0.0
  0
LINE
  5
AAC9
  8
0
 10
355.0965444387117032
 20
-1.6904445414503431
 30
0.0
 11
355.1137651221616238
 21
-1.685789779145267
 31
0.0
  0
LINE
  5
AACA
  8
0
 10
355.1135144105834911
 20
-1.692969219337491
 30
0.0
 11
355.1136477705649099
 21
-1.6910620827534291
 31
0.0
  0
LINE
  5
AACB
  8
0
 10
355.1136477705649099
 20
-1.6910620827534291
 30
0.0
 11
355.0964616099308273
 21
-1.692816447692292
 31
0.0
  0
LINE
  5
AACC
  8
0
 10
355.0964616099308273
 20
-1.692816447692292
 30
0.0
 11
355.0792763246961954
 21
-1.6964575411721381
 31
0.0
  0
LINE
  5
AACD
  8
0
 10
355.0792763246961954
 20
-1.6964575411721381
 30
0.0
 11
355.0792104009798891
 21
-1.6983453491715741
 31
0.0
  0
LINE
  5
AACE
  8
0
 10
355.0792104009798891
 20
-1.6983453491715741
 30
0.0
 11
355.0963290122418243
 21
-1.6966135508983271
 31
0.0
  0
LINE
  5
AACF
  8
0
 10
355.0963290122418243
 20
-1.6966135508983271
 30
0.0
 11
355.1135144105834911
 21
-1.692969219337491
 31
0.0
  0
LINE
  5
AAD0
  8
0
 10
355.1415226806690271
 20
-1.6886035807152131
 30
0.0
 11
355.1415574880246027
 21
-1.687606830826073
 31
0.0
  0
LINE
  5
AAD1
  8
0
 10
355.1415574880246027
 20
-1.687606830826073
 30
0.0
 11
355.1243916391932203
 21
-1.690691336994957
 31
0.0
  0
LINE
  5
AAD2
  8
0
 10
355.1243916391932203
 20
-1.690691336994957
 30
0.0
 11
355.1071934129785177
 21
-1.6947030088668631
 31
0.0
  0
LINE
  5
AAD3
  8
0
 10
355.1071934129785177
 20
-1.6947030088668631
 30
0.0
 11
355.1071577638717258
 21
-1.6957238630445819
 31
0.0
  0
LINE
  5
AAD4
  8
0
 10
355.1416809466084032
 20
-1.68407143932065
 30
0.0
 11
355.1417828096783751
 21
-1.681154462224455
 31
0.0
  0
LINE
  5
AAD5
  8
0
 10
355.1417828096783751
 20
-1.681154462224455
 30
0.0
 11
355.1246493413357825
 21
-1.6833117125245169
 31
0.0
  0
LINE
  5
AAD6
  8
0
 10
355.1246493413357825
 20
-1.6833117125245169
 30
0.0
 11
355.1074154579404194
 21
-1.6883444722576839
 31
0.0
  0
LINE
  5
AAD7
  8
0
 10
355.1074154579404194
 20
-1.6883444722576839
 30
0.0
 11
355.1073150852081994
 21
-1.691218770052717
 31
0.0
  0
LINE
  5
AAD8
  8
0
 10
355.1073150852081994
 20
-1.691218770052717
 30
0.0
 11
355.1244471199665895
 21
-1.6891025722061519
 31
0.0
  0
LINE
  5
AAD9
  8
0
 10
355.1244471199665895
 20
-1.6891025722061519
 30
0.0
 11
355.1416809465536062
 21
-1.6840714393378451
 31
0.0
  0
LINE
  5
AADA
  8
0
 10
355.1420333883280023
 20
-1.673978829207335
 30
0.0
 11
355.142206579508013
 21
-1.6690192828906889
 31
0.0
  0
LINE
  5
AADB
  8
0
 10
355.142206579508013
 20
-1.6690192828906889
 30
0.0
 11
355.1251056471011793
 21
-1.6702448233694149
 31
0.0
  0
LINE
  5
AADC
  8
0
 10
355.1251056471011793
 20
-1.6702448233694149
 30
0.0
 11
355.1078328613832014
 21
-1.676391602800329
 31
0.0
  0
LINE
  5
AADD
  8
0
 10
355.1078328613832014
 20
-1.676391602800329
 30
0.0
 11
355.1076623049805221
 21
-1.6812756977552441
 31
0.0
  0
LINE
  5
AADE
  8
0
 10
355.1076623049805221
 20
-1.6812756977552441
 30
0.0
 11
355.1247619198186953
 21
-1.6800878863412221
 31
0.0
  0
LINE
  5
AADF
  8
0
 10
355.1247619198186953
 20
-1.6800878863412221
 30
0.0
 11
355.1420333883280023
 21
-1.673978829207335
 31
0.0
  0
LINE
  5
AAE0
  8
0
 10
355.1385822031480757
 20
-1.6597773777274361
 30
0.0
 11
355.1252788034789774
 21
-1.6652862729489251
 31
0.0
  0
LINE
  5
AAE1
  8
0
 10
355.1252788034789774
 20
-1.6652862729489251
 30
0.0
 11
355.1082124166227914
 21
-1.6655225624836301
 31
0.0
  0
LINE
  5
AAE2
  8
0
 10
355.1082124166227914
 20
-1.6655225624836301
 30
0.0
 11
355.1084497880918889
 21
-1.6587251306109529
 31
0.0
  0
LINE
  5
AAE3
  8
0
 10
355.1667250990191746
 20
-1.6607601493033139
 30
0.0
 11
355.1530862048468862
 21
-1.6666727653154201
 31
0.0
  0
LINE
  5
AAE4
  8
0
 10
355.1530862048468862
 20
-1.6666727653154201
 30
0.0
 11
355.1359722045573903
 21
-1.66827252063809
 31
0.0
  0
LINE
  5
AAE5
  8
0
 10
355.1359722045573903
 20
-1.66827252063809
 30
0.0
 11
355.1361823251363035
 21
-1.662255456921792
 31
0.0
  0
LINE
  5
AAE6
  8
0
 10
355.1361823251363035
 20
-1.662255456921792
 30
0.0
 11
355.1417123076876123
 21
-1.659886683386135
 31
0.0
  0
LINE
  5
AAE7
  8
0
 10
355.1699513896646749
 20
-1.672198150991814
 30
0.0
 11
355.1700905134429718
 21
-1.6682141648301569
 31
0.0
  0
LINE
  5
AAE8
  8
0
 10
355.1700905134429718
 20
-1.6682141648301569
 30
0.0
 11
355.152941908250682
 21
-1.6708048777832101
 31
0.0
  0
LINE
  5
AAE9
  8
0
 10
355.152941908250682
 20
-1.6708048777832101
 30
0.0
 11
355.1356564033364975
 21
-1.6773158854802079
 31
0.0
  0
LINE
  5
AAEA
  8
0
 10
355.1356564033364975
 20
-1.6773158854802079
 30
0.0
 11
355.1355198281398202
 21
-1.6812268874163949
 31
0.0
  0
LINE
  5
AAEB
  8
0
 10
355.1355198281398202
 20
-1.6812268874163949
 30
0.0
 11
355.1526662393138167
 21
-1.678699003959675
 31
0.0
  0
LINE
  5
AAEC
  8
0
 10
355.1526662393138167
 20
-1.678699003959675
 30
0.0
 11
355.169951389612379
 21
-1.6721981510092949
 31
0.0
  0
LINE
  5
AAED
  8
0
 10
355.1696937083117973
 20
-1.6795771764892209
 30
0.0
 11
355.1697622242101033
 21
-1.6776151384169049
 31
0.0
  0
LINE
  5
AAEE
  8
0
 10
355.1697622242101033
 20
-1.6776151384169049
 30
0.0
 11
355.1525813895946726
 21
-1.6811287826229251
 31
0.0
  0
LINE
  5
AAEF
  8
0
 10
355.1525813895946726
 20
-1.6811287826229251
 30
0.0
 11
355.1353340712527142
 21
-1.6865462689084261
 31
0.0
  0
LINE
  5
AAF0
  8
0
 10
355.1353340712527142
 20
-1.6865462689084261
 30
0.0
 11
355.1352667740629272
 21
-1.6884734084417721
 31
0.0
  0
LINE
  5
AAF1
  8
0
 10
355.1352667740629272
 20
-1.6884734084417721
 30
0.0
 11
355.1524455922278207
 21
-1.6850175080216969
 31
0.0
  0
LINE
  5
AAF2
  8
0
 10
355.1524455922278207
 20
-1.6850175080216969
 30
0.0
 11
355.1696937083117973
 21
-1.6795771764892209
 31
0.0
  0
LINE
  5
AAF3
  8
0
 10
355.197968641688874
 20
-1.667575303490147
 30
0.0
 11
355.1980739639731723
 21
-1.6645592663150539
 31
0.0
  0
LINE
  5
AAF4
  8
0
 10
355.1980739639731723
 20
-1.6645592663150539
 30
0.0
 11
355.1808766681616021
 21
-1.668544296309566
 31
0.0
  0
LINE
  5
AAF5
  8
0
 10
355.1808766681616021
 20
-1.668544296309566
 30
0.0
 11
355.1635771077811228
 21
-1.6754577990879651
 31
0.0
  0
LINE
  5
AAF6
  8
0
 10
355.1635771077811228
 20
-1.6754577990879651
 30
0.0
 11
355.1634740671619852
 21
-1.6784084966270001
 31
0.0
  0
LINE
  5
AAF7
  8
0
 10
355.1634740671619852
 20
-1.6784084966270001
 30
0.0
 11
355.1806683403747797
 21
-1.674510023521349
 31
0.0
  0
LINE
  5
AAF8
  8
0
 10
355.1806683403747797
 20
-1.674510023521349
 30
0.0
 11
355.197968641688874
 21
-1.667575303490147
 31
0.0
  0
LINE
  5
AAF9
  8
0
 10
355.1978031622708158
 20
-1.6723140144821089
 30
0.0
 11
355.1978410405333193
 21
-1.671229322897168
 31
0.0
  0
LINE
  5
AAFA
  8
0
 10
355.1978410405333193
 20
-1.671229322897168
 30
0.0
 11
355.1806112067130243
 21
-1.6761461168566161
 31
0.0
  0
LINE
  5
AAFB
  8
0
 10
355.1806112067130243
 20
-1.6761461168566161
 30
0.0
 11
355.163349197903699
 21
-1.6819842850268509
 31
0.0
  0
LINE
  5
AAFC
  8
0
 10
355.163349197903699
 20
-1.6819842850268509
 30
0.0
 11
355.1633138941667198
 21
-1.6829952509038359
 31
0.0
  0
LINE
  5
AAFD
  8
0
 10
355.1891383457622169
 20
-1.661542837123466
 30
0.0
 11
355.1809927033801273
 21
-1.6652214826342231
 31
0.0
  0
LINE
  5
AAFE
  8
0
 10
355.1809927033801273
 20
-1.6652214826342231
 30
0.0
 11
355.1638306368340068
 21
-1.668197678327912
 31
0.0
  0
LINE
  5
AAFF
  8
0
 10
355.1638306368340068
 20
-1.668197678327912
 30
0.0
 11
355.164005913014023
 21
-1.663178423537482
 31
0.0
  0
LINE
  5
AB00
  8
0
 10
355.164005913014023
 20
-1.663178423537482
 30
0.0
 11
355.1691902321317116
 21
-1.6608462336481811
 31
0.0
  0
LINE
  5
AB01
  8
0
 10
355.2047123464495826
 20
-1.662086693209506
 30
0.0
 11
355.191788282570883
 21
-1.6652817308093559
 31
0.0
  0
LINE
  5
AB02
  8
0
 10
355.191788282570883
 20
-1.6652817308093559
 30
0.0
 11
355.1919154610945952
 21
-1.661639816127477
 31
0.0
  0
LINE
  5
AB03
  8
0
 10
355.2202819741788744
 20
-1.6626303965884821
 30
0.0
 11
355.2087709982905039
 21
-1.6674414718946811
 31
0.0
  0
LINE
  5
AB04
  8
0
 10
355.2087709982905039
 20
-1.6674414718946811
 30
0.0
 11
355.1915270165245033
 21
-1.6727634136478671
 31
0.0
  0
LINE
  5
AB05
  8
0
 10
355.1915270165245033
 20
-1.6727634136478671
 30
0.0
 11
355.1915964760493125
 21
-1.670774350644576
 31
0.0
  0
LINE
  5
AB06
  8
0
 10
355.1915964760493125
 20
-1.670774350644576
 30
0.0
 11
355.2089116908578035
 21
-1.663412563864229
 31
0.0
  0
LINE
  5
AB07
  8
0
 10
355.2089116908578035
 20
-1.663412563864229
 30
0.0
 11
355.2124719073145229
 21
-1.6623576630448149
 31
0.0
  0
LINE
  5
AB08
  8
0
 10
355.2209318754029255
 20
-1.662653091639235
 30
0.0
 11
355.2197176031676804
 21
-1.6631769128998799
 31
0.0
  0
LINE
  5
AB09
  8
0
 10
355.2197176031676804
 20
-1.6631769128998799
 30
0.0
 11
355.2196822921263788
 21
-1.664188086794949
 31
0.0
  0
LINE
  5
AB0A
  8
0
 10
355.2196822921263788
 20
-1.664188086794949
 30
0.0
 11
355.2235244290832838
 21
-1.662743625608365
 31
0.0
  0
LINE
  5
AB0B
  8
0
 10
355.0975707267601251
 20
-1.661055499080919
 30
0.0
 11
355.0977597858937997
 21
-1.658351827509722
 31
0.0
  0
LINE
  5
AB0C
  8
0
 10
355.0973676631177227
 20
-1.6668704785806121
 30
0.0
 11
355.0969541466864143
 21
-1.6787120426116751
 31
0.0
  0
LINE
  5
AB0D
  8
0
 10
355.0968134232002171
 20
-1.6827418348210581
 30
0.0
 11
355.0965444387117032
 21
-1.6904445414503431
 31
0.0
  0
LINE
  5
AB0E
  8
0
 10
355.0964616099308273
 20
-1.692816447692292
 30
0.0
 11
355.0963290122418243
 21
-1.6966135508983271
 31
0.0
  0
LINE
  5
AB0F
  8
0
 10
355.1244471199665895
 20
-1.6891025722061519
 30
0.0
 11
355.1246493413357825
 21
-1.6833117125245169
 31
0.0
  0
LINE
  5
AB10
  8
0
 10
355.1247619198186953
 20
-1.6800878863412221
 30
0.0
 11
355.1251056471011793
 21
-1.6702448233694149
 31
0.0
  0
LINE
  5
AB11
  8
0
 10
355.152941908250682
 20
-1.6708048777832101
 30
0.0
 11
355.1526662393138167
 21
-1.678699003959675
 31
0.0
  0
LINE
  5
AB12
  8
0
 10
355.1525813895946726
 20
-1.6811287826229251
 30
0.0
 11
355.1524455922278207
 21
-1.6850175080216969
 31
0.0
  0
LINE
  5
AB13
  8
0
 10
355.1806683403747797
 20
-1.674510023521349
 30
0.0
 11
355.1808766681616021
 21
-1.668544296309566
 31
0.0
  0
LINE
  5
AB14
  8
0
 10
355.1809927033801273
 20
-1.6652214826342231
 30
0.0
 11
355.1812691550948102
 21
-1.6612680389311061
 31
0.0
  0
LINE
  5
AB15
  8
0
 10
355.1806112067130243
 20
-1.6761461168566161
 30
0.0
 11
355.1804844008523219
 21
-1.677959525148875
 31
0.0
  0
LINE
  5
AB16
  8
0
 10
355.2087709982905039
 20
-1.6674414718946811
 30
0.0
 11
355.2089116908578035
 21
-1.663412563864229
 31
0.0
  0
LINE
  5
AB17
  8
0
 10
355.1530862048468862
 20
-1.6666727653154201
 30
0.0
 11
355.1535318717516247
 21
-1.660299431656769
 31
0.0
  0
LINE
  5
AB18
  8
0
 10
355.1252788034789774
 20
-1.6652862729489251
 30
0.0
 11
355.1256954909972023
 21
-1.6593273638245869
 31
0.0
  0
LINE
  5
AB19
  8
0
 10
355.1243916391932203
 20
-1.690691336994957
 30
0.0
 11
355.1242694839705791
 21
-1.6924382380619241
 31
0.0
  0
LINE
  5
AB1A
  8
0
 10
355.0373498680244211
 20
-1.6613385269232159
 30
0.0
 11
355.0246759157489009
 21
-1.6646361218735191
 31
0.0
  0
LINE
  5
AB1B
  8
0
 10
355.0246759157489009
 20
-1.6646361218735191
 30
0.0
 11
355.0030852789228106
 21
-1.6645006880937789
 31
0.0
  0
LINE
  5
AB1C
  8
0
 10
355.0030852789228106
 20
-1.6645006880937789
 30
0.0
 11
355.0033446979642235
 21
-1.657071898898383
 31
0.0
  0
LINE
  5
AB1D
  8
0
 10
355.0033446979642235
 20
-1.657071898898383
 30
0.0
 11
354.9945129617769908
 21
-1.6547463689774411
 31
0.0
  0
LINE
  5
AB1E
  8
0
 10
355.0031121632669056
 20
-1.6637308212266999
 30
0.0
 11
354.9862433097637222
 21
-1.658310492397955
 31
0.0
  0
LINE
  5
AB1F
  8
0
 10
355.0216964168337768
 20
-1.6556956361419239
 30
0.0
 11
355.0141196416494154
 21
-1.657723072860195
 31
0.0
  0
LINE
  5
AB20
  8
0
 10
355.0141196416494154
 20
-1.657723072860195
 30
0.0
 11
355.0031275483966056
 21
-1.6550471969699241
 31
0.0
  0
LINE
  5
AB21
  8
0
 10
355.0141196416145135
 20
-1.6577230728517049
 30
0.0
 11
355.0141995833936903
 21
-1.6554338409504239
 31
0.0
  0
LINE
  5
AB22
  8
0
 10
355.0246759157489009
 20
-1.6646361218735191
 30
0.0
 11
355.0252923145981754
 21
-1.6558212076584049
 31
0.0
  0
ENDSEC
  0
EOF
