  0
SECTION
  2
HEADER
  9
$ACADVER
  1
AC1009
  9
$INSBASE
 10
3663.9485099738781173
 20
302.962040086168372
 30
0.0
  9
$EXTMIN
 10
3654.6116245814969261
 20
302.9415258174485075
 30
-0.0000000000000058
  9
$EXTMAX
 10
3665.2382552569220024
 20
313.4144991840828993
 30
0.0000000000000104
  9
$LIMMIN
 10
0.0
 20
0.0
  9
$LIMMAX
 10
11.6929133858000007
 20
8.2677165353999982
  9
$ORTHOMODE
 70
     1
  9
$REGENMODE
 70
     1
  9
$FILLMODE
 70
     1
  9
$QTEXTMODE
 70
     0
  9
$MIRRTEXT
 70
     0
  9
$DRAGMODE
 70
     2
  9
$LTSCALE
 40
0.6431102362
  9
$OSMODE
 70
  4095
  9
$ATTMODE
 70
     1
  9
$TEXTSIZE
 40
0.2
  9
$TRACEWID
 40
0.05
  9
$TEXTSTYLE
  7
STANDARD
  9
$CLAYER
  8
0
  9
$CELTYPE
  6
BYLAYER
  9
$CECOLOR
 62
   256
  9
$DIMSCALE
 40
1.0
  9
$DIMASZ
 40
0.1875
  9
$DIMEXO
 40
0.0625
  9
$DIMDLI
 40
0.4443307087
  9
$DIMRND
 40
0.0
  9
$DIMDLE
 40
0.0
  9
$DIMEXE
 40
0.125
  9
$DIMTP
 40
0.01
  9
$DIMTM
 40
0.01
  9
$DIMTXT
 40
2.0
  9
$DIMCEN
 40
0.1052362205
  9
$DIMTSZ
 40
0.0
  9
$DIMTOL
 70
     1
  9
$DIMLIM
 70
     0
  9
$DIMTIH
 70
     1
  9
$DIMTOH
 70
     1
  9
$DIMSE1
 70
     0
  9
$DIMSE2
 70
     0
  9
$DIMTAD
 70
     0
  9
$DIMZIN
 70
     0
  9
$DIMBLK
  1

  9
$DIMASO
 70
     1
  9
$DIMSHO
 70
     1
  9
$DIMPOST
  1
\X
  9
$DIMAPOST
  1

  9
$DIMALT
 70
     1
  9
$DIMALTD
 70
     2
  9
$DIMALTF
 40
25.3999999999999986
  9
$DIMLFAC
 40
1.0
  9
$DIMTOFL
 70
     0
  9
$DIMTVP
 40
0.0
  9
$DIMTIX
 70
     0
  9
$DIMSOXD
 70
     0
  9
$DIMSAH
 70
     0
  9
$DIMBLK1
  1

  9
$DIMBLK2
  1

  9
$DIMSTYLE
  2
STANDARD
  9
$DIMCLRD
 70
     0
  9
$DIMCLRE
 70
     0
  9
$DIMCLRT
 70
     0
  9
$DIMTFAC
 40
1.0
  9
$DIMGAP
 40
0.09
  9
$LUNITS
 70
     2
  9
$LUPREC
 70
     4
  9
$SKETCHINC
 40
0.1
  9
$FILLETRAD
 40
0.0
  9
$AUNITS
 70
     0
  9
$AUPREC
 70
     0
  9
$MENU
  1
.
  9
$ELEVATION
 40
0.0
  9
$PELEVATION
 40
0.0
  9
$THICKNESS
 40
0.0
  9
$LIMCHECK
 70
     0
  9
$BLIPMODE
 70
     0
  9
$CHAMFERA
 40
0.0
  9
$CHAMFERB
 40
0.0
  9
$SKPOLY
 70
     0
  9
$TDCREATE
 40
2458060.468368056230247
  9
$TDUPDATE
 40
2460075.6399189820513129
  9
$TDINDWG
 40
0.505253206
  9
$TDUSRTIMER
 40
0.505253206
  9
$USRTIMER
 70
     1
  9
$ANGBASE
 50
0.0
  9
$ANGDIR
 70
     0
  9
$PDMODE
 70
     0
  9
$PDSIZE
 40
0.3125
  9
$PLINEWID
 40
0.0
  9
$COORDS
 70
     1
  9
$SPLFRAME
 70
     0
  9
$SPLINETYPE
 70
     6
  9
$SPLINESEGS
 70
     8
  9
$ATTDIA
 70
     1
  9
$ATTREQ
 70
     1
  9
$HANDLING
 70
     1
  9
$HANDSEED
  5
C2C9
  9
$SURFTAB1
 70
     6
  9
$SURFTAB2
 70
     6
  9
$SURFTYPE
 70
     6
  9
$SURFU
 70
     6
  9
$SURFV
 70
     6
  9
$UCSNAME
  2

  9
$UCSORG
 10
0.0
 20
0.0
 30
0.0
  9
$UCSXDIR
 10
1.0
 20
0.0
 30
0.0
  9
$UCSYDIR
 10
0.0
 20
1.0
 30
0.0
  9
$PUCSNAME
  2

  9
$PUCSORG
 10
0.0
 20
0.0
 30
0.0
  9
$PUCSXDIR
 10
1.0
 20
0.0
 30
0.0
  9
$PUCSYDIR
 10
0.0
 20
1.0
 30
0.0
  9
$USERI1
 70
     0
  9
$USERI2
 70
     0
  9
$USERI3
 70
     0
  9
$USERI4
 70
     0
  9
$USERI5
 70
     0
  9
$USERR1
 40
0.0
  9
$USERR2
 40
0.0
  9
$USERR3
 40
0.0
  9
$USERR4
 40
0.0
  9
$USERR5
 40
0.0
  9
$WORLDVIEW
 70
     1
  9
$SHADEDGE
 70
     3
  9
$SHADEDIF
 70
    70
  9
$TILEMODE
 70
     1
  9
$MAXACTVP
 70
    64
  9
$PLIMCHECK
 70
     0
  9
$PEXTMIN
 10
1.0000000000000000E+20
 20
1.0000000000000000E+20
 30
1.0000000000000000E+20
  9
$PEXTMAX
 10
-1.0000000000000000E+20
 20
-1.0000000000000000E+20
 30
-1.0000000000000000E+20
  9
$PLIMMIN
 10
0.0
 20
0.0
  9
$PLIMMAX
 10
12.0
 20
9.0
  9
$UNITMODE
 70
     0
  9
$VISRETAIN
 70
     1
  9
$PLINEGEN
 70
     0
  9
$PSLTSCALE
 70
     1
  0
ENDSEC
  0
SECTION
  2
TABLES
  0
TABLE
  2
VPORT
 70
     1
  0
VPORT
  2
*ACTIVE
 70
     0
 10
0.0
 20
0.0
 11
1.0
 21
1.0
 12
399.6086557395220211
 22
3.9675785408048219
 13
0.0
 23
0.0
 14
1.0
 24
1.0
 15
0.0
 25
0.0
 16
0.0
 26
0.0
 36
48.4519809769821421
 17
3260.3162841796870453
 27
304.2104339599608807
 37
0.0
 40
10.5480279653002906
 41
1.7089041095890409
 42
50.0
 43
0.0
 44
0.0
 50
0.0
 51
0.0
 71
     0
 72
   100
 73
     1
 74
     1
 75
     0
 76
     0
 77
     0
 78
     0
  0
ENDTAB
  0
TABLE
  2
LTYPE
 70
     2
  0
LTYPE
  2
CONTINUOUS
 70
     0
  3
Solid line
 72
    65
 73
     0
 40
0.0
  0
LTYPE
  2
PHANTOM2
 70
     0
  3
___ _ _ ___ _ _ ___ _ _ ___ _ _
 72
    65
 73
     6
 40
1.25
 49
0.625
 49
-0.125
 49
0.125
 49
-0.125
 49
0.125
 49
-0.125
  0
ENDTAB
  0
TABLE
  2
LAYER
 70
     2
  0
LAYER
  2
0
 70
     0
 62
   255
  6
CONTINUOUS
  0
LAYER
  2
DEFPOINTS
 70
     0
 62
     7
  6
CONTINUOUS
  0
ENDTAB
  0
TABLE
  2
STYLE
 70
     1
  0
STYLE
  2
STANDARD
 70
     0
 40
0.0
 41
0.8
 50
0.0
 71
     0
 42
0.2
  3
txt
  4

  0
ENDTAB
  0
TABLE
  2
VIEW
 70
     0
  0
ENDTAB
  0
TABLE
  2
UCS
 70
     0
  0
ENDTAB
  0
TABLE
  2
APPID
 70
     9
  0
APPID
  2
ACAD
 70
     0
  0
APPID
  2
ACAD_MLEADERVER
 70
     0
  0
APPID
  2
ACAD_EXEMPT_FROM_CAD_STANDARDS
 70
     0
  0
APPID
  2
ACAD_NAV_VCDISPLAY
 70
     0
  0
APPID
  2
ACAECLAYERSTANDARD
 70
     0
  0
APPID
  2
ACCMTRANSPARENCY
 70
     0
  0
APPID
  2
ACAD_DSTYLE_DIMJAG
 70
     0
  0
APPID
  2
ACAD_DSTYLE_DIMTALN
 70
     0
  0
APPID
  2
ACDBATTR
 70
     0
  0
ENDTAB
  0
TABLE
  2
DIMSTYLE
 70
     1
  0
DIMSTYLE
  2
STANDARD
 70
     0
  3

  4

  5

  6

  7

 40
1.0
 41
0.1875
 42
0.0625
 43
0.38
 44
0.125
 45
0.0
 46
0.0
 47
0.01
 48
0.01
140
0.15625
141
0.09
142
0.0
143
25.3999999999999986
144
1.0
145
0.0
146
1.0
147
0.09
 71
     1
 72
     0
 73
     1
 74
     1
 75
     0
 76
     0
 77
     0
 78
     4
170
     0
171
     2
172
     0
173
     0
174
     0
175
     0
176
     0
177
     0
178
     0
  0
ENDTAB
  0
ENDSEC
  0
SECTION
  2
BLOCKS
  0
BLOCK
  8
0
  2
$MODEL_SPACE
 70
     0
 10
0.0
 20
0.0
 30
0.0
  3
$MODEL_SPACE
  1

  0
ENDBLK
  5
21
  8
0
  0
BLOCK
 67
     1
  8
0
  2
$PAPER_SPACE
 70
     0
 10
0.0
 20
0.0
 30
0.0
  3
$PAPER_SPACE
  1

  0
ENDBLK
  5
1D
 67
     1
  8
0
  0
ENDSEC
  0
SECTION
  2
ENTITIES
  0
ATTDEF
  5
A142
  8
DEFPOINTS
 10
3663.9453401030559689
 20
302.966654572557502
 30
0.0
 40
0.001
  1
K-73085T-C9GCH
  3

  2
MODELNUMBER
 70
     0
1001
ACDBATTR
1070
     0
1070
     1
  0
ATTDEF
  5
A143
  8
DEFPOINTS
 10
3663.9453401030559689
 20
302.96498790589078
 30
0.0
 40
0.001
  1
COMPOSED
  3

  2
TRADENAME
 70
     0
1001
ACDBATTR
1070
     0
1070
     1
  0
ATTDEF
  5
A144
  8
DEFPOINTS
 10
3663.9453401030559689
 20
302.9633212392241717
 30
0.0
 40
0.001
  1
DIVERTER AND HANDSHOWER
  3

  2
PRODUCT
 70
     0
1001
ACDBATTR
1070
     0
1070
     1
  0
LINE
  5
BF55
  8
0
 10
3665.1768524935278037
 20
302.962040086168372
 30
0.0
 11
3662.7201674542279761
 21
302.962040086168372
 31
0.0
  0
LINE
  5
BF56
  8
0
 10
3665.1768524935278037
 20
303.1588904798684894
 30
0.0
 11
3662.7201674542279761
 21
303.1588904798684894
 31
0.0
  0
LINE
  5
BF57
  8
0
 10
3662.6886674542279252
 20
302.9935400861684229
 30
0.0
 11
3662.6886674542279252
 21
303.1273904798683816
 31
0.0
  0
LINE
  5
BF58
  8
0
 10
3665.2083524935278547
 20
303.1273904798683816
 30
0.0
 11
3665.2083524935278547
 21
302.9935400861684229
 31
0.0
  0
ARC
  5
BF59
  8
0
 10
3665.1768524935278037
 20
303.1273904798683816
 30
0.0
 40
0.0315
 50
359.9999999999935199
 51
90.0
  0
ARC
  5
BF5A
  8
0
 10
3665.1768524935278037
 20
302.9935400861684229
 30
0.0
 40
0.0315
 50
270.0
 51
0.0
  0
ARC
  5
BF5B
  8
0
 10
3662.7201674542279761
 20
302.9935400861684229
 30
0.0
 40
0.0315
 50
180.0
 51
270.0
  0
ARC
  5
BF5C
  8
0
 10
3662.7201674542279761
 20
303.1273904798683816
 30
0.0
 40
0.0315
 50
90.0
 51
180.0
  0
LINE
  5
BF5D
  8
0
 10
3654.8737113481779488
 20
303.395110952368384
 30
0.0
 11
3657.0390656788781598
 21
303.395110952368384
 31
0.0
  0
LINE
  5
BF5E
  8
0
 10
3657.0390656788781598
 20
303.395110952368384
 30
0.0
 11
3657.0587507182781337
 21
303.4147959916684272
 31
0.0
  0
LINE
  5
BF5F
  8
0
 10
3654.8737113481779488
 20
303.395110952368384
 30
0.0
 11
3654.8540263087779749
 21
303.4147959916684272
 31
0.0
  0
LINE
  5
BF60
  8
0
 10
3654.8737113481779488
 20
305.5998353617684984
 30
0.0
 11
3657.0390656788781598
 21
305.5998353617684984
 31
0.0
  0
LINE
  5
BF61
  8
0
 10
3654.8540263087779749
 20
305.5801503223685245
 30
0.0
 11
3654.8737113481779488
 21
305.5998353617684984
 31
0.0
  0
LINE
  5
BF62
  8
0
 10
3656.8063885135279634
 20
303.3360558342685067
 30
0.0
 11
3655.1063885135281453
 21
303.3360558342685067
 31
0.0
  0
LINE
  5
BF65
  8
0
 10
3663.2792186353281068
 20
303.934477094068427
 30
0.0
 11
3663.2792186353281068
 21
303.2179455979684235
 31
0.0
  0
LINE
  5
BF66
  8
0
 10
3664.6178013124281279
 20
303.934477094068427
 30
0.0
 11
3664.6178013124281279
 21
303.2179455979684235
 31
0.0
  0
LINE
  5
BF67
  8
0
 10
3664.5863013124289864
 20
303.9659770940684211
 30
0.0
 11
3663.3107186353281577
 21
303.9659770940684211
 31
0.0
  0
ARC
  5
BF68
  8
0
 10
3664.5863013124289864
 20
303.934477094068427
 30
0.0
 40
0.0315
 50
0.0000000000032569
 51
90.0
  0
ARC
  5
BF69
  8
0
 10
3663.3107186353281577
 20
303.934477094068427
 30
0.0
 40
0.0315
 50
90.0
 51
180.0
  0
ARC
  5
BF6A
  8
0
 10
3663.2201635172277747
 20
303.2179455979684235
 30
0.0
 40
0.0590551180999945
 50
270.0
 51
0.0000000000032569
  0
ARC
  5
BF6B
  8
0
 10
3664.6768564305280051
 20
303.2179455979684235
 30
0.0
 40
0.0590551180999945
 50
179.9999999999967031
 51
270.0
  0
ARC
  5
BF6C
  8
0
 10
3655.0017019673828145
 20
305.2815508379558196
 30
0.0
 40
0.2985993452389111
 50
61.2808986569375875
 51
118.7824151788928049
  0
ARC
  5
BF6D
  8
0
 10
3655.1509478785360443
 20
305.560786215970893
 30
0.0
 40
0.0182994718287057
 50
251.639694470383489
 51
288.3603058108957953
  0
ARC
  5
BF6E
  8
0
 10
3655.4052074111777983
 20
304.739526833540026
 30
0.0
 40
0.8414222554284375
 50
72.8228074487918917
 51
107.1771925512070993
  0
ARC
  5
BF6F
  8
0
 10
3655.6615767799280547
 20
305.5726261753603126
 30
0.0
 40
0.0302506326359718
 50
254.9125754420772125
 51
285.0874245584087134
  0
ARC
  5
BF70
  8
0
 10
3655.9563885135289638
 20
304.4410560826146934
 30
0.0
 40
1.139094239753708
 50
75.4100333704883354
 51
104.5899666295115935
  0
ARC
  5
BF71
  8
0
 10
3656.2512002471280539
 20
305.5726261400131989
 30
0.0
 40
0.0302505985073164
 50
254.9125580153788917
 51
285.0874419842165253
  0
ARC
  5
BF72
  8
0
 10
3656.5075696158778555
 20
304.7212348771262782
 30
0.0
 40
0.8589153057858091
 50
73.1831699465573422
 51
106.816830053442601
  0
ARC
  5
BF73
  8
0
 10
3656.7618291485141526
 20
305.5582313649456978
 30
0.0
 40
0.0158950620835315
 50
248.7376057119724067
 51
291.2623940073556241
  0
ARC
  5
BF74
  8
0
 10
3656.9110621869781426
 20
305.2815743318247996
 30
0.0
 40
0.298572555909689
 50
61.2808986562233073
 51
118.7191013437766003
  0
ARC
  5
BF75
  8
0
 10
3657.0580601156038938
 20
305.5498591676799265
 30
0.0
 40
0.0073443350428441
 50
241.280898656223286
 51
275.3956085534396152
  0
ARC
  5
BF76
  8
0
 10
3654.8551248762701107
 20
305.5485360830055015
 30
0.0
 40
0.0059762510349626
 50
259.4075293674484897
 51
298.0042846830455119
  0
ARC
  5
BF77
  8
0
 10
3655.0017019673828145
 20
303.7133954761811196
 30
0.0
 40
0.2985993452389111
 50
241.2175848211070956
 51
298.7191013430623912
  0
ARC
  5
BF78
  8
0
 10
3655.1509478785360443
 20
303.4341600981659894
 30
0.0
 40
0.0182994718287057
 50
71.63969418910429
 51
108.3603055296164968
  0
ARC
  5
BF79
  8
0
 10
3655.4052074111777983
 20
304.2554194805969132
 30
0.0
 40
0.8414222554284375
 50
252.8228074487929007
 51
287.1771925512081225
  0
ARC
  5
BF7A
  8
0
 10
3655.6615767799280547
 20
303.4223201387766267
 30
0.0
 40
0.0302506326359718
 50
74.9125754415912724
 51
105.0874245579228017
  0
ARC
  5
BF7B
  8
0
 10
3655.9563885135289638
 20
304.5538902315220753
 30
0.0
 40
1.139094239753708
 50
255.4100333704882928
 51
284.5899666295117072
  0
ARC
  5
BF7C
  8
0
 10
3656.2512002471280539
 20
303.4223201741236835
 30
0.0
 40
0.0302505985073164
 50
74.9125580157834179
 51
105.0874419846209946
  0
ARC
  5
BF7D
  8
0
 10
3656.5075696158778555
 20
304.2737114370106042
 30
0.0
 40
0.8589153057858091
 50
253.1831699465573138
 51
286.8168300534426862
  0
ARC
  5
BF7E
  8
0
 10
3656.7618291485141526
 20
303.4367149491911846
 30
0.0
 40
0.0158950620835315
 50
68.7376059926443901
 51
111.2623942880275933
  0
ARC
  5
BF7F
  8
0
 10
3656.9110621869781426
 20
303.7133719823120828
 30
0.0
 40
0.298572555909689
 50
241.280898656223286
 51
298.7191013437766856
  0
ARC
  5
BF80
  8
0
 10
3657.0580601156038938
 20
303.4450871464570128
 30
0.0
 40
0.0073443350428441
 50
84.6043914466126239
 51
118.7191013437766003
  0
ARC
  5
BF81
  8
0
 10
3654.8551248762701107
 20
303.4464102311313809
 30
0.0
 40
0.0059762510349626
 50
61.9957153169545094
 51
100.5924706327092935
  0
LINE
  5
BF82
  8
0
 10
3655.1509478785778811
 20
303.4524595699946872
 30
0.0
 11
3655.1509478785778811
 21
305.5424867441421952
 31
0.0
  0
LINE
  5
BF83
  8
0
 10
3655.6615767799280547
 20
305.5423755427243009
 30
0.0
 11
3655.6615767799280547
 21
303.4525707714125815
 31
0.0
  0
LINE
  5
BF84
  8
0
 10
3656.2512002471280539
 20
305.542375541505919
 30
0.0
 11
3656.2512002471280539
 21
303.4525707726310202
 31
0.0
  0
LINE
  5
BF85
  8
0
 10
3656.7618291484777728
 20
303.4526100112747145
 30
0.0
 11
3656.7618291484777728
 21
305.5423363028622248
 31
0.0
  0
LINE
  5
BF86
  8
0
 10
3657.0587507182781337
 20
305.5801503223685245
 30
0.0
 11
3657.0390656788781598
 21
305.5998353617684984
 31
0.0
  0
LINE
  5
BF87
  8
0
 10
3654.9052113481779998
 20
302.962040086168372
 30
0.0
 11
3657.0075656788781089
 21
302.962040086168372
 31
0.0
  0
LINE
  5
BF88
  8
0
 10
3654.9052113481779998
 20
303.2770007161685157
 30
0.0
 11
3657.0075656788781089
 21
303.2770007161685157
 31
0.0
  0
LINE
  5
BF89
  8
0
 10
3657.0390656788781598
 20
302.9935400861684229
 30
0.0
 11
3657.0390656788781598
 21
303.2455007161685216
 31
0.0
  0
LINE
  5
BF8A
  8
0
 10
3654.8737113481779488
 20
303.2455007161685216
 30
0.0
 11
3654.8737113481779488
 21
302.9935400861684229
 31
0.0
  0
ARC
  5
BF8B
  8
0
 10
3654.9052113481779998
 20
303.2455007161685216
 30
0.0
 40
0.0315
 50
90.0
 51
179.9999999999967031
  0
ARC
  5
BF8C
  8
0
 10
3654.9052113481779998
 20
302.9935400861684229
 30
0.0
 40
0.0315
 50
180.0
 51
270.0
  0
ARC
  5
BF8D
  8
0
 10
3657.0075656788781089
 20
302.9935400861684229
 30
0.0
 40
0.0315
 50
270.0
 51
0.0
  0
ARC
  5
BF8E
  8
0
 10
3657.0075656788781089
 20
303.2455007161685216
 30
0.0
 40
0.0315
 50
0.0
 51
90.0
  0
LINE
  5
BF8F
  8
0
 10
3655.5430026867788911
 20
303.3084967790684914
 30
0.0
 11
3655.5430026867788911
 21
303.3360558342685067
 31
0.0
  0
ARC
  5
BF90
  8
0
 10
3655.5115066237781321
 20
303.3084967790684914
 30
0.0
 40
0.0314960629999991
 50
270.0
 51
0.0
  0
LINE
  5
BF91
  8
0
 10
3656.3697743402781271
 20
303.3084967790684914
 30
0.0
 11
3656.3697743402781271
 21
303.3360558342685067
 31
0.0
  0
ARC
  5
BF92
  8
0
 10
3656.4012704032788861
 20
303.3084967790684914
 30
0.0
 40
0.0314960629999991
 50
180.0
 51
270.0
  0
LINE
  5
BF93
  8
0
 10
3664.4996956001778017
 20
303.9659770940684211
 30
0.0
 11
3664.4996956001778017
 21
313.395110952368384
 31
0.0
  0
LINE
  5
BF94
  8
0
 10
3663.3973333953781548
 20
303.9659770940684211
 30
0.0
 11
3663.3973333953781548
 21
313.395110952368384
 31
0.0
  0
LINE
  5
BF95
  8
0
 10
3664.4996956001778017
 20
313.395110952368384
 30
0.0
 11
3663.3973333953781548
 21
313.395110952368384
 31
0.0
  0
LINE
  5
BF96
  8
0
 10
3664.0863097733781615
 20
313.0742448105684161
 30
0.0
 11
3664.0863097733781615
 21
313.0191306373685052
 31
0.0
  0
LINE
  5
BF97
  8
0
 10
3664.0941837890782153
 20
313.0742448105684161
 30
0.0
 11
3664.0941837890782153
 21
313.0191306373685052
 31
0.0
  0
LINE
  5
BF98
  8
0
 10
3664.172923946578976
 20
312.9876306373683974
 30
0.0
 11
3664.1178097733782124
 21
312.9876306373683974
 31
0.0
  0
LINE
  5
BF99
  8
0
 10
3664.172923946578976
 20
312.9955046530683944
 30
0.0
 11
3664.1178097733782124
 21
312.9955046530683944
 31
0.0
  0
ARC
  5
BF9A
  8
0
 10
3664.172923946578976
 20
313.0742448105684161
 30
0.0
 40
0.0866141731999993
 50
270.0
 51
180.0
  0
ARC
  5
BF9B
  8
0
 10
3664.172923946578976
 20
313.0742448105684161
 30
0.0
 40
0.0787401574999993
 50
270.0
 51
180.0
  0
ARC
  5
BF9C
  8
0
 10
3664.1178097733782124
 20
313.0191306373685052
 30
0.0
 40
0.0315
 50
180.0
 51
270.0
  0
ARC
  5
BF9D
  8
0
 10
3664.1178097733782124
 20
313.0191306373685052
 30
0.0
 40
0.0236259843000001
 50
180.0
 51
270.0
  0
CIRCLE
  5
BF9E
  8
0
 10
3664.1729240640779608
 20
313.0742444214685065
 30
0.0
 40
0.0393693792000001
  0
LINE
  5
BF9F
  8
0
 10
3664.0863097733781615
 20
312.6254259129693764
 30
0.0
 11
3664.0863097733781615
 21
312.6805400861694011
 31
0.0
  0
LINE
  5
BFA0
  8
0
 10
3664.0941837890782153
 20
312.6254259129693764
 30
0.0
 11
3664.0941837890782153
 21
312.6805400861694011
 31
0.0
  0
LINE
  5
BFA1
  8
0
 10
3664.172923946578976
 20
312.7120400861693952
 30
0.0
 11
3664.1178097733782124
 21
312.7120400861693952
 31
0.0
  0
LINE
  5
BFA2
  8
0
 10
3664.172923946578976
 20
312.7041660704693982
 30
0.0
 11
3664.1178097733782124
 21
312.7041660704693982
 31
0.0
  0
ARC
  5
BFA3
  8
0
 10
3664.172923946578976
 20
312.6254259129693764
 30
0.0
 40
0.0866141731999993
 50
180.0
 51
90.0
  0
ARC
  5
BFA4
  8
0
 10
3664.172923946578976
 20
312.6254259129693764
 30
0.0
 40
0.0787401574999993
 50
180.0
 51
90.0
  0
ARC
  5
BFA5
  8
0
 10
3664.1178097733782124
 20
312.6805400861694011
 30
0.0
 40
0.0315
 50
90.0
 51
180.0
  0
ARC
  5
BFA6
  8
0
 10
3664.1178097733782124
 20
312.6805400861694011
 30
0.0
 40
0.0236259843000001
 50
90.0
 51
180.0
  0
CIRCLE
  5
BFA7
  8
0
 10
3664.1729240640779608
 20
312.6254263020693998
 30
0.0
 40
0.0393693792000001
  0
LINE
  5
BFA8
  8
0
 10
3663.8107192221791593
 20
313.0742448105684161
 30
0.0
 11
3663.8107192221791593
 21
313.0191306373685052
 31
0.0
  0
LINE
  5
BFA9
  8
0
 10
3663.8028452064791054
 20
313.0742448105684161
 30
0.0
 11
3663.8028452064791054
 21
313.0191306373685052
 31
0.0
  0
LINE
  5
BFAA
  8
0
 10
3663.7241050489787995
 20
312.9876306373683974
 30
0.0
 11
3663.7792192221791083
 21
312.9876306373683974
 31
0.0
  0
LINE
  5
BFAB
  8
0
 10
3663.7241050489787995
 20
312.9955046530683944
 30
0.0
 11
3663.7792192221791083
 21
312.9955046530683944
 31
0.0
  0
ARC
  5
BFAC
  8
0
 10
3663.7241050489787995
 20
313.0742448105684161
 30
0.0
 40
0.0866141731999993
 50
0.0
 51
270.0
  0
ARC
  5
BFAD
  8
0
 10
3663.7241050489787995
 20
313.0742448105684161
 30
0.0
 40
0.0787401574999993
 50
0.0
 51
270.0
  0
ARC
  5
BFAE
  8
0
 10
3663.7792192221791083
 20
313.0191306373685052
 30
0.0
 40
0.0315
 50
270.0
 51
0.0
  0
ARC
  5
BFAF
  8
0
 10
3663.7792192221791083
 20
313.0191306373685052
 30
0.0
 40
0.0236259843000001
 50
270.0
 51
0.0
  0
CIRCLE
  5
BFB0
  8
0
 10
3663.7241049314789052
 20
313.0742444214685065
 30
0.0
 40
0.0393693792000001
  0
LINE
  5
BFB1
  8
0
 10
3663.8107192221791593
 20
312.6254259129693764
 30
0.0
 11
3663.8107192221791593
 21
312.6805400861694011
 31
0.0
  0
LINE
  5
BFB2
  8
0
 10
3663.8028452064791054
 20
312.6254259129693764
 30
0.0
 11
3663.8028452064791054
 21
312.6805400861694011
 31
0.0
  0
LINE
  5
BFB3
  8
0
 10
3663.7241050489787995
 20
312.7120400861693952
 30
0.0
 11
3663.7792192221791083
 21
312.7120400861693952
 31
0.0
  0
LINE
  5
BFB4
  8
0
 10
3663.7241050489787995
 20
312.7041660704693982
 30
0.0
 11
3663.7792192221791083
 21
312.7041660704693982
 31
0.0
  0
ARC
  5
BFB5
  8
0
 10
3663.7241050489787995
 20
312.6254259129693764
 30
0.0
 40
0.0866141731999993
 50
90.0
 51
0.0
  0
ARC
  5
BFB6
  8
0
 10
3663.7241050489787995
 20
312.6254259129693764
 30
0.0
 40
0.0787401574999993
 50
90.0
 51
0.0
  0
ARC
  5
BFB7
  8
0
 10
3663.7792192221791083
 20
312.6805400861694011
 30
0.0
 40
0.0315
 50
0.0
 51
90.0
  0
ARC
  5
BFB8
  8
0
 10
3663.7792192221791083
 20
312.6805400861694011
 30
0.0
 40
0.0236259843000001
 50
0.0
 51
90.0
  0
CIRCLE
  5
BFB9
  8
0
 10
3663.7241049314789052
 20
312.6254263020693998
 30
0.0
 40
0.0393693792000001
  0
CIRCLE
  5
BFBA
  8
0
 10
3663.9485144977788877
 20
307.8183392987684215
 30
0.0
 40
0.2952755906000003
  0
CIRCLE
  5
BFBB
  8
0
 10
3663.9485648722779843
 20
307.8183218022683718
 30
0.0
 40
0.2773633365231242
  0
LINE
  5
BFBC
  8
0
 10
3663.9957585922779799
 20
308.091640614719779
 30
0.0
 11
3663.9957585922779799
 21
308.1098108581683732
 31
0.0
  0
LINE
  5
BFBD
  8
0
 10
3663.9012704032779766
 20
308.0916231993546148
 30
0.0
 11
3663.9012704032779766
 21
308.1098108581683732
 31
0.0
  0
CIRCLE
  5
BFBE
  8
0
 10
3663.9491485144781109
 20
308.6059351102683763
 30
0.0
 40
0.2952755906000003
  0
CIRCLE
  5
BFBF
  8
0
 10
3663.9491988889781169
 20
308.6059176137683835
 30
0.0
 40
0.2773633365231242
  0
LINE
  5
BFC0
  8
0
 10
3663.9963926089781125
 20
308.33259880131709
 30
0.0
 11
3663.9963926089781125
 21
308.3144635508684814
 31
0.0
  0
LINE
  5
BFC1
  8
0
 10
3663.9963926089781125
 20
308.8792364262197907
 30
0.0
 11
3663.9963926089781125
 21
308.8974066696683849
 31
0.0
  0
LINE
  5
BFC2
  8
0
 10
3663.9019044199781092
 20
308.332616216682311
 30
0.0
 11
3663.9019044199781092
 21
308.3144635508684814
 31
0.0
  0
LINE
  5
BFC3
  8
0
 10
3663.9019044199781092
 20
308.8792190108546265
 30
0.0
 11
3663.9019044199781092
 21
308.8974066696683849
 31
0.0
  0
CIRCLE
  5
BFC4
  8
0
 10
3663.8182274153159597
 20
309.5839680281255255
 30
0.0
 40
0.0219371100413915
  0
CIRCLE
  5
BFC5
  8
0
 10
3663.8182303858320665
 20
309.584013245739186
 30
0.0
 40
0.0408570580211857
  0
CIRCLE
  5
BFC6
  8
0
 10
3663.8229773286761883
 20
309.5907584305272167
 30
0.0
 40
0.0554207461430177
  0
CIRCLE
  5
BFC7
  8
0
 10
3663.8222523234630899
 20
309.5896697152574006
 30
0.0
 40
0.0642655935426859
  0
CIRCLE
  5
BFC8
  8
0
 10
3663.693470893353151
 20
309.7172602063791942
 30
0.0
 40
0.0661705096741988
  0
CIRCLE
  5
BFC9
  8
0
 10
3663.6911379771509019
 20
309.7123376942112145
 30
0.0
 40
0.0219822042275126
  0
CIRCLE
  5
BFCA
  8
0
 10
3663.6908787642410061
 20
309.7110422907030056
 30
0.0
 40
0.0389175889830865
  0
CIRCLE
  5
BFCB
  8
0
 10
3663.6975114292299622
 20
309.7181249648976973
 30
0.0
 40
0.0553656657944533
  0
CIRCLE
  5
BFCC
  8
0
 10
3663.8184075559129269
 20
309.8375755643893967
 30
0.0
 40
0.0205588717870629
  0
CIRCLE
  5
BFCD
  8
0
 10
3663.818942956113915
 20
309.8376410981852018
 30
0.0
 40
0.0408422776873642
  0
CIRCLE
  5
BFCE
  8
0
 10
3663.8218619834738092
 20
309.8425168055379118
 30
0.0
 40
0.0556738659170149
  0
CIRCLE
  5
BFCF
  8
0
 10
3663.8211612952582072
 20
309.8419143743042241
 30
0.0
 40
0.06465242327411
  0
CIRCLE
  5
BFD0
  8
0
 10
3663.6904360158569034
 20
309.9631348605531116
 30
0.0
 40
0.0233570144697833
  0
CIRCLE
  5
BFD1
  8
0
 10
3663.6905398424751183
 20
309.9647523954697022
 30
0.0
 40
0.0389463865763326
  0
CIRCLE
  5
BFD2
  8
0
 10
3663.6999401120629045
 20
309.9685639369703836
 30
0.0
 40
0.0540433072182449
  0
CIRCLE
  5
BFD3
  8
0
 10
3663.6991234983329377
 20
309.9695918236005241
 30
0.0
 40
0.0601294157652461
  0
CIRCLE
  5
BFD4
  8
0
 10
3663.8188793729191275
 20
310.0901152313306852
 30
0.0
 40
0.0227407972631031
  0
CIRCLE
  5
BFD5
  8
0
 10
3663.8184630762771121
 20
310.0899744641729967
 30
0.0
 40
0.0412166308283233
  0
CIRCLE
  5
BFD6
  8
0
 10
3663.8231641305160338
 20
310.0946064478824837
 30
0.0
 40
0.0548388010466829
  0
CIRCLE
  5
BFD7
  8
0
 10
3663.8227725174501757
 20
310.0937651251531975
 30
0.0
 40
0.0641297047439289
  0
CIRCLE
  5
BFD8
  8
0
 10
3663.6892847286071628
 20
310.2158573378623032
 30
0.0
 40
0.0233570144697833
  0
CIRCLE
  5
BFD9
  8
0
 10
3663.689388555224923
 20
310.2174748727788938
 30
0.0
 40
0.0389463865763326
  0
CIRCLE
  5
BFDA
  8
0
 10
3663.698788824813164
 20
310.2212864142795752
 30
0.0
 40
0.0540433072182449
  0
CIRCLE
  5
BFDB
  8
0
 10
3663.6979722110831972
 20
310.222314300909602
 30
0.0
 40
0.0601294157652461
  0
CIRCLE
  5
BFDC
  8
0
 10
3663.6882794917428328
 20
310.4706905113005746
 30
0.0
 40
0.0233570144697833
  0
CIRCLE
  5
BFDD
  8
0
 10
3663.6883833183610477
 20
310.4723080462171083
 30
0.0
 40
0.0389463865763326
  0
CIRCLE
  5
BFDE
  8
0
 10
3663.6977835879488339
 20
310.4761195877179034
 30
0.0
 40
0.0540433072182449
  0
CIRCLE
  5
BFDF
  8
0
 10
3663.6969669742188671
 20
310.4771474743478734
 30
0.0
 40
0.0601294157652461
  0
CIRCLE
  5
BFE0
  8
0
 10
3663.6904360158569034
 20
310.7230549976528096
 30
0.0
 40
0.0233570144697833
  0
CIRCLE
  5
BFE1
  8
0
 10
3663.6905398424751183
 20
310.7246725325694001
 30
0.0
 40
0.0389463865763326
  0
CIRCLE
  5
BFE2
  8
0
 10
3663.6999401120629045
 20
310.7284840740700815
 30
0.0
 40
0.0540433072182449
  0
CIRCLE
  5
BFE3
  8
0
 10
3663.6991234983329377
 20
310.7295119607002221
 30
0.0
 40
0.0601294157652461
  0
CIRCLE
  5
BFE4
  8
0
 10
3663.8183480041329858
 20
310.3427939724144835
 30
0.0
 40
0.0227407972631031
  0
CIRCLE
  5
BFE5
  8
0
 10
3663.8179317074900609
 20
310.342653205256795
 30
0.0
 40
0.0412166308283233
  0
CIRCLE
  5
BFE6
  8
0
 10
3663.8226327617298921
 20
310.347285188966282
 30
0.0
 40
0.0548388010466829
  0
CIRCLE
  5
BFE7
  8
0
 10
3663.8222411486631245
 20
310.3464438662369957
 30
0.0
 40
0.0641297047439289
  0
CIRCLE
  5
BFE8
  8
0
 10
3663.8186555940242215
 20
310.5955198357539757
 30
0.0
 40
0.0227407972631031
  0
CIRCLE
  5
BFE9
  8
0
 10
3663.8182392973808419
 20
310.5953790685962872
 30
0.0
 40
0.0412166308283233
  0
CIRCLE
  5
BFEA
  8
0
 10
3663.8229403516211278
 20
310.6000110523058879
 30
0.0
 40
0.0548388010466829
  0
CIRCLE
  5
BFEB
  8
0
 10
3663.8225487385539054
 20
310.599169729576488
 30
0.0
 40
0.0641297047439289
  0
CIRCLE
  5
BFEC
  8
0
 10
3663.8182274153159597
 20
311.863734177411402
 30
0.0
 40
0.0219371100413915
  0
CIRCLE
  5
BFED
  8
0
 10
3663.8182303858320665
 20
311.8636889597976847
 30
0.0
 40
0.0408570580211857
  0
CIRCLE
  5
BFEE
  8
0
 10
3663.8229773286761883
 20
311.8569437750097109
 30
0.0
 40
0.0554207461430177
  0
CIRCLE
  5
BFEF
  8
0
 10
3663.8222523234630899
 20
311.8580324902795269
 30
0.0
 40
0.0642655935426859
  0
CIRCLE
  5
BFF0
  8
0
 10
3663.693470893353151
 20
311.7304419991576765
 30
0.0
 40
0.0661705096741988
  0
CIRCLE
  5
BFF1
  8
0
 10
3663.6911379771509019
 20
311.735364511325713
 30
0.0
 40
0.0219822042275126
  0
CIRCLE
  5
BFF2
  8
0
 10
3663.6908787642410061
 20
311.7366599148338082
 30
0.0
 40
0.0389175889830865
  0
CIRCLE
  5
BFF3
  8
0
 10
3663.6975114292299622
 20
311.7295772406391166
 30
0.0
 40
0.0553656657944533
  0
CIRCLE
  5
BFF4
  8
0
 10
3663.8184075559129269
 20
311.6101266411474739
 30
0.0
 40
0.0205588717870629
  0
CIRCLE
  5
BFF5
  8
0
 10
3663.818942956113915
 20
311.6100611073517257
 30
0.0
 40
0.0408422776873642
  0
CIRCLE
  5
BFF6
  8
0
 10
3663.8218619834738092
 20
311.6051853999990726
 30
0.0
 40
0.0556738659170149
  0
CIRCLE
  5
BFF7
  8
0
 10
3663.8211612952582072
 20
311.6057878312327034
 30
0.0
 40
0.06465242327411
  0
CIRCLE
  5
BFF8
  8
0
 10
3663.6904360158569034
 20
311.4845673449837022
 30
0.0
 40
0.0233570144697833
  0
CIRCLE
  5
BFF9
  8
0
 10
3663.6905398424751183
 20
311.4829498100672254
 30
0.0
 40
0.0389463865763326
  0
CIRCLE
  5
BFFA
  8
0
 10
3663.6999401120629045
 20
311.4791382685663734
 30
0.0
 40
0.0540433072182449
  0
CIRCLE
  5
BFFB
  8
0
 10
3663.6991234983329377
 20
311.4781103819364034
 30
0.0
 40
0.0601294157652461
  0
CIRCLE
  5
BFFC
  8
0
 10
3663.8188793729191275
 20
311.3575869742061855
 30
0.0
 40
0.0227407972631031
  0
CIRCLE
  5
BFFD
  8
0
 10
3663.8184630762771121
 20
311.357727741363874
 30
0.0
 40
0.0412166308283233
  0
CIRCLE
  5
BFFE
  8
0
 10
3663.8231641305160338
 20
311.3530957576543869
 30
0.0
 40
0.0548388010466829
  0
CIRCLE
  5
BFFF
  8
0
 10
3663.8227725174501757
 20
311.3539370803836732
 30
0.0
 40
0.0641297047439289
  0
CIRCLE
  5
C000
  8
0
 10
3663.6892847286071628
 20
311.2318448676746243
 30
0.0
 40
0.0233570144697833
  0
CIRCLE
  5
C001
  8
0
 10
3663.689388555224923
 20
311.2302273327579769
 30
0.0
 40
0.0389463865763326
  0
CIRCLE
  5
C002
  8
0
 10
3663.698788824813164
 20
311.2264157912571818
 30
0.0
 40
0.0540433072182449
  0
CIRCLE
  5
C003
  8
0
 10
3663.6979722110831972
 20
311.2253879046272118
 30
0.0
 40
0.0601294157652461
  0
CIRCLE
  5
C004
  8
0
 10
3663.6882794917428328
 20
310.9770116942362961
 30
0.0
 40
0.0233570144697833
  0
CIRCLE
  5
C005
  8
0
 10
3663.6883833183610477
 20
310.9753941593198192
 30
0.0
 40
0.0389463865763326
  0
CIRCLE
  5
C006
  8
0
 10
3663.6977835879488339
 20
310.9715826178190241
 30
0.0
 40
0.0540433072182449
  0
CIRCLE
  5
C007
  8
0
 10
3663.6969669742188671
 20
310.9705547311889973
 30
0.0
 40
0.0601294157652461
  0
CIRCLE
  5
C008
  8
0
 10
3663.8183480041329858
 20
311.1049082331223872
 30
0.0
 40
0.0227407972631031
  0
CIRCLE
  5
C009
  8
0
 10
3663.8179317074900609
 20
311.1050490002800757
 30
0.0
 40
0.0412166308283233
  0
CIRCLE
  5
C00A
  8
0
 10
3663.8226327617298921
 20
311.1004170165705887
 30
0.0
 40
0.0548388010466829
  0
CIRCLE
  5
C00B
  8
0
 10
3663.8222411486631245
 20
311.1012583392998749
 30
0.0
 40
0.0641297047439289
  0
CIRCLE
  5
C00C
  8
0
 10
3663.8186555940242215
 20
310.8521823697827813
 30
0.0
 40
0.0227407972631031
  0
CIRCLE
  5
C00D
  8
0
 10
3663.8182392973808419
 20
310.8523231369405266
 30
0.0
 40
0.0412166308283233
  0
CIRCLE
  5
C00E
  8
0
 10
3663.8229403516211278
 20
310.8476911532309828
 30
0.0
 40
0.0548388010466829
  0
CIRCLE
  5
C00F
  8
0
 10
3663.8225487385539054
 20
310.8485324759603259
 30
0.0
 40
0.0641297047439289
  0
CIRCLE
  5
C010
  8
0
 10
3663.8179596444888375
 20
312.1167438452698093
 30
0.0
 40
0.0219371100413915
  0
CIRCLE
  5
C011
  8
0
 10
3663.8179626150049444
 20
312.116698627656092
 30
0.0
 40
0.0408570580211857
  0
CIRCLE
  5
C012
  8
0
 10
3663.8227095578490662
 20
312.109953442868175
 30
0.0
 40
0.0554207461430177
  0
CIRCLE
  5
C013
  8
0
 10
3663.8219845526350582
 20
312.1110421581378773
 30
0.0
 40
0.0642655935426859
  0
CIRCLE
  5
C014
  8
0
 10
3663.6932031225260289
 20
311.9834516670160838
 30
0.0
 40
0.0661705096741988
  0
CIRCLE
  5
C015
  8
0
 10
3663.6908702063237797
 20
311.9883741791841771
 30
0.0
 40
0.0219822042275126
  0
CIRCLE
  5
C016
  8
0
 10
3663.6906109934129745
 20
311.9896695826922723
 30
0.0
 40
0.0389175889830865
  0
CIRCLE
  5
C017
  8
0
 10
3663.6972436584028401
 20
311.9825869084975807
 30
0.0
 40
0.0553656657944533
  0
CIRCLE
  5
C018
  8
0
 10
3663.8172007482980916
 20
312.3696829227081935
 30
0.0
 40
0.0219371100413915
  0
CIRCLE
  5
C019
  8
0
 10
3663.8172037188141985
 20
312.3696377050944761
 30
0.0
 40
0.0408570580211857
  0
CIRCLE
  5
C01A
  8
0
 10
3663.8219506616587751
 20
312.3628925203065023
 30
0.0
 40
0.0554207461430177
  0
CIRCLE
  5
C01B
  8
0
 10
3663.8212256564452218
 20
312.3639812355762047
 30
0.0
 40
0.0642655935426859
  0
CIRCLE
  5
C01C
  8
0
 10
3663.6924442263361925
 20
312.2363907444545248
 30
0.0
 40
0.0661705096741988
  0
CIRCLE
  5
C01D
  8
0
 10
3663.6901113101339433
 20
312.2413132566226182
 30
0.0
 40
0.0219822042275126
  0
CIRCLE
  5
C01E
  8
0
 10
3663.6898520972231381
 20
312.2426086601305997
 30
0.0
 40
0.0389175889830865
  0
CIRCLE
  5
C01F
  8
0
 10
3663.6964847622120942
 20
312.2355259859360217
 30
0.0
 40
0.0553656657944533
  0
CIRCLE
  5
C020
  8
0
 10
3664.0788015802399968
 20
309.5839680281255255
 30
0.0
 40
0.0219371100413915
  0
CIRCLE
  5
C021
  8
0
 10
3664.07879860972389
 20
309.584013245739186
 30
0.0
 40
0.0408570580211857
  0
CIRCLE
  5
C022
  8
0
 10
3664.0740516668788587
 20
309.5907584305272167
 30
0.0
 40
0.0554207461430177
  0
CIRCLE
  5
C023
  8
0
 10
3664.0747766720937761
 20
309.5896697152574006
 30
0.0
 40
0.0642655935426859
  0
CIRCLE
  5
C024
  8
0
 10
3664.2035581022028055
 20
309.7172602063791942
 30
0.0
 40
0.0661705096741988
  0
CIRCLE
  5
C025
  8
0
 10
3664.2058910184050546
 20
309.7123376942112145
 30
0.0
 40
0.0219822042275126
  0
CIRCLE
  5
C026
  8
0
 10
3664.2061502313158599
 20
309.7110422907030056
 30
0.0
 40
0.0389175889830865
  0
CIRCLE
  5
C027
  8
0
 10
3664.1995175663259943
 20
309.7181249648976973
 30
0.0
 40
0.0553656657944533
  0
CIRCLE
  5
C028
  8
0
 10
3664.0786214396439391
 20
309.8375755643893967
 30
0.0
 40
0.0205588717870629
  0
CIRCLE
  5
C029
  8
0
 10
3664.0780860394420415
 20
309.8376410981852018
 30
0.0
 40
0.0408422776873642
  0
CIRCLE
  5
C02A
  8
0
 10
3664.0751670120821473
 20
309.8425168055379118
 30
0.0
 40
0.0556738659170149
  0
CIRCLE
  5
C02B
  8
0
 10
3664.0758677002991135
 20
309.8419143743042241
 30
0.0
 40
0.06465242327411
  0
CIRCLE
  5
C02C
  8
0
 10
3664.2065929796990531
 20
309.9631348605531116
 30
0.0
 40
0.0233570144697833
  0
CIRCLE
  5
C02D
  8
0
 10
3664.2064891530822024
 20
309.9647523954697022
 30
0.0
 40
0.0389463865763326
  0
CIRCLE
  5
C02E
  8
0
 10
3664.1970888834939615
 20
309.9685639369703836
 30
0.0
 40
0.0540433072182449
  0
CIRCLE
  5
C02F
  8
0
 10
3664.1979054972239283
 20
309.9695918236005241
 30
0.0
 40
0.0601294157652461
  0
CIRCLE
  5
C030
  8
0
 10
3664.078149622636829
 20
310.0901152313306852
 30
0.0
 40
0.0227407972631031
  0
CIRCLE
  5
C031
  8
0
 10
3664.0785659192788444
 20
310.0899744641729967
 30
0.0
 40
0.0412166308283233
  0
CIRCLE
  5
C032
  8
0
 10
3664.0738648650399227
 20
310.0946064478824837
 30
0.0
 40
0.0548388010466829
  0
CIRCLE
  5
C033
  8
0
 10
3664.0742564781071451
 20
310.0937651251531975
 30
0.0
 40
0.0641297047439289
  0
CIRCLE
  5
C034
  8
0
 10
3664.2077442669487937
 20
310.2158573378623032
 30
0.0
 40
0.0233570144697833
  0
CIRCLE
  5
C035
  8
0
 10
3664.2076404403310335
 20
310.2174748727788938
 30
0.0
 40
0.0389463865763326
  0
CIRCLE
  5
C036
  8
0
 10
3664.1982401707427925
 20
310.2212864142795752
 30
0.0
 40
0.0540433072182449
  0
CIRCLE
  5
C037
  8
0
 10
3664.1990567844741236
 20
310.222314300909602
 30
0.0
 40
0.0601294157652461
  0
CIRCLE
  5
C038
  8
0
 10
3664.2087495038140332
 20
310.4706905113005746
 30
0.0
 40
0.0233570144697833
  0
CIRCLE
  5
C039
  8
0
 10
3664.2086456771958183
 20
310.4723080462171083
 30
0.0
 40
0.0389463865763326
  0
CIRCLE
  5
C03A
  8
0
 10
3664.1992454076071226
 20
310.4761195877179034
 30
0.0
 40
0.0540433072182449
  0
CIRCLE
  5
C03B
  8
0
 10
3664.2000620213370894
 20
310.4771474743478734
 30
0.0
 40
0.0601294157652461
  0
CIRCLE
  5
C03C
  8
0
 10
3664.2065929796990531
 20
310.7230549976528096
 30
0.0
 40
0.0233570144697833
  0
CIRCLE
  5
C03D
  8
0
 10
3664.2064891530822024
 20
310.7246725325694001
 30
0.0
 40
0.0389463865763326
  0
CIRCLE
  5
C03E
  8
0
 10
3664.1970888834939615
 20
310.7284840740700815
 30
0.0
 40
0.0540433072182449
  0
CIRCLE
  5
C03F
  8
0
 10
3664.1979054972239283
 20
310.7295119607002221
 30
0.0
 40
0.0601294157652461
  0
CIRCLE
  5
C040
  8
0
 10
3664.0786809914229707
 20
310.3427939724144835
 30
0.0
 40
0.0227407972631031
  0
CIRCLE
  5
C041
  8
0
 10
3664.0790972880658956
 20
310.342653205256795
 30
0.0
 40
0.0412166308283233
  0
CIRCLE
  5
C042
  8
0
 10
3664.0743962338260644
 20
310.347285188966282
 30
0.0
 40
0.0548388010466829
  0
CIRCLE
  5
C043
  8
0
 10
3664.074787846892832
 20
310.3464438662369957
 30
0.0
 40
0.0641297047439289
  0
CIRCLE
  5
C044
  8
0
 10
3664.0783734015321897
 20
310.5955198357539757
 30
0.0
 40
0.0227407972631031
  0
CIRCLE
  5
C045
  8
0
 10
3664.0787896981751146
 20
310.5953790685962872
 30
0.0
 40
0.0412166308283233
  0
CIRCLE
  5
C046
  8
0
 10
3664.0740886439348287
 20
310.6000110523058879
 30
0.0
 40
0.0548388010466829
  0
CIRCLE
  5
C047
  8
0
 10
3664.0744802570020511
 20
310.599169729576488
 30
0.0
 40
0.0641297047439289
  0
CIRCLE
  5
C048
  8
0
 10
3664.0788015802399968
 20
311.863734177411402
 30
0.0
 40
0.0219371100413915
  0
CIRCLE
  5
C049
  8
0
 10
3664.07879860972389
 20
311.8636889597976847
 30
0.0
 40
0.0408570580211857
  0
CIRCLE
  5
C04A
  8
0
 10
3664.0740516668788587
 20
311.8569437750097109
 30
0.0
 40
0.0554207461430177
  0
CIRCLE
  5
C04B
  8
0
 10
3664.0747766720937761
 20
311.8580324902795269
 30
0.0
 40
0.0642655935426859
  0
CIRCLE
  5
C04C
  8
0
 10
3664.2035581022028055
 20
311.7304419991576765
 30
0.0
 40
0.0661705096741988
  0
CIRCLE
  5
C04D
  8
0
 10
3664.2058910184050546
 20
311.735364511325713
 30
0.0
 40
0.0219822042275126
  0
CIRCLE
  5
C04E
  8
0
 10
3664.2061502313158599
 20
311.7366599148338082
 30
0.0
 40
0.0389175889830865
  0
CIRCLE
  5
C04F
  8
0
 10
3664.1995175663259943
 20
311.7295772406391166
 30
0.0
 40
0.0553656657944533
  0
CIRCLE
  5
C050
  8
0
 10
3664.0786214396439391
 20
311.6101266411474739
 30
0.0
 40
0.0205588717870629
  0
CIRCLE
  5
C051
  8
0
 10
3664.0780860394420415
 20
311.6100611073517257
 30
0.0
 40
0.0408422776873642
  0
CIRCLE
  5
C052
  8
0
 10
3664.0751670120821473
 20
311.6051853999990726
 30
0.0
 40
0.0556738659170149
  0
CIRCLE
  5
C053
  8
0
 10
3664.0758677002991135
 20
311.6057878312327034
 30
0.0
 40
0.06465242327411
  0
CIRCLE
  5
C054
  8
0
 10
3664.2065929796990531
 20
311.4845673449837022
 30
0.0
 40
0.0233570144697833
  0
CIRCLE
  5
C055
  8
0
 10
3664.2064891530822024
 20
311.4829498100672254
 30
0.0
 40
0.0389463865763326
  0
CIRCLE
  5
C056
  8
0
 10
3664.1970888834939615
 20
311.4791382685663734
 30
0.0
 40
0.0540433072182449
  0
CIRCLE
  5
C057
  8
0
 10
3664.1979054972239283
 20
311.4781103819364034
 30
0.0
 40
0.0601294157652461
  0
CIRCLE
  5
C058
  8
0
 10
3664.078149622636829
 20
311.3575869742061855
 30
0.0
 40
0.0227407972631031
  0
CIRCLE
  5
C059
  8
0
 10
3664.0785659192788444
 20
311.357727741363874
 30
0.0
 40
0.0412166308283233
  0
CIRCLE
  5
C05A
  8
0
 10
3664.0738648650399227
 20
311.3530957576543869
 30
0.0
 40
0.0548388010466829
  0
CIRCLE
  5
C05B
  8
0
 10
3664.0742564781071451
 20
311.3539370803836732
 30
0.0
 40
0.0641297047439289
  0
CIRCLE
  5
C05C
  8
0
 10
3664.2077442669487937
 20
311.2318448676746243
 30
0.0
 40
0.0233570144697833
  0
CIRCLE
  5
C05D
  8
0
 10
3664.2076404403310335
 20
311.2302273327579769
 30
0.0
 40
0.0389463865763326
  0
CIRCLE
  5
C05E
  8
0
 10
3664.1982401707427925
 20
311.2264157912571818
 30
0.0
 40
0.0540433072182449
  0
CIRCLE
  5
C05F
  8
0
 10
3664.1990567844741236
 20
311.2253879046272118
 30
0.0
 40
0.0601294157652461
  0
CIRCLE
  5
C060
  8
0
 10
3664.2087495038140332
 20
310.9770116942362961
 30
0.0
 40
0.0233570144697833
  0
CIRCLE
  5
C061
  8
0
 10
3664.2086456771958183
 20
310.9753941593198192
 30
0.0
 40
0.0389463865763326
  0
CIRCLE
  5
C062
  8
0
 10
3664.1992454076071226
 20
310.9715826178190241
 30
0.0
 40
0.0540433072182449
  0
CIRCLE
  5
C063
  8
0
 10
3664.2000620213370894
 20
310.9705547311889973
 30
0.0
 40
0.0601294157652461
  0
CIRCLE
  5
C064
  8
0
 10
3664.0786809914229707
 20
311.1049082331223872
 30
0.0
 40
0.0227407972631031
  0
CIRCLE
  5
C065
  8
0
 10
3664.0790972880658956
 20
311.1050490002800757
 30
0.0
 40
0.0412166308283233
  0
CIRCLE
  5
C066
  8
0
 10
3664.0743962338260644
 20
311.1004170165705887
 30
0.0
 40
0.0548388010466829
  0
CIRCLE
  5
C067
  8
0
 10
3664.074787846892832
 20
311.1012583392998749
 30
0.0
 40
0.0641297047439289
  0
CIRCLE
  5
C068
  8
0
 10
3664.0783734015321897
 20
310.8521823697827813
 30
0.0
 40
0.0227407972631031
  0
CIRCLE
  5
C069
  8
0
 10
3664.0787896981751146
 20
310.8523231369405266
 30
0.0
 40
0.0412166308283233
  0
CIRCLE
  5
C06A
  8
0
 10
3664.0740886439348287
 20
310.8476911532309828
 30
0.0
 40
0.0548388010466829
  0
CIRCLE
  5
C06B
  8
0
 10
3664.0744802570020511
 20
310.8485324759603259
 30
0.0
 40
0.0641297047439289
  0
CIRCLE
  5
C06C
  8
0
 10
3664.0790693510680285
 20
312.1167438452698093
 30
0.0
 40
0.0219371100413915
  0
CIRCLE
  5
C06D
  8
0
 10
3664.0790663805510121
 20
312.116698627656092
 30
0.0
 40
0.0408570580211857
  0
CIRCLE
  5
C06E
  8
0
 10
3664.0743194377077998
 20
312.109953442868175
 30
0.0
 40
0.0554207461430177
  0
CIRCLE
  5
C06F
  8
0
 10
3664.0750444429208983
 20
312.1110421581378773
 30
0.0
 40
0.0642655935426859
  0
CIRCLE
  5
C070
  8
0
 10
3664.2038258730299276
 20
311.9834516670160838
 30
0.0
 40
0.0661705096741988
  0
CIRCLE
  5
C071
  8
0
 10
3664.2061587892321768
 20
311.9883741791841771
 30
0.0
 40
0.0219822042275126
  0
CIRCLE
  5
C072
  8
0
 10
3664.206418002142982
 20
311.9896695826922723
 30
0.0
 40
0.0389175889830865
  0
CIRCLE
  5
C073
  8
0
 10
3664.1997853371531164
 20
311.9825869084975807
 30
0.0
 40
0.0553656657944533
  0
CIRCLE
  5
C074
  8
0
 10
3664.0798282472578649
 20
312.3696829227081935
 30
0.0
 40
0.0219371100413915
  0
CIRCLE
  5
C075
  8
0
 10
3664.0798252767408485
 20
312.3696377050944761
 30
0.0
 40
0.0408570580211857
  0
CIRCLE
  5
C076
  8
0
 10
3664.0750783338980909
 20
312.3628925203065023
 30
0.0
 40
0.0554207461430177
  0
CIRCLE
  5
C077
  8
0
 10
3664.0758033391120989
 20
312.3639812355762047
 30
0.0
 40
0.0642655935426859
  0
CIRCLE
  5
C078
  8
0
 10
3664.2045847692211282
 20
312.2363907444545248
 30
0.0
 40
0.0661705096741988
  0
CIRCLE
  5
C079
  8
0
 10
3664.2069176854229227
 20
312.2413132566226182
 30
0.0
 40
0.0219822042275126
  0
CIRCLE
  5
C07A
  8
0
 10
3664.2071768983328184
 20
312.2426086601305997
 30
0.0
 40
0.0389175889830865
  0
CIRCLE
  5
C07B
  8
0
 10
3664.2005442333429528
 20
312.2355259859360217
 30
0.0
 40
0.0553656657944533
  0
CIRCLE
  5
C07C
  8
0
 10
3663.9485144977788877
 20
312.2418185158393271
 30
0.0
 40
0.021916179430336
  0
CIRCLE
  5
C07D
  8
0
 10
3663.9488392742277938
 20
312.241243208119613
 30
0.0
 40
0.0406325173471931
  0
CIRCLE
  5
C07E
  8
0
 10
3663.9483455070380842
 20
312.2348684063704241
 30
0.0
 40
0.0559420806354147
  0
CIRCLE
  5
C07F
  8
0
 10
3663.9478027825789468
 20
312.2356484056321051
 30
0.0
 40
0.0632526631041862
  0
CIRCLE
  5
C080
  8
0
 10
3663.9485144977788877
 20
311.9874930705983047
 30
0.0
 40
0.021916179430336
  0
CIRCLE
  5
C081
  8
0
 10
3663.9488392742277938
 20
311.9869177628785906
 30
0.0
 40
0.0406325173471931
  0
CIRCLE
  5
C082
  8
0
 10
3663.9483455070380842
 20
311.9805429611294016
 30
0.0
 40
0.0559420806354147
  0
CIRCLE
  5
C083
  8
0
 10
3663.9478027825789468
 20
311.9813229603910827
 30
0.0
 40
0.0632526631041862
  0
CIRCLE
  5
C084
  8
0
 10
3663.9485144977788877
 20
311.7339971322513748
 30
0.0
 40
0.021916179430336
  0
CIRCLE
  5
C085
  8
0
 10
3663.9488392742277938
 20
311.7334218245317743
 30
0.0
 40
0.0406325173471931
  0
CIRCLE
  5
C086
  8
0
 10
3663.9483455070380842
 20
311.7270470227825854
 30
0.0
 40
0.0559420806354147
  0
CIRCLE
  5
C087
  8
0
 10
3663.9478027825789468
 20
311.7278270220442096
 30
0.0
 40
0.0632526631041862
  0
CIRCLE
  5
C088
  8
0
 10
3663.9485144977788877
 20
311.4810559385441024
 30
0.0
 40
0.021916179430336
  0
CIRCLE
  5
C089
  8
0
 10
3663.9488392742277938
 20
311.4804806308243883
 30
0.0
 40
0.0406325173471931
  0
CIRCLE
  5
C08A
  8
0
 10
3663.9483455070380842
 20
311.4741058290753131
 30
0.0
 40
0.0559420806354147
  0
CIRCLE
  5
C08B
  8
0
 10
3663.9478027825789468
 20
311.4748858283368804
 30
0.0
 40
0.0632526631041862
  0
CIRCLE
  5
C08C
  8
0
 10
3663.9485144977788877
 20
311.2274058652739086
 30
0.0
 40
0.021916179430336
  0
CIRCLE
  5
C08D
  8
0
 10
3663.9488392742277938
 20
311.2268305575541945
 30
0.0
 40
0.0406325173471931
  0
CIRCLE
  5
C08E
  8
0
 10
3663.9483455070380842
 20
311.2204557558051192
 30
0.0
 40
0.0559420806354147
  0
CIRCLE
  5
C08F
  8
0
 10
3663.9478027825789468
 20
311.2212357550668003
 30
0.0
 40
0.0632526631041862
  0
CIRCLE
  5
C090
  8
0
 10
3663.9485144977788877
 20
310.9758196137685218
 30
0.0
 40
0.0216535432999996
  0
CIRCLE
  5
C091
  8
0
 10
3663.9485144977788877
 20
310.9758196137685218
 30
0.0
 40
0.0413385827000006
  0
CIRCLE
  5
C092
  8
0
 10
3663.9485144977788877
 20
310.9758196137685218
 30
0.0
 40
0.0557897878653207
  0
CIRCLE
  5
C093
  8
0
 10
3663.9485144977788877
 20
310.9758196137685218
 30
0.0
 40
0.0629921260000006
  0
CIRCLE
  5
C094
  8
0
 10
3663.9485144977788877
 20
309.7098207116976027
 30
0.0
 40
0.021916179430336
  0
CIRCLE
  5
C095
  8
0
 10
3663.9488392742277938
 20
309.7103960194173169
 30
0.0
 40
0.0406325173471931
  0
CIRCLE
  5
C096
  8
0
 10
3663.9483455070380842
 20
309.7167708211665058
 30
0.0
 40
0.0559420806354147
  0
CIRCLE
  5
C097
  8
0
 10
3663.9478027825789468
 20
309.7159908219048248
 30
0.0
 40
0.0632526631041862
  0
CIRCLE
  5
C098
  8
0
 10
3663.9485144977788877
 20
309.9641461569386252
 30
0.0
 40
0.021916179430336
  0
CIRCLE
  5
C099
  8
0
 10
3663.9488392742277938
 20
309.9647214646582825
 30
0.0
 40
0.0406325173471931
  0
CIRCLE
  5
C09A
  8
0
 10
3663.9483455070380842
 20
309.9710962664075282
 30
0.0
 40
0.0559420806354147
  0
CIRCLE
  5
C09B
  8
0
 10
3663.9478027825789468
 20
309.9703162671457903
 30
0.0
 40
0.0632526631041862
  0
CIRCLE
  5
C09C
  8
0
 10
3663.9485144977788877
 20
310.2176420952853846
 30
0.0
 40
0.021916179430336
  0
CIRCLE
  5
C09D
  8
0
 10
3663.9488392742277938
 20
310.2182174030050987
 30
0.0
 40
0.0406325173471931
  0
CIRCLE
  5
C09E
  8
0
 10
3663.9483455070380842
 20
310.2245922047542876
 30
0.0
 40
0.0559420806354147
  0
CIRCLE
  5
C09F
  8
0
 10
3663.9478027825789468
 20
310.2238122054927203
 30
0.0
 40
0.0632526631041862
  0
CIRCLE
  5
C0A0
  8
0
 10
3663.9485144977788877
 20
310.4705832889928274
 30
0.0
 40
0.021916179430336
  0
CIRCLE
  5
C0A1
  8
0
 10
3663.9488392742277938
 20
310.4711585967124279
 30
0.0
 40
0.0406325173471931
  0
CIRCLE
  5
C0A2
  8
0
 10
3663.9483455070380842
 20
310.4775333984616168
 30
0.0
 40
0.0559420806354147
  0
CIRCLE
  5
C0A3
  8
0
 10
3663.9478027825789468
 20
310.4767533991999926
 30
0.0
 40
0.0632526631041862
  0
CIRCLE
  5
C0A4
  8
0
 10
3663.9485144977788877
 20
310.7242333622630213
 30
0.0
 40
0.021916179430336
  0
CIRCLE
  5
C0A5
  8
0
 10
3663.9488392742277938
 20
310.7248086699826217
 30
0.0
 40
0.0406325173471931
  0
CIRCLE
  5
C0A6
  8
0
 10
3663.9483455070380842
 20
310.7311834717318106
 30
0.0
 40
0.0559420806354147
  0
CIRCLE
  5
C0A7
  8
0
 10
3663.9478027825789468
 20
310.7304034724700728
 30
0.0
 40
0.0632526631041862
  0
CIRCLE
  5
C0A8
  8
0
 10
3663.9485144977788877
 20
310.9758196137685218
 30
0.0
 40
0.0216535432999996
  0
CIRCLE
  5
C0A9
  8
0
 10
3663.9485144977788877
 20
310.9758196137685218
 30
0.0
 40
0.0413385827000006
  0
CIRCLE
  5
C0AA
  8
0
 10
3663.9485144977788877
 20
310.9758196137685218
 30
0.0
 40
0.0557897878653207
  0
CIRCLE
  5
C0AB
  8
0
 10
3663.9485144977788877
 20
310.9758196137685218
 30
0.0
 40
0.0629921260000006
  0
LINE
  5
C0AC
  8
0
 10
3657.0587507181749061
 20
303.4147959915655974
 30
0.0
 11
3657.0587507181749061
 21
305.5801503224712974
 31
0.0
  0
LINE
  5
C0AD
  8
0
 10
3654.8540263087820676
 20
303.4147959916651871
 30
0.0
 11
3654.8540263087820676
 21
305.5801503223717077
 31
0.0
  0
LINE
  5
C13C
  8
0
 10
3656.8063885135279634
 20
303.3360558342685067
 30
0.0
 11
3656.8063885135279634
 21
303.395110952368384
 31
0.0
  0
LINE
  5
C13D
  8
0
 10
3655.1063885135281453
 20
303.3360558342685067
 30
0.0
 11
3655.1063885135281453
 21
303.395110952368384
 31
0.0
  0
ENDSEC
  0
EOF
