  0
SECTION
  2
HEADER
  9
$ACADVER
  1
AC1009
  9
$INSBASE
 10
3670.1540612002108901
 20
301.9779901848871759
 30
0.0
  9
$EXTMIN
 10
3660.8042856267011302
 20
300.7171378412353988
 30
-0.0000000000000058
  9
$EXTMAX
 10
3671.4489228999750594
 20
303.2390005973713869
 30
0.0000000000000104
  9
$LIMMIN
 10
0.0
 20
0.0
  9
$LIMMAX
 10
11.6929133858000007
 20
8.2677165353999982
  9
$ORTHOMODE
 70
     0
  9
$REGENMODE
 70
     1
  9
$FILLMODE
 70
     1
  9
$QTEXTMODE
 70
     0
  9
$MIRRTEXT
 70
     0
  9
$DRAGMODE
 70
     2
  9
$LTSCALE
 40
0.6431102362
  9
$OSMODE
 70
  4095
  9
$ATTMODE
 70
     1
  9
$TEXTSIZE
 40
0.2
  9
$TRACEWID
 40
0.05
  9
$TEXTSTYLE
  7
STANDARD
  9
$CLAYER
  8
0
  9
$CELTYPE
  6
BYLAYER
  9
$CECOLOR
 62
   256
  9
$DIMSCALE
 40
1.0
  9
$DIMASZ
 40
0.1875
  9
$DIMEXO
 40
0.0625
  9
$DIMDLI
 40
0.4443307087
  9
$DIMRND
 40
0.0
  9
$DIMDLE
 40
0.0
  9
$DIMEXE
 40
0.125
  9
$DIMTP
 40
0.01
  9
$DIMTM
 40
0.01
  9
$DIMTXT
 40
2.0
  9
$DIMCEN
 40
0.1052362205
  9
$DIMTSZ
 40
0.0
  9
$DIMTOL
 70
     1
  9
$DIMLIM
 70
     0
  9
$DIMTIH
 70
     1
  9
$DIMTOH
 70
     1
  9
$DIMSE1
 70
     0
  9
$DIMSE2
 70
     0
  9
$DIMTAD
 70
     0
  9
$DIMZIN
 70
     0
  9
$DIMBLK
  1

  9
$DIMASO
 70
     1
  9
$DIMSHO
 70
     1
  9
$DIMPOST
  1
\X
  9
$DIMAPOST
  1

  9
$DIMALT
 70
     1
  9
$DIMALTD
 70
     2
  9
$DIMALTF
 40
25.3999999999999986
  9
$DIMLFAC
 40
1.0
  9
$DIMTOFL
 70
     0
  9
$DIMTVP
 40
0.0
  9
$DIMTIX
 70
     0
  9
$DIMSOXD
 70
     0
  9
$DIMSAH
 70
     0
  9
$DIMBLK1
  1

  9
$DIMBLK2
  1

  9
$DIMSTYLE
  2
STANDARD
  9
$DIMCLRD
 70
     0
  9
$DIMCLRE
 70
     0
  9
$DIMCLRT
 70
     0
  9
$DIMTFAC
 40
1.0
  9
$DIMGAP
 40
0.09
  9
$LUNITS
 70
     2
  9
$LUPREC
 70
     4
  9
$SKETCHINC
 40
0.1
  9
$FILLETRAD
 40
0.0
  9
$AUNITS
 70
     0
  9
$AUPREC
 70
     0
  9
$MENU
  1
.
  9
$ELEVATION
 40
0.0
  9
$PELEVATION
 40
0.0
  9
$THICKNESS
 40
0.0
  9
$LIMCHECK
 70
     0
  9
$BLIPMODE
 70
     0
  9
$CHAMFERA
 40
0.0
  9
$CHAMFERB
 40
0.0
  9
$SKPOLY
 70
     0
  9
$TDCREATE
 40
2458060.468368056230247
  9
$TDUPDATE
 40
2460075.6396759259514511
  9
$TDINDWG
 40
0.5036791319
  9
$TDUSRTIMER
 40
0.5036791319
  9
$USRTIMER
 70
     1
  9
$ANGBASE
 50
0.0
  9
$ANGDIR
 70
     0
  9
$PDMODE
 70
     0
  9
$PDSIZE
 40
0.3125
  9
$PLINEWID
 40
0.0
  9
$COORDS
 70
     1
  9
$SPLFRAME
 70
     0
  9
$SPLINETYPE
 70
     6
  9
$SPLINESEGS
 70
     8
  9
$ATTDIA
 70
     1
  9
$ATTREQ
 70
     1
  9
$HANDLING
 70
     1
  9
$HANDSEED
  5
C5D1
  9
$SURFTAB1
 70
     6
  9
$SURFTAB2
 70
     6
  9
$SURFTYPE
 70
     6
  9
$SURFU
 70
     6
  9
$SURFV
 70
     6
  9
$UCSNAME
  2

  9
$UCSORG
 10
0.0
 20
0.0
 30
0.0
  9
$UCSXDIR
 10
1.0
 20
0.0
 30
0.0
  9
$UCSYDIR
 10
0.0
 20
1.0
 30
0.0
  9
$PUCSNAME
  2

  9
$PUCSORG
 10
0.0
 20
0.0
 30
0.0
  9
$PUCSXDIR
 10
1.0
 20
0.0
 30
0.0
  9
$PUCSYDIR
 10
0.0
 20
1.0
 30
0.0
  9
$USERI1
 70
     0
  9
$USERI2
 70
     0
  9
$USERI3
 70
     0
  9
$USERI4
 70
     0
  9
$USERI5
 70
     0
  9
$USERR1
 40
0.0
  9
$USERR2
 40
0.0
  9
$USERR3
 40
0.0
  9
$USERR4
 40
0.0
  9
$USERR5
 40
0.0
  9
$WORLDVIEW
 70
     1
  9
$SHADEDGE
 70
     3
  9
$SHADEDIF
 70
    70
  9
$TILEMODE
 70
     1
  9
$MAXACTVP
 70
    64
  9
$PLIMCHECK
 70
     0
  9
$PEXTMIN
 10
1.0000000000000000E+20
 20
1.0000000000000000E+20
 30
1.0000000000000000E+20
  9
$PEXTMAX
 10
-1.0000000000000000E+20
 20
-1.0000000000000000E+20
 30
-1.0000000000000000E+20
  9
$PLIMMIN
 10
0.0
 20
0.0
  9
$PLIMMAX
 10
12.0
 20
9.0
  9
$UNITMODE
 70
     0
  9
$VISRETAIN
 70
     1
  9
$PLINEGEN
 70
     0
  9
$PSLTSCALE
 70
     1
  0
ENDSEC
  0
SECTION
  2
TABLES
  0
TABLE
  2
VPORT
 70
     1
  0
VPORT
  2
*ACTIVE
 70
     0
 10
0.0
 20
0.0
 11
1.0
 21
1.0
 12
405.8103200836503106
 22
-2.2323647406575442
 13
0.0
 23
0.0
 14
1.0
 24
1.0
 15
0.0
 25
0.0
 16
0.0
 26
0.0
 36
48.4519809769821421
 17
3260.3162841796870453
 27
304.2104339599608807
 37
0.0
 40
6.2538631878941979
 41
1.7089041095890409
 42
50.0
 43
0.0
 44
0.0
 50
0.0
 51
0.0
 71
     0
 72
   100
 73
     1
 74
     1
 75
     0
 76
     0
 77
     0
 78
     0
  0
ENDTAB
  0
TABLE
  2
LTYPE
 70
     2
  0
LTYPE
  2
CONTINUOUS
 70
     0
  3
Solid line
 72
    65
 73
     0
 40
0.0
  0
LTYPE
  2
PHANTOM2
 70
     0
  3
___ _ _ ___ _ _ ___ _ _ ___ _ _
 72
    65
 73
     6
 40
1.25
 49
0.625
 49
-0.125
 49
0.125
 49
-0.125
 49
0.125
 49
-0.125
  0
ENDTAB
  0
TABLE
  2
LAYER
 70
     2
  0
LAYER
  2
0
 70
     0
 62
   255
  6
CONTINUOUS
  0
LAYER
  2
DEFPOINTS
 70
     0
 62
     7
  6
CONTINUOUS
  0
ENDTAB
  0
TABLE
  2
STYLE
 70
     1
  0
STYLE
  2
STANDARD
 70
     0
 40
0.0
 41
0.8
 50
0.0
 71
     0
 42
0.2
  3
txt
  4

  0
ENDTAB
  0
TABLE
  2
VIEW
 70
     0
  0
ENDTAB
  0
TABLE
  2
UCS
 70
     0
  0
ENDTAB
  0
TABLE
  2
APPID
 70
     9
  0
APPID
  2
ACAD
 70
     0
  0
APPID
  2
ACAD_MLEADERVER
 70
     0
  0
APPID
  2
ACAD_EXEMPT_FROM_CAD_STANDARDS
 70
     0
  0
APPID
  2
ACAD_NAV_VCDISPLAY
 70
     0
  0
APPID
  2
ACAECLAYERSTANDARD
 70
     0
  0
APPID
  2
ACCMTRANSPARENCY
 70
     0
  0
APPID
  2
ACAD_DSTYLE_DIMJAG
 70
     0
  0
APPID
  2
ACAD_DSTYLE_DIMTALN
 70
     0
  0
APPID
  2
ACDBATTR
 70
     0
  0
ENDTAB
  0
TABLE
  2
DIMSTYLE
 70
     1
  0
DIMSTYLE
  2
STANDARD
 70
     0
  3

  4

  5

  6

  7

 40
1.0
 41
0.1875
 42
0.0625
 43
0.38
 44
0.125
 45
0.0
 46
0.0
 47
0.01
 48
0.01
140
0.15625
141
0.09
142
0.0
143
25.3999999999999986
144
1.0
145
0.0
146
1.0
147
0.09
 71
     1
 72
     0
 73
     1
 74
     1
 75
     0
 76
     0
 77
     0
 78
     4
170
     0
171
     2
172
     0
173
     0
174
     0
175
     0
176
     0
177
     0
178
     0
  0
ENDTAB
  0
ENDSEC
  0
SECTION
  2
BLOCKS
  0
BLOCK
  8
0
  2
$MODEL_SPACE
 70
     0
 10
0.0
 20
0.0
 30
0.0
  3
$MODEL_SPACE
  1

  0
ENDBLK
  5
21
  8
0
  0
BLOCK
 67
     1
  8
0
  2
$PAPER_SPACE
 70
     0
 10
0.0
 20
0.0
 30
0.0
  3
$PAPER_SPACE
  1

  0
ENDBLK
  5
1D
 67
     1
  8
0
  0
ENDSEC
  0
SECTION
  2
ENTITIES
  0
ATTDEF
  5
A142
  8
DEFPOINTS
 10
3670.1497552877390262
 20
301.9752797722464948
 30
0.0
 40
0.001
  1
K-73085T-C9GCH
  3

  2
MODELNUMBER
 70
     0
1001
ACDBATTR
1070
     0
1070
     1
  0
ATTDEF
  5
A143
  8
DEFPOINTS
 10
3670.1497552877390262
 20
301.9736131055798865
 30
0.0
 40
0.001
  1
COMPOSED
  3

  2
TRADENAME
 70
     0
1001
ACDBATTR
1070
     0
1070
     1
  0
ATTDEF
  5
A144
  8
DEFPOINTS
 10
3670.1497552877390262
 20
301.9719464389132213
 30
0.0
 40
0.001
  1
DIVERTER AND HANDSHOWER
  3

  2
PRODUCT
 70
     0
1001
ACDBATTR
1070
     0
1070
     1
  0
LINE
  5
C362
  8
0
 10
3670.1540657241112058
 20
302.4937433640038194
 30
0.0
 11
3670.1540657241112058
 21
302.4976803719038116
 31
0.0
  0
CIRCLE
  5
C363
  8
0
 10
3670.1540657241112058
 20
301.9779953325037809
 30
0.0
 40
0.5511811024000011
  0
CIRCLE
  5
C364
  8
0
 10
3670.1540657241112058
 20
301.9779953325037809
 30
0.0
 40
0.5196850393999992
  0
CIRCLE
  5
C365
  8
0
 10
3670.1540657241112058
 20
301.9779953325037809
 30
0.0
 40
0.5157480314999999
  0
LINE
  5
C366
  8
0
 10
3670.4572153304120548
 20
301.5607467876336045
 30
0.0
 11
3670.4572153304120548
 21
301.5558900655663024
 31
0.0
  0
LINE
  5
C367
  8
0
 10
3670.5797667865031144
 20
301.6799162395519147
 30
0.0
 11
3670.5765417784218698
 21
301.6821744144966146
 31
0.0
  0
LINE
  5
C368
  8
0
 10
3670.6214921811970271
 20
301.7600307959103816
 30
0.0
 11
3670.6250603220919402
 21
301.7583669444259726
 31
0.0
  0
LINE
  5
C369
  8
0
 10
3670.64831556727313
 20
302.1385868413423736
 30
0.0
 11
3670.6445712502481911
 21
302.1373702390155813
 31
0.0
  0
LINE
  5
C36A
  8
0
 10
3670.537341205012126
 20
302.3230981255040888
 30
0.0
 11
3670.5402669720119775
 21
302.3257324980414751
 31
0.0
  0
LINE
  5
C36B
  8
0
 10
3670.2997350154118976
 20
301.4791436533963065
 30
0.0
 11
3670.2997350154118976
 21
301.4832464168219985
 31
0.0
  0
LINE
  5
C36C
  8
0
 10
3670.2621143193109674
 20
301.4696666580700253
 30
0.0
 11
3670.2612957694091165
 21
301.4735176329156729
 31
0.0
  0
LINE
  5
C36D
  8
0
 10
3670.1091153213092184
 20
302.4917807870313027
 30
0.0
 11
3670.1087721885178325
 21
302.4957028134326151
 31
0.0
  0
LINE
  5
C36E
  8
0
 10
3670.1993592597341376
 20
302.4957028134298866
 30
0.0
 11
3670.1990161269141026
 21
302.4917807870313027
 31
0.0
  0
LINE
  5
C36F
  8
0
 10
3669.7678644762040676
 20
302.3257324980339149
 30
0.0
 11
3669.770790243211195
 21
302.3230981255040888
 31
0.0
  0
LINE
  5
C370
  8
0
 10
3669.66356019797513
 20
302.1373702390155813
 30
0.0
 11
3669.6598158809620145
 21
302.1385868413797198
 31
0.0
  0
LINE
  5
C371
  8
0
 10
3669.6866392670249297
 20
301.7600307959103816
 30
0.0
 11
3669.6830711261068245
 21
301.7583669444771886
 31
0.0
  0
LINE
  5
C372
  8
0
 10
3669.7315896698009965
 20
301.6821744144966146
 30
0.0
 11
3669.7283646617152044
 21
301.6799162395586222
 31
0.0
  0
LINE
  5
C373
  8
0
 10
3669.8509161178121758
 20
301.5607467876336045
 30
0.0
 11
3669.8509161178121758
 21
301.5558900655663024
 31
0.0
  0
LINE
  5
C374
  8
0
 10
3670.0083964328118782
 20
301.4791436533963065
 30
0.0
 11
3670.0083964328118782
 21
301.4832464168219985
 31
0.0
  0
ARC
  5
C375
  8
0
 10
3670.1540657241112058
 20
301.9779953325037809
 30
0.0
 40
0.5629921260000004
 50
284.9953859951253889
 51
302.5789703918717919
  0
ARC
  5
C376
  8
0
 10
3670.1540657241112058
 20
301.9779953325037809
 30
0.0
 40
0.5629921260000004
 50
237.4210296081282081
 51
255.0046140048746111
  0
LINE
  5
C377
  8
0
 10
3669.8509161178121758
 20
301.5176683575793959
 30
0.0
 11
3669.8509161178121758
 21
301.5035899677172893
 31
0.0
  0
LINE
  5
C378
  8
0
 10
3670.0083964328118782
 20
301.446411787597583
 30
0.0
 11
3670.0083964328118782
 21
301.4341749655533249
 31
0.0
  0
LINE
  5
C379
  8
0
 10
3670.2997350154118976
 20
301.446411787597583
 30
0.0
 11
3670.2997350154118976
 21
301.4341749655533249
 31
0.0
  0
LINE
  5
C37A
  8
0
 10
3670.4572153304120548
 20
301.5035899677172893
 30
0.0
 11
3670.4572153304120548
 21
301.5176683575793959
 31
0.0
  0
LINE
  5
C37B
  8
0
 10
3670.0653145313108325
 20
301.4074032448037883
 30
0.0
 11
3670.0726351974908539
 21
301.4328626174910255
 31
0.0
  0
LINE
  5
C37C
  8
0
 10
3669.9829542351258169
 20
301.4146983428125282
 30
0.0
 11
3669.9800022340159558
 21
301.4425870440417725
 31
0.0
  0
ARC
  5
C37D
  8
0
 10
3670.0033811158709796
 20
301.1767502753559143
 30
0.0
 40
0.2388232406263887
 50
74.9698424683570437
 51
94.9065818377290924
  0
ARC
  5
C37E
  8
0
 10
3670.0450738249360256
 20
301.6474531861721857
 30
0.0
 40
0.2409017653433887
 50
255.0567174647493971
 51
274.8197068413269903
  0
ARC
  5
C37F
  8
0
 10
3670.013843083815118
 20
301.2908311550098119
 30
0.0
 40
0.1225588185188268
 50
74.9261714114377355
 51
95.2737220460068954
  0
ARC
  5
C380
  8
0
 10
3670.0348819040509625
 20
301.5362356932095054
 30
0.0
 40
0.1275238471373863
 50
255.3262471972547019
 51
274.8736462601622748
  0
ARC
  5
C381
  8
0
 10
3669.8551604017688987
 20
301.2222520649518742
 30
0.0
 40
0.239274978663191
 50
70.0283159562182647
 51
89.9244321737575376
  0
ARC
  5
C382
  8
0
 10
3669.9376971881588361
 20
301.6892153874787823
 30
0.0
 40
0.2420793325412753
 50
250.1447101747307897
 51
269.8080379552504269
  0
ARC
  5
C383
  8
0
 10
3669.8750961073060353
 20
301.3347390339899903
 30
0.0
 40
0.1233811669455212
 50
69.8921264696847118
 51
90.1075906533158246
  0
ARC
  5
C384
  8
0
 10
3669.9179622253031994
 20
301.5778413604293746
 30
0.0
 40
0.1272424019746852
 50
250.2019249498632973
 51
269.7977921731416018
  0
LINE
  5
C385
  8
0
 10
3669.8554759832118179
 20
301.4615268355037756
 30
0.0
 11
3669.8547555482700773
 21
301.5011583031364921
 31
0.0
  0
LINE
  5
C386
  8
0
 10
3669.9368861344109973
 20
301.447137413603798
 30
0.0
 11
3669.9406832894169384
 21
301.4570077409993019
 31
0.0
  0
LINE
  5
C387
  8
0
 10
3670.2428169169111243
 20
301.4074032448037883
 30
0.0
 11
3670.2354962507320124
 21
301.4328626174910255
 31
0.0
  0
LINE
  5
C388
  8
0
 10
3670.3251772130970494
 20
301.4146983428125282
 30
0.0
 11
3670.3281292142069105
 21
301.4425870440417725
 31
0.0
  0
ARC
  5
C389
  8
0
 10
3670.3047503323518868
 20
301.1767502753559143
 30
0.0
 40
0.2388232406263887
 50
85.0934181622709218
 51
105.0301575316428995
  0
ARC
  5
C38A
  8
0
 10
3670.2630576232868407
 20
301.6474531861721857
 30
0.0
 40
0.2409017653433887
 50
265.180293158672896
 51
284.9432825352506029
  0
ARC
  5
C38B
  8
0
 10
3670.2942883644082031
 20
301.2908311550098119
 30
0.0
 40
0.1225588185188268
 50
84.7262779539931046
 51
105.0738285885622929
  0
ARC
  5
C38C
  8
0
 10
3670.2732495441709943
 20
301.5362356932095054
 30
0.0
 40
0.1275238471373863
 50
265.1263537398377252
 51
284.6737528027452981
  0
ARC
  5
C38D
  8
0
 10
3670.4529710464539676
 20
301.2222520649518742
 30
0.0
 40
0.239274978663191
 50
90.0755678262424766
 51
109.9716840437817069
  0
ARC
  5
C38E
  8
0
 10
3670.3704342600631207
 20
301.6892153874787823
 30
0.0
 40
0.2420793325412753
 50
270.1919620447495731
 51
289.8552898252692103
  0
ARC
  5
C38F
  8
0
 10
3670.433035340916831
 20
301.3347390339899903
 30
0.0
 40
0.1233811669455212
 50
89.8924093466842038
 51
110.1078735303153024
  0
ARC
  5
C390
  8
0
 10
3670.3901692229192122
 20
301.5778413604293746
 30
0.0
 40
0.1272424019746852
 50
270.2022078268583982
 51
289.7980750501366742
  0
LINE
  5
C391
  8
0
 10
3670.4526554650110484
 20
301.4615268355037756
 30
0.0
 11
3670.453375899952789
 21
301.5011583031364921
 31
0.0
  0
LINE
  5
C392
  8
0
 10
3670.371245313811869
 20
301.447137413603798
 30
0.0
 11
3670.3674481588068375
 21
301.4570077409993019
 31
0.0
  0
LINE
  5
C393
  8
0
 10
3670.2019636892268863
 20
301.4288993549363909
 30
0.0
 11
3670.1954159821989379
 21
301.3953473571597783
 31
0.0
  0
LINE
  5
C394
  8
0
 10
3670.1061677589518695
 20
301.4288993549401994
 30
0.0
 11
3670.1127153416591682
 21
301.3953479939216891
 31
0.0
  0
ARC
  5
C395
  8
0
 10
3670.1540638335750373
 20
301.1578866758570143
 30
0.0
 40
0.2410343862620144
 50
80.1213970450292834
 51
99.8777206457422579
  0
ARC
  5
C396
  8
0
 10
3670.1540674900847989
 20
301.6327828153268911
 30
0.0
 40
0.2410089097837718
 50
260.120342375967482
 51
279.878775314805921
  0
ARC
  5
C397
  8
0
 10
3670.1541556995739484
 20
301.2729296303064075
 30
0.0
 40
0.124275800068401
 50
80.0067190812204529
 51
100.0749849078428042
  0
ARC
  5
C398
  8
0
 10
3670.1539798990697818
 20
301.5194934843448209
 30
0.0
 40
0.1260625770564476
 50
260.1503804964025903
 51
279.9313234926520977
  0
LINE
  5
C399
  8
0
 10
3670.429973734844225
 20
301.4545721387232788
 30
0.0
 11
3670.429973734844225
 21
301.4052194359005057
 31
0.0
  0
LINE
  5
C39A
  8
0
 10
3669.8781463600139432
 20
301.4545750198715837
 30
0.0
 11
3669.8781463600139432
 21
301.4052258151156138
 31
0.0
  0
ARC
  5
C39B
  8
0
 10
3670.1540657241112058
 20
301.8756331278037806
 30
0.0
 40
0.5511811024000006
 50
240.6685996718086074
 51
299.3300174936197209
  0
ARC
  5
C39C
  8
0
 10
3670.4183737348430441
 20
301.4052194359005057
 30
0.0
 40
0.0116
 50
299.3300174938265741
 51
359.9999999999380975
  0
ARC
  5
C39D
  8
0
 10
3669.8897463600142146
 20
301.4052258151156138
 30
0.0
 40
0.0116
 50
180.0000000000715943
 51
240.6685996716259979
  0
CIRCLE
  5
C39E
  8
0
 10
3662.1619397398608271
 20
301.9976803719038116
 30
0.0
 40
1.08267716535
  0
LINE
  5
C3A0
  8
0
 10
3663.2643019445081336
 20
302.2846170348440182
 30
0.0
 11
3663.2643019445081336
 21
301.7107437089634914
 31
0.0
  0
LINE
  5
C3A1
  8
0
 10
3661.0595775351148404
 20
301.7107437091361817
 30
0.0
 11
3661.0595775351148404
 21
302.2846170346713279
 31
0.0
  0
LINE
  5
C3A2
  8
0
 10
3663.2600817447278132
 20
302.3003670348439869
 30
0.0
 11
3662.9689248820068315
 21
302.804665514049077
 31
0.0
  0
LINE
  5
C3A3
  8
0
 10
3662.9689248820068315
 20
302.804665514049077
 30
0.0
 11
3662.4646264028019687
 21
303.0958223767701156
 31
0.0
  0
ARC
  5
C3A4
  8
0
 10
3662.4488764028019432
 20
303.0685425765508967
 30
0.0
 40
0.0315
 50
59.99999999999946
 51
90.0
  0
LINE
  5
C3A5
  8
0
 10
3662.4488764028019432
 20
303.1000425765508908
 30
0.0
 11
3661.8750030769219848
 21
303.1000425765508908
 31
0.0
  0
ARC
  5
C3A6
  8
0
 10
3661.8750030769219848
 20
303.0685425765508967
 30
0.0
 40
0.0315
 50
90.0
 51
120.0000000000004974
  0
LINE
  5
C3A7
  8
0
 10
3661.8592530769210498
 20
303.0958223767701156
 30
0.0
 11
3661.3622641981542074
 21
302.808885713829909
 31
0.0
  0
ARC
  5
C3A8
  8
0
 10
3661.3780141981551424
 20
302.7816059136106901
 30
0.0
 40
0.0315
 50
120.0000000000004974
 51
150.0000000000027001
  0
LINE
  5
C3A9
  8
0
 10
3661.3507343979349571
 20
302.7973559136107156
 30
0.0
 11
3661.0637977348951608
 21
302.3003670346714102
 31
0.0
  0
LINE
  5
C3AA
  8
0
 10
3661.0637977348951608
 20
301.6949937091362131
 30
0.0
 11
3661.3507343979349571
 21
301.198004830196794
 31
0.0
  0
ARC
  5
C3AB
  8
0
 10
3661.3780141981551424
 20
301.2137548301968764
 30
0.0
 40
0.0315
 50
209.9999999999971863
 51
239.9999999999994884
  0
LINE
  5
C3AC
  8
0
 10
3661.3622641981542074
 20
301.1864750299777143
 30
0.0
 11
3661.8592530769210498
 21
300.8995383670375077
 31
0.0
  0
ARC
  5
C3AD
  8
0
 10
3661.8750030769219848
 20
300.9268181672567266
 30
0.0
 40
0.0315
 50
239.9999999999994884
 51
270.0
  0
LINE
  5
C3AE
  8
0
 10
3661.8750030769219848
 20
300.8953181672566188
 30
0.0
 11
3662.4488764028019432
 21
300.8953181672566188
 31
0.0
  0
ARC
  5
C3AF
  8
0
 10
3662.4488764028019432
 20
300.9268181672567266
 30
0.0
 40
0.0315
 50
270.0
 51
300.0000000000005116
  0
LINE
  5
C3B0
  8
0
 10
3662.4646264028019687
 20
300.8995383670375077
 30
0.0
 11
3662.961615281568811
 21
301.1864750299777143
 31
0.0
  0
ARC
  5
C3B1
  8
0
 10
3662.9458652815687856
 20
301.2137548301968764
 30
0.0
 40
0.0315
 50
300.0000000000005116
 51
330.0000000000026716
  0
LINE
  5
C3B2
  8
0
 10
3662.9731450817871519
 20
301.198004830196794
 30
0.0
 11
3663.2600817447278132
 21
301.6949937089635796
 31
0.0
  0
ARC
  5
C3B3
  8
0
 10
3663.2328019445080827
 20
302.2846170348440182
 30
0.0
 40
0.0315
 50
0.0000000000097707
 51
30.0000000000001101
  0
ARC
  5
C3B4
  8
0
 10
3663.2328019445080827
 20
301.7107437089634914
 30
0.0
 40
0.0315
 50
329.9999999999998863
 51
0.0000000000065138
  0
ARC
  5
C3B5
  8
0
 10
3661.0910775351148914
 20
301.7107437091361817
 30
0.0
 40
0.0315
 50
179.9999999999967031
 51
209.9999999999888018
  0
ARC
  5
C3B6
  8
0
 10
3661.0910775351148914
 20
302.2846170346713279
 30
0.0
 40
0.0315
 50
150.0000000000027001
 51
179.9999999999967031
  0
CIRCLE
  5
C3B7
  8
0
 10
3670.1540612002108901
 20
301.9779953325037809
 30
0.0
 40
1.25984251965
  0
CIRCLE
  5
C3B8
  8
0
 10
3670.1540612002108901
 20
301.9779953325037809
 30
0.0
 40
0.6692913385499999
  0
CIRCLE
  5
C444
  8
0
 10
3662.1619397398608271
 20
301.9976803719038116
 30
0.0
 40
0.65
  0
CIRCLE
  5
C445
  8
0
 10
3662.1619397398608271
 20
301.9976803719038116
 30
0.0
 40
0.6700000000000002
  0
ENDSEC
  0
EOF
