  0
SECTION
  2
HEADER
  9
$ACADVER
  1
AC1009
  9
$INSBASE
 10
3517.2807763366081417
 20
150.7643060999212992
 30
0.0
  9
$EXTMIN
 10
3511.4659934090768729
 20
130.1463104009424967
 30
0.0
  9
$EXTMAX
 10
3517.2917199603580229
 20
172.874649481481697
 30
0.0
  9
$LIMMIN
 10
0.0
 20
0.0
  9
$LIMMAX
 10
11.6929133858000007
 20
8.2677165353999982
  9
$ORTHOMODE
 70
     0
  9
$REGENMODE
 70
     1
  9
$FILLMODE
 70
     1
  9
$QTEXTMODE
 70
     0
  9
$MIRRTEXT
 70
     0
  9
$DRAGMODE
 70
     2
  9
$LTSCALE
 40
0.6431102362
  9
$OSMODE
 70
   695
  9
$ATTMODE
 70
     1
  9
$TEXTSIZE
 40
0.2
  9
$TRACEWID
 40
0.05
  9
$TEXTSTYLE
  7
STANDARD
  9
$CLAYER
  8
0
  9
$CELTYPE
  6
BYLAYER
  9
$CECOLOR
 62
   256
  9
$DIMSCALE
 40
1.0
  9
$DIMASZ
 40
0.1875
  9
$DIMEXO
 40
0.0625
  9
$DIMDLI
 40
0.4443307087
  9
$DIMRND
 40
0.0
  9
$DIMDLE
 40
0.0
  9
$DIMEXE
 40
0.125
  9
$DIMTP
 40
0.01
  9
$DIMTM
 40
0.01
  9
$DIMTXT
 40
2.0
  9
$DIMCEN
 40
0.1052362205
  9
$DIMTSZ
 40
0.0
  9
$DIMTOL
 70
     1
  9
$DIMLIM
 70
     0
  9
$DIMTIH
 70
     1
  9
$DIMTOH
 70
     1
  9
$DIMSE1
 70
     0
  9
$DIMSE2
 70
     0
  9
$DIMTAD
 70
     0
  9
$DIMZIN
 70
     0
  9
$DIMBLK
  1

  9
$DIMASO
 70
     1
  9
$DIMSHO
 70
     1
  9
$DIMPOST
  1
\X
  9
$DIMAPOST
  1

  9
$DIMALT
 70
     1
  9
$DIMALTD
 70
     2
  9
$DIMALTF
 40
25.3999999999999986
  9
$DIMLFAC
 40
1.0
  9
$DIMTOFL
 70
     0
  9
$DIMTVP
 40
0.0
  9
$DIMTIX
 70
     0
  9
$DIMSOXD
 70
     0
  9
$DIMSAH
 70
     0
  9
$DIMBLK1
  1

  9
$DIMBLK2
  1

  9
$DIMSTYLE
  2
STANDARD
  9
$DIMCLRD
 70
     0
  9
$DIMCLRE
 70
     0
  9
$DIMCLRT
 70
     0
  9
$DIMTFAC
 40
1.0
  9
$DIMGAP
 40
0.09
  9
$LUNITS
 70
     2
  9
$LUPREC
 70
     4
  9
$SKETCHINC
 40
0.1
  9
$FILLETRAD
 40
0.0
  9
$AUNITS
 70
     0
  9
$AUPREC
 70
     0
  9
$MENU
  1
.
  9
$ELEVATION
 40
0.0
  9
$PELEVATION
 40
0.0
  9
$THICKNESS
 40
0.0
  9
$LIMCHECK
 70
     0
  9
$BLIPMODE
 70
     0
  9
$CHAMFERA
 40
0.0
  9
$CHAMFERB
 40
0.0
  9
$SKPOLY
 70
     0
  9
$TDCREATE
 40
2458060.468368056230247
  9
$TDUPDATE
 40
2458989.5769097218289971
  9
$TDINDWG
 40
0.7110255787
  9
$TDUSRTIMER
 40
0.7110255787
  9
$USRTIMER
 70
     1
  9
$ANGBASE
 50
0.0
  9
$ANGDIR
 70
     0
  9
$PDMODE
 70
     0
  9
$PDSIZE
 40
0.3125
  9
$PLINEWID
 40
0.0
  9
$COORDS
 70
     1
  9
$SPLFRAME
 70
     0
  9
$SPLINETYPE
 70
     6
  9
$SPLINESEGS
 70
     8
  9
$ATTDIA
 70
     1
  9
$ATTREQ
 70
     1
  9
$HANDLING
 70
     1
  9
$HANDSEED
  5
D3DF
  9
$SURFTAB1
 70
     6
  9
$SURFTAB2
 70
     6
  9
$SURFTYPE
 70
     6
  9
$SURFU
 70
     6
  9
$SURFV
 70
     6
  9
$UCSNAME
  2

  9
$UCSORG
 10
0.0
 20
0.0
 30
0.0
  9
$UCSXDIR
 10
1.0
 20
0.0
 30
0.0
  9
$UCSYDIR
 10
0.0
 20
1.0
 30
0.0
  9
$PUCSNAME
  2

  9
$PUCSORG
 10
0.0
 20
0.0
 30
0.0
  9
$PUCSXDIR
 10
1.0
 20
0.0
 30
0.0
  9
$PUCSYDIR
 10
0.0
 20
1.0
 30
0.0
  9
$USERI1
 70
     0
  9
$USERI2
 70
     0
  9
$USERI3
 70
     0
  9
$USERI4
 70
     0
  9
$USERI5
 70
     0
  9
$USERR1
 40
0.0
  9
$USERR2
 40
0.0
  9
$USERR3
 40
0.0
  9
$USERR4
 40
0.0
  9
$USERR5
 40
0.0
  9
$WORLDVIEW
 70
     1
  9
$SHADEDGE
 70
     3
  9
$SHADEDIF
 70
    70
  9
$TILEMODE
 70
     1
  9
$MAXACTVP
 70
    64
  9
$PLIMCHECK
 70
     0
  9
$PEXTMIN
 10
1.0000000000000000E+20
 20
1.0000000000000000E+20
 30
1.0000000000000000E+20
  9
$PEXTMAX
 10
-1.0000000000000000E+20
 20
-1.0000000000000000E+20
 30
-1.0000000000000000E+20
  9
$PLIMMIN
 10
0.0
 20
0.0
  9
$PLIMMAX
 10
12.0
 20
9.0
  9
$UNITMODE
 70
     0
  9
$VISRETAIN
 70
     1
  9
$PLINEGEN
 70
     0
  9
$PSLTSCALE
 70
     1
  0
ENDSEC
  0
SECTION
  2
TABLES
  0
TABLE
  2
VPORT
 70
     1
  0
VPORT
  2
*ACTIVE
 70
     0
 10
0.0
 20
0.0
 11
1.0
 21
1.0
 12
159.6995748679372014
 22
-14.8303289595318404
 13
0.0
 23
0.0
 14
1.0
 24
1.0
 15
0.0
 25
0.0
 16
0.0
 26
0.0
 36
116.782910842256598
 17
3270.0277271544828182
 27
193.0425872802734091
 37
0.0
 40
283.2659267331667934
 41
2.6818181818181812
 42
50.0
 43
0.0
 44
0.0
 50
0.0
 51
0.0
 71
     0
 72
   100
 73
     1
 74
     1
 75
     0
 76
     0
 77
     0
 78
     0
  0
ENDTAB
  0
TABLE
  2
LTYPE
 70
     2
  0
LTYPE
  2
CONTINUOUS
 70
     0
  3
Solid line
 72
    65
 73
     0
 40
0.0
  0
LTYPE
  2
PHANTOM2
 70
     0
  3
___ _ _ ___ _ _ ___ _ _ ___ _ _
 72
    65
 73
     6
 40
1.25
 49
0.625
 49
-0.125
 49
0.125
 49
-0.125
 49
0.125
 49
-0.125
  0
ENDTAB
  0
TABLE
  2
LAYER
 70
     2
  0
LAYER
  2
0
 70
     0
 62
   255
  6
CONTINUOUS
  0
LAYER
  2
DEFPOINTS
 70
     0
 62
     7
  6
CONTINUOUS
  0
ENDTAB
  0
TABLE
  2
STYLE
 70
     1
  0
STYLE
  2
STANDARD
 70
     0
 40
0.0
 41
0.8
 50
0.0
 71
     0
 42
0.2
  3
txt
  4

  0
ENDTAB
  0
TABLE
  2
VIEW
 70
     0
  0
ENDTAB
  0
TABLE
  2
UCS
 70
     0
  0
ENDTAB
  0
TABLE
  2
APPID
 70
     9
  0
APPID
  2
ACAD
 70
     0
  0
APPID
  2
ACAD_MLEADERVER
 70
     0
  0
APPID
  2
ACAD_EXEMPT_FROM_CAD_STANDARDS
 70
     0
  0
APPID
  2
ACAD_NAV_VCDISPLAY
 70
     0
  0
APPID
  2
ACAECLAYERSTANDARD
 70
     0
  0
APPID
  2
ACCMTRANSPARENCY
 70
     0
  0
APPID
  2
ACAD_DSTYLE_DIMJAG
 70
     0
  0
APPID
  2
ACAD_DSTYLE_DIMTALN
 70
     0
  0
APPID
  2
ACDBATTR
 70
     0
  0
ENDTAB
  0
TABLE
  2
DIMSTYLE
 70
     1
  0
DIMSTYLE
  2
STANDARD
 70
     0
  3

  4

  5

  6

  7

 40
1.0
 41
0.1875
 42
0.0625
 43
0.38
 44
0.125
 45
0.0
 46
0.0
 47
0.01
 48
0.01
140
0.15625
141
0.09
142
0.0
143
25.3999999999999986
144
1.0
145
0.0
146
1.0
147
0.09
 71
     1
 72
     0
 73
     1
 74
     1
 75
     0
 76
     0
 77
     0
 78
     4
170
     0
171
     2
172
     0
173
     0
174
     0
175
     0
176
     0
177
     0
178
     0
  0
ENDTAB
  0
ENDSEC
  0
SECTION
  2
BLOCKS
  0
BLOCK
  8
0
  2
$MODEL_SPACE
 70
     0
 10
0.0
 20
0.0
 30
0.0
  3
$MODEL_SPACE
  1

  0
ENDBLK
  5
21
  8
0
  0
BLOCK
 67
     1
  8
0
  2
$PAPER_SPACE
 70
     0
 10
0.0
 20
0.0
 30
0.0
  3
$PAPER_SPACE
  1

  0
ENDBLK
  5
1D
 67
     1
  8
0
  0
BLOCK
  8
0
  2
_FILLED
 70
     0
 10
0.0
 20
0.0
 30
0.0
  3
_FILLED
  1

  0
SOLID
  5
CA94
  8
0
  6
BYBLOCK
 62
     0
 10
0.0
 20
0.0
 30
0.0
 11
-1.0
 21
0.1666666667
 31
0.0
 12
-1.0
 22
-0.1666666667
 32
0.0
 13
-1.0
 23
-0.1666666667
 33
0.0
  0
ENDBLK
  5
CA95
  8
0
  6
BYBLOCK
 62
     0
  0
ENDSEC
  0
SECTION
  2
ENTITIES
  0
ATTDEF
  5
AA14
  8
DEFPOINTS
 10
3517.2810532936891832
 20
150.7679229839932873
 30
0.0
 40
0.001
  1
K-73091T-4
  3

  2
MODELNUMBER
 70
     0
1001
ACDBATTR
1070
     0
1070
     1
  0
ATTDEF
  5
AA15
  8
DEFPOINTS
 10
3517.2810532936891832
 20
150.7662563173265937
 30
0.0
 40
0.001
  1
COMPOSED
  3

  2
TRADENAME
 70
     0
1001
ACDBATTR
1070
     0
1070
     1
  0
ATTDEF
  5
AA16
  8
DEFPOINTS
 10
3517.2810532936891832
 20
150.7645896506600138
 30
0.0
 40
0.001
  1
BATH AND SHOWER FAUCET
  3

  2
PRODUCT
 70
     0
1001
ACDBATTR
1070
     0
1070
     1
  0
LINE
  5
CEBA
  8
0
 10
3512.5772450528079389
 20
148.8457603410340084
 30
0.0
 11
3511.5236477104081132
 21
149.8993576834340047
 31
0.0
  0
ARC
  5
CEBB
  8
0
 10
3511.662837506607957
 20
150.0385474796339906
 30
0.0
 40
0.1968440975299873
 50
135.0000000000046043
 51
224.9999999999953957
  0
LINE
  5
CEBC
  8
0
 10
3511.5236477104081132
 20
150.177737275834005
 30
0.0
 11
3512.7236959826341263
 21
151.3777855480595917
 31
0.0
  0
ARC
  5
CEBD
  8
0
 10
3512.7164348490077828
 20
148.9849469601130068
 30
0.0
 40
0.1968418509790102
 50
224.9993460810223098
 51
315.0006539189789123
  0
LINE
  5
CEBE
  8
0
 10
3514.0556143558969779
 20
150.0457517478187128
 30
0.0
 11
3512.8556246452080813
 21
148.8457603410340084
 31
0.0
  0
ARC
  5
CEBF
  8
0
 10
3513.4426376232240727
 20
150.7642380219309075
 30
0.0
 40
0.9444379285507679
 50
310.4691605172093887
 51
0.0041415894770901
  0
ARC
  5
CEC0
  8
0
 10
3513.4406383820241899
 20
150.7668849237304016
 30
0.0
 40
0.9419161198587733
 50
110.3267871177071981
 51
139.5659606850618957
  0
ARC
  5
CEC1
  8
0
 10
3513.4418009338110096
 20
150.7637338683308883
 30
0.0
 40
0.9452747888142818
 50
0.0346961011529284
 51
110.326518041766704
  0
LINE
  5
CEC2
  8
0
 10
3514.9141423498081167
 20
151.7091881798340012
 30
0.0
 11
3513.4670003803071268
 21
151.7086727098779022
 31
0.0
  0
LINE
  5
CEC3
  8
0
 10
3514.9141423498081167
 20
161.7917157389339877
 30
0.0
 11
3514.9141423498081167
 21
137.1817314869338986
 31
0.0
  0
LINE
  5
CEC4
  8
0
 10
3515.4849905485079944
 20
161.7917157389339877
 30
0.0
 11
3515.4849977372077774
 21
137.1817314875339946
 31
0.0
  0
LINE
  5
CEC5
  8
0
 10
3514.9141423498081167
 20
149.8194244003339861
 30
0.0
 11
3513.8336349029082157
 21
149.8237752834340029
 31
0.0
  0
LINE
  5
CEC6
  8
0
 10
3513.9047920847078785
 20
149.8234887545621916
 30
0.0
 11
3513.9047920847078785
 21
149.6107629830339931
 31
0.0
  0
LINE
  5
CEC7
  8
0
 10
3513.9047920847078785
 20
149.6107629830339931
 30
0.0
 11
3513.6206272871081637
 21
149.6107629830339931
 31
0.0
  0
ARC
  5
CEC8
  8
0
 10
3513.8867406330400627
 20
149.6028889670755007
 30
0.0
 40
0.0078740158584676
 50
357.6140571387516047
 51
89.9999995083662441
  0
LINE
  5
CEC9
  8
0
 10
3513.8946078227099861
 20
149.6025611676668063
 30
0.0
 11
3513.8366805394589392
 21
148.2123056876390024
 31
0.0
  0
LINE
  5
CECA
  8
0
 10
3513.8366805394589392
 20
148.2123056876390024
 30
0.0
 11
3513.0477068079080709
 21
148.2123056888339931
 31
0.0
  0
LINE
  5
CECB
  8
0
 10
3513.0477068079080709
 20
148.2123056888339931
 30
0.0
 11
3513.0146853353080587
 21
149.0048210311339858
 31
0.0
  0
ARC
  5
CECC
  8
0
 10
3513.0673747858841125
 20
148.2131251896186939
 30
0.0
 40
0.0196850436507596
 50
182.3859490056960908
 51
270.0247080751228737
  0
ARC
  5
CECD
  8
0
 10
3513.817012423351116
 20
148.2131253296093973
 30
0.0
 40
0.0196851874314056
 50
269.9546875912237738
 51
357.613657177126413
  0
LINE
  5
CECE
  8
0
 10
3513.7276177588078099
 20
148.1934401483339911
 30
0.0
 11
3513.727617757707776
 21
137.1817314869338986
 31
0.0
  0
LINE
  5
CECF
  8
0
 10
3513.1567623713081048
 20
137.1817314875339946
 30
0.0
 11
3513.1567623713081048
 21
148.1934401483339911
 31
0.0
  0
ARC
  5
CED0
  8
0
 10
3552.8801804230438393
 20
136.9418989988209034
 30
0.0
 40
39.1532972160121275
 50
179.6490340208800944
 51
186.8719832511964967
  0
ARC
  5
CED1
  8
0
 10
3478.7624728982377746
 20
136.7685864638374937
 30
0.0
 40
36.1540301065554885
 50
352.8658046583811938
 51
0.6547536000410918
  0
ARC
  5
CED2
  8
0
 10
3506.8582064395350244
 20
133.2520710260666021
 30
0.0
 40
7.8390848647695091
 50
342.1725370457222084
 51
352.8656399263888943
  0
ARC
  5
CED3
  8
0
 10
3521.3571783135507758
 20
133.1555108186146015
 30
0.0
 40
7.4037214710059427
 50
186.9693689299994901
 51
198.1262731295506114
  0
ARC
  5
CED4
  8
0
 10
3486.4342634166509924
 20
136.4526284859468888
 30
0.0
 40
29.0598822391031106
 50
349.3790242413119813
 51
1.4376833500649731
  0
ARC
  5
CED5
  8
0
 10
3542.9040512410401789
 20
136.5129737412190138
 30
0.0
 40
29.7548051921449996
 50
178.7121332886829919
 51
190.5134082888882858
  0
ARC
  5
CED6
  8
0
 10
3515.4144529586160388
 20
131.4114256449242077
 30
0.0
 40
1.7958387107508991
 50
190.5134756112321099
 51
220.1952927877196089
  0
ARC
  5
CED7
  8
0
 10
3513.4972134521999578
 20
131.2947101030910915
 30
0.0
 40
1.5121147859260791
 50
315.5164237851279836
 51
352.47047846894759
  0
LINE
  5
CED8
  8
0
 10
3515.4849934924709487
 20
151.7132723250255992
 30
0.0
 11
3516.0209338169070179
 21
151.7179494053339965
 31
0.0
  0
LINE
  5
CED9
  8
0
 10
3516.0209338170079718
 20
152.0044637709198128
 30
0.0
 11
3516.0209338169070179
 21
149.5241491574340102
 31
0.0
  0
LINE
  5
CEDA
  8
0
 10
3516.0209338170079718
 20
149.8106631747330937
 30
0.0
 11
3515.4849940468670866
 21
149.8153402503041889
 31
0.0
  0
ARC
  5
CEDB
  8
0
 10
3516.06030389578018
 20
149.5241488099073024
 30
0.0
 40
0.0393700788733175
 50
179.9994942399771105
 51
269.9999998955190108
  0
LINE
  5
CEDC
  8
0
 10
3516.0603038957078752
 20
149.4847787310339982
 30
0.0
 11
3517.2807763366081417
 21
149.4847787288086067
 31
0.0
  0
LINE
  5
CEDD
  8
0
 10
3517.2807763366081417
 20
149.4847787288086067
 30
0.0
 11
3517.2807763366081417
 21
152.0438334710339916
 31
0.0
  0
LINE
  5
CEDE
  8
0
 10
3517.2807763366081417
 20
152.0438334710339916
 30
0.0
 11
3516.0603038957078752
 21
152.0438334710339916
 31
0.0
  0
ARC
  5
CEDF
  8
0
 10
3516.0603038957078752
 20
152.0044633923320987
 30
0.0
 40
0.0393700787018228
 50
90.0
 51
179.9994490365783122
  0
LINE
  5
CEE0
  8
0
 10
3514.8247560645081649
 20
161.7917157389339877
 30
0.0
 11
3515.5743768339079907
 21
161.7917157389339877
 31
0.0
  0
ARC
  5
CEE1
  8
0
 10
3515.5743768339079907
 20
161.8114096344943107
 30
0.0
 40
0.0196938955603088
 50
270.0
 51
357.589341281174427
  0
ARC
  5
CEE2
  8
0
 10
3514.8247475715079418
 20
161.8114007782338888
 30
0.0
 40
0.0196850393999988
 50
182.3859440307938939
 51
270.0
  0
LINE
  5
CEE3
  8
0
 10
3514.8050795975977962
 20
161.8105812793208997
 30
0.0
 11
3514.7996233614640005
 21
161.9415309465321116
 31
0.0
  0
LINE
  5
CEE4
  8
0
 10
3515.610290916500162
 20
162.2002840567382123
 30
0.0
 11
3515.5940533008179045
 21
161.8105812793208997
 31
0.0
  0
LINE
  5
CEE5
  8
0
 10
3514.8197122006758946
 20
161.9415309939340091
 30
0.0
 11
3514.632734195707144
 21
161.9415309465339874
 31
0.0
  0
ARC
  5
CEE6
  8
0
 10
3514.6327341907181108
 20
161.9612159807599028
 30
0.0
 40
0.0196850342259729
 50
182.0708284970847899
 51
270.0000145248084777
  0
ARC
  5
CEE7
  8
0
 10
3531.6211308262450075
 20
162.5754422035404048
 30
0.0
 40
17.0191819120381709
 50
177.9292262506990028
 51
182.0706633666719085
  0
ARC
  5
CEE8
  8
0
 10
-73170.2873838262021309
 20
-1510.4127135390119747
 30
0.0
 40
76703.3604477453627624
 50
1.24932676691874
 51
1.2502449584551001
  0
ARC
  5
CEE9
  8
0
 10
3514.8201322462959979
 20
161.9607958662072065
 30
0.0
 40
0.0192694983928372
 50
268.7509407199644897
 51
1.2493267669154839
  0
ARC
  5
CEEA
  8
0
 10
3514.6327333419258139
 20
163.1897033456992006
 30
0.0
 40
0.0196829243532666
 50
89.9975143931863073
 51
177.9352197404056142
  0
LINE
  5
CEEB
  8
0
 10
3514.6327341958108263
 20
163.2093862700340026
 30
0.0
 11
3514.7928757926570142
 21
163.2093793227676031
 31
0.0
  0
ARC
  5
CEEC
  8
0
 10
3514.7928749372781567
 20
163.1896619421133039
 30
0.0
 40
0.0197173806728177
 50
1.362331032087416
 51
89.9975143932123558
  0
LINE
  5
CEED
  8
0
 10
3517.2807763366081417
 20
161.580185460033988
 30
0.0
 11
3517.2807763366081417
 21
163.575321299633913
 31
0.0
  0
LINE
  5
CEEE
  8
0
 10
3517.2807763366081417
 20
163.575321299633913
 30
0.0
 11
3516.9658157067078719
 21
163.575321299633913
 31
0.0
  0
ARC
  5
CEEF
  8
0
 10
3516.9658157067078719
 20
163.5359512199916878
 30
0.0
 40
0.0393700796422323
 50
90.0
 51
179.9874647474557889
  0
LINE
  5
CEF0
  8
0
 10
3517.2807763366081417
 20
161.580185460033988
 30
0.0
 11
3517.2414062579077836
 21
161.580185460033988
 31
0.0
  0
LINE
  5
CEF1
  8
0
 10
3517.2414062579077836
 20
161.580185460033988
 30
0.0
 11
3517.2414062579077836
 21
161.5753303725338981
 31
0.0
  0
LINE
  5
CEF2
  8
0
 10
3517.2414062579077836
 20
161.5753303725338981
 30
0.0
 11
3516.9658157067078719
 21
161.5753299121340092
 31
0.0
  0
ARC
  5
CEF3
  8
0
 10
3516.9658156409359435
 20
161.6146999250626095
 30
0.0
 40
0.0393700129287405
 50
179.9999042819997044
 51
270.0000957180100727
  0
LINE
  5
CEF4
  8
0
 10
3516.9264456280079685
 20
161.6146999908339978
 30
0.0
 11
3516.9264463092567894
 21
162.0224885275333975
 31
0.0
  0
LINE
  5
CEF5
  8
0
 10
3516.9264463092567894
 20
162.0224885275333975
 30
0.0
 11
3516.8831385413081989
 21
162.0217325995340047
 31
0.0
  0
LINE
  5
CEF6
  8
0
 10
3516.8831385413081989
 20
162.0217325995340047
 30
0.0
 11
3516.8740032381501806
 21
162.0237104400480916
 31
0.0
  0
LINE
  5
CEF7
  8
0
 10
3516.6286260745077925
 20
162.0203092568339969
 30
0.0
 11
3516.6157840439082065
 21
162.0171629191339946
 31
0.0
  0
LINE
  5
CEF8
  8
0
 10
3516.6157840439082065
 20
162.0171629191339946
 30
0.0
 11
3515.6022230181170016
 21
162.0066544950425111
 31
0.0
  0
LINE
  5
CEF9
  8
0
 10
3516.9264456280079685
 20
163.5359593455339962
 30
0.0
 11
3516.9264456280079685
 21
163.1281712967339956
 31
0.0
  0
LINE
  5
CEFA
  8
0
 10
3516.9264456280079685
 20
163.1281712967339956
 30
0.0
 11
3515.6495508905409224
 21
163.1425234334334959
 31
0.0
  0
LINE
  5
CEFB
  8
0
 10
3515.6495508905081806
 20
163.1425234334340075
 30
0.0
 11
3515.6519806124078968
 21
163.2008367582340043
 31
0.0
  0
LINE
  5
CEFC
  8
0
 10
3514.7928757926570142
 20
163.2093793227676031
 30
0.0
 11
3515.6441134228080045
 21
163.2093862700340026
 31
0.0
  0
ARC
  5
CEFD
  8
0
 10
3515.64350913162707
 20
163.2009357893207948
 30
0.0
 40
0.0084720594966966
 50
359.3302463779709228
 51
85.9097595981830437
  0
LINE
  5
CEFE
  8
0
 10
3515.6441134228080045
 20
163.2093862700340026
 30
0.0
 11
3515.6744505921078598
 21
163.2093862700340026
 31
0.0
  0
ARC
  5
CEFF
  8
0
 10
3515.6744505921078598
 20
163.2290713096705872
 30
0.0
 40
0.0196850396366735
 50
270.0
 51
358.3150121455017825
  0
ARC
  5
CF00
  8
0
 10
3445.4176587615220342
 20
165.2958200623396863
 30
0.0
 40
70.3068691398197672
 50
358.3150121455017825
 51
0.5337472288037315
  0
ARC
  5
CF01
  8
0
 10
3500.7287332696541853
 20
165.3854494537829112
 30
0.0
 40
15.0033980686552102
 50
2.1593666221716421
 51
29.8114792673422215
  0
ARC
  5
CF02
  8
0
 10
3513.6859350454737978
 20
172.8072293621497124
 30
0.0
 40
0.0711833903901619
 50
31.4370986607009684
 51
111.1351969015643988
  0
LINE
  5
CF03
  8
0
 10
3513.6602684607078118
 20
172.8736244033339915
 30
0.0
 11
3513.1599596904397913
 21
172.721542086004888
 31
0.0
  0
ARC
  5
CF04
  8
0
 10
3513.171350393271041
 20
172.6838459687386944
 30
0.0
 40
0.0393795044144051
 50
106.813335279883006
 51
178.4746382335139003
  0
LINE
  5
CF05
  8
0
 10
3513.1319848433809057
 20
172.6848942291084938
 30
0.0
 11
3513.1306839084941203
 21
172.6237751339633064
 31
0.0
  0
ARC
  5
CF06
  8
0
 10
3513.147239977179197
 20
172.6242241439676093
 30
0.0
 40
0.0165621141181671
 50
181.5505009211294123
 51
207.2317292314347128
  0
LINE
  5
CF07
  8
0
 10
3513.1325135563579352
 20
172.6166454795840082
 30
0.0
 11
3513.1421777733107774
 21
172.595192085493494
 31
0.0
  0
LINE
  5
CF08
  8
0
 10
3513.1421777733107774
 20
172.595192085493494
 30
0.0
 11
3513.1350431499081424
 21
172.5932274387338907
 31
0.0
  0
ARC
  5
CF09
  8
0
 10
3513.1381789222741645
 20
172.5818398675095864
 30
0.0
 40
0.0118114286484526
 50
105.3958501929459999
 51
179.8585243182463955
  0
LINE
  5
CF0A
  8
0
 10
3513.126367529631807
 20
172.5818690324539944
 30
0.0
 11
3513.1307287786448796
 21
172.2829969157772894
 31
0.0
  0
ARC
  5
CF0B
  8
0
 10
3513.102848850060127
 20
172.2827574038996943
 30
0.0
 40
0.0278809573692125
 50
284.3157013488054758
 51
0.4922065023226984
  0
LINE
  5
CF0C
  8
0
 10
3513.1097428225148178
 20
172.2557422058137035
 30
0.0
 11
3513.0776250575067934
 21
172.2468567437340141
 31
0.0
  0
ARC
  5
CF0D
  8
0
 10
3513.0849868223472185
 20
172.2202465988700055
 30
0.0
 40
0.0276096974127157
 50
105.4642419081593943
 51
179.847674044704803
  0
LINE
  5
CF0E
  8
0
 10
3513.0573772225079665
 20
172.2203200016340077
 30
0.0
 11
3513.0619721529078561
 21
172.1354044321340098
 31
0.0
  0
ARC
  5
CF0F
  8
0
 10
3513.0907698853661714
 20
172.1397947852902064
 30
0.0
 40
0.0291304753688552
 50
188.6682717603378023
 51
221.9133412895253912
  0
ARC
  5
CF10
  8
0
 10
3513.0957719633270244
 20
172.1278429022304977
 30
0.0
 40
0.0277158427718671
 50
195.7161606503069038
 51
257.5708590135279223
  0
ARC
  5
CF11
  8
0
 10
3513.117509627185882
 20
172.1062938299706104
 30
0.0
 40
0.0282470475015327
 50
191.263374728790609
 51
288.5559998142455811
  0
ARC
  5
CF12
  8
0
 10
3513.4668886305980777
 20
172.1112377106487088
 30
0.0
 40
0.3418648890745564
 50
185.3242702219363878
 51
193.493192891085414
  0
ARC
  5
CF13
  8
0
 10
3513.1723084761251812
 20
172.0405522868933019
 30
0.0
 40
0.0389228211123506
 50
193.493192891080696
 51
229.3320159391217032
  0
ARC
  5
CF14
  8
0
 10
3513.1630567872539359
 20
172.0297840410385106
 30
0.0
 40
0.0247260304270489
 50
229.3320159391217032
 51
289.074086027167823
  0
ARC
  5
CF15
  8
0
 10
3513.2032196451609707
 20
171.9136307525020868
 30
0.0
 40
0.0981749117706585
 50
101.7176212041163978
 51
109.0740860271677946
  0
ARC
  5
CF16
  8
0
 10
3513.1904295673821252
 20
171.9842582883221951
 30
0.0
 40
0.0264843246390574
 50
37.5743384078371889
 51
105.6583007518032957
  0
ARC
  5
CF17
  8
0
 10
3513.2582035811901733
 20
172.0116790966802967
 30
0.0
 40
0.0481220502947821
 50
193.5453779206534932
 51
210.085907897820988
  0
ARC
  5
CF18
  8
0
 10
3513.2180949051062271
 20
171.9884206385119114
 30
0.0
 40
0.0017577068570844
 50
209.4809010661585091
 51
277.018084706358195
  0
ARC
  5
CF19
  8
0
 10
3513.216477432587908
 20
171.989353743146296
 30
0.0
 40
0.0032445104092566
 50
304.3827179105725236
 51
347.0438327211887213
  0
ARC
  5
CF1A
  8
0
 10
3512.7802789299021242
 20
172.0100356622608899
 30
0.0
 40
0.4398817271461448
 50
357.2102715302627871
 51
9.6951029223161456
  0
ARC
  5
CF1B
  8
0
 10
3512.6523602129141182
 20
172.0170945572644996
 30
0.0
 40
0.5655033723310164
 50
6.8062855987989801
 51
16.1758528386153309
  0
ARC
  5
CF1C
  8
0
 10
3513.1912171686640249
 20
172.1729197402393936
 30
0.0
 40
0.0045916526952947
 50
21.9500007410855602
 51
52.2730529514963109
  0
ARC
  5
CF1D
  8
0
 10
3513.1936399870528476
 20
172.1759262487686897
 30
0.0
 40
0.0007351798975183
 50
58.254779605798177
 51
154.9193896004989881
  0
ARC
  5
CF1E
  8
0
 10
3513.2051709573552216
 20
172.1705295053143061
 30
0.0
 40
0.0134665630128536
 50
154.9193896005048998
 51
178.9722683528862888
  0
ARC
  5
CF1F
  8
0
 10
3513.0659710087161329
 20
172.1730266445229915
 30
0.0
 40
0.1257557821955899
 50
355.4617006239201942
 51
358.9722683528862035
  0
ARC
  5
CF20
  8
0
 10
3513.1664323838040218
 20
172.171836869189292
 30
0.0
 40
0.026396326288454
 50
285.952329621249703
 51
340.6163930044240828
  0
ARC
  5
CF21
  8
0
 10
3506.412782749509006
 20
196.6164156068325042
 30
0.0
 40
25.3867819806424393
 50
285.3807291101865076
 51
285.4451599634110153
  0
ARC
  5
CF22
  8
0
 10
3513.1551614008958495
 20
172.1098456331316982
 30
0.0
 40
0.0303861742914872
 50
107.2204606797230042
 51
185.707661780377606
  0
ARC
  5
CF23
  8
0
 10
3513.3829031623267838
 20
172.107982594086792
 30
0.0
 40
0.2579798928242205
 50
180.2573969880808136
 51
186.3353250644738068
  0
ARC
  5
CF24
  8
0
 10
3513.1288204767570278
 20
172.0885627897027916
 30
0.0
 40
0.0005576776466367
 50
116.2258238749223977
 51
168.3796566644610095
  0
ARC
  5
CF25
  8
0
 10
3513.2047967004368729
 20
172.0825591295885886
 30
0.0
 40
0.0767664895536442
 50
175.4303990393568995
 51
187.3220719548442048
  0
ARC
  5
CF26
  8
0
 10
3513.3370110717391981
 20
172.0918532979640077
 30
0.0
 40
0.2092264593783408
 50
185.231642635013003
 51
192.458712282771387
  0
ARC
  5
CF27
  8
0
 10
3513.1558862696479082
 20
172.0518849611005976
 30
0.0
 40
0.023744272669884
 50
192.5745256472742994
 51
203.4410688460461927
  0
ARC
  5
CF28
  8
0
 10
3513.1353689953612047
 20
172.0429675736959041
 30
0.0
 40
0.00137304705941
 50
202.6254140825905949
 51
235.4579079424310066
  0
ARC
  5
CF29
  8
0
 10
3513.1346875606009235
 20
172.0420536733660128
 30
0.0
 40
0.0002378174365517
 50
245.902470769600086
 51
329.2298644436993982
  0
ARC
  5
CF2A
  8
0
 10
3513.1043644634769407
 20
172.0476393457113033
 30
0.0
 40
0.0310563693161441
 50
349.4103651555470833
 51
6.3133032667350983
  0
ARC
  5
CF2B
  8
0
 10
3512.9054085466709694
 20
172.0355519092256031
 30
0.0
 40
0.2303462047085162
 50
3.8589859141963792
 51
8.5115383037526886
  0
ARC
  5
CF2C
  8
0
 10
3512.9958973017928656
 20
172.0512389493831051
 30
0.0
 40
0.1385485074275824
 50
7.6343160972967823
 51
14.8530819133743801
  0
ARC
  5
CF2D
  8
0
 10
3513.1239224162641221
 20
172.0854514197635012
 30
0.0
 40
0.0060363403732802
 50
12.4683069626763103
 51
34.9813431892726427
  0
ARC
  5
CF2E
  8
0
 10
3513.1285783217699645
 20
172.0887092610273044
 30
0.0
 40
0.0003538245770197
 50
34.9813431882432724
 51
90.6944591087633682
  0
LINE
  5
CF2F
  8
0
 10
3513.1412754181587843
 20
172.5971821981839867
 30
0.0
 11
3514.3489218248969337
 21
168.1793153947010921
 31
0.0
  0
ARC
  5
CF30
  8
0
 10
3511.9390019662550912
 20
172.0528148063170022
 30
0.0
 40
1.232001863862159
 50
4.2799196774394748
 51
8.9549986416810654
  0
ARC
  5
CF31
  8
0
 10
3513.1370421224551137
 20
172.2416012740312965
 30
0.0
 40
0.0191784858478486
 50
8.9549986416939333
 51
23.9440474183301397
  0
ARC
  5
CF32
  8
0
 10
3513.5713297878219237
 20
171.7625220056332864
 30
0.0
 40
0.3418648890745564
 50
185.3242702219363878
 51
193.493192891085414
  0
ARC
  5
CF33
  8
0
 10
3513.2767496333481176
 20
171.691836581877908
 30
0.0
 40
0.0389228211123506
 50
193.493192891080696
 51
229.3320159391217032
  0
ARC
  5
CF34
  8
0
 10
3513.2674979444768724
 20
171.6810683360232019
 30
0.0
 40
0.0247260304270489
 50
229.3320159391217032
 51
289.074086027167823
  0
ARC
  5
CF35
  8
0
 10
3513.3076608023829976
 20
171.5649150474866929
 30
0.0
 40
0.0981749117706585
 50
101.7176212041163978
 51
109.0740860271677946
  0
ARC
  5
CF36
  8
0
 10
3513.2948707246050617
 20
171.6355425833068011
 30
0.0
 40
0.0264843246390574
 50
37.5743384078371889
 51
105.6583007518032957
  0
ARC
  5
CF37
  8
0
 10
3513.3626447384131097
 20
171.6629633916649027
 30
0.0
 40
0.0481220502947821
 50
193.5453779206534932
 51
210.085907897820988
  0
ARC
  5
CF38
  8
0
 10
3513.3225360623291635
 20
171.639704933496489
 30
0.0
 40
0.0017577068570844
 50
209.4809010661585091
 51
277.018084706358195
  0
ARC
  5
CF39
  8
0
 10
3513.3209185898108444
 20
171.640638038130902
 30
0.0
 40
0.0032445104092566
 50
304.3827179105725236
 51
347.0438327211887213
  0
ARC
  5
CF3A
  8
0
 10
3512.8847200871250607
 20
171.661319957245496
 30
0.0
 40
0.4398817271461448
 50
357.2102715302627871
 51
9.6951029223161456
  0
ARC
  5
CF3B
  8
0
 10
3512.7568013701361451
 20
171.6683788522491056
 30
0.0
 40
0.5655033723310164
 50
6.8062855987989801
 51
16.1758528386153309
  0
ARC
  5
CF3C
  8
0
 10
3513.2956583258869614
 20
171.8242040352239997
 30
0.0
 40
0.0045916526952947
 50
21.9500007410855602
 51
52.2730529514963109
  0
ARC
  5
CF3D
  8
0
 10
3513.298081144275784
 20
171.8272105437532957
 30
0.0
 40
0.0007351798975183
 50
58.254779605798177
 51
154.9193896004989881
  0
ARC
  5
CF3E
  8
0
 10
3513.3096121145781581
 20
171.8218138002989122
 30
0.0
 40
0.0134665630128536
 50
154.9193896005048998
 51
178.9722683528862888
  0
ARC
  5
CF3F
  8
0
 10
3513.1704121659390694
 20
171.8243109395077113
 30
0.0
 40
0.1257557821955899
 50
355.4617006239201942
 51
358.9722683528862035
  0
ARC
  5
CF40
  8
0
 10
3513.2708735410269583
 20
171.8231211641740117
 30
0.0
 40
0.026396326288454
 50
285.952329621249703
 51
340.6163930044240828
  0
ARC
  5
CF41
  8
0
 10
3506.5172239067319424
 20
196.2676999018171955
 30
0.0
 40
25.3867819806424393
 50
285.3807291101865076
 51
285.4451599634110153
  0
ARC
  5
CF42
  8
0
 10
3513.259602558118786
 20
171.7611299281163042
 30
0.0
 40
0.0303861742914872
 50
107.2204606797230042
 51
185.707661780377606
  0
ARC
  5
CF43
  8
0
 10
3513.487344319550175
 20
171.7592668890713981
 30
0.0
 40
0.2579798928242205
 50
180.2573969880808136
 51
186.3353250644738068
  0
ARC
  5
CF44
  8
0
 10
3513.2332616339799642
 20
171.7398470846873977
 30
0.0
 40
0.0005576776466367
 50
116.2258238749223977
 51
168.3796566644610095
  0
ARC
  5
CF45
  8
0
 10
3513.3092378576611736
 20
171.7338434245733083
 30
0.0
 40
0.0767664895536442
 50
175.4303990393568995
 51
187.3220719548442048
  0
ARC
  5
CF46
  8
0
 10
3513.441452228961225
 20
171.7431375929486137
 30
0.0
 40
0.2092264593783408
 50
185.231642635013003
 51
192.4587122827697954
  0
ARC
  5
CF47
  8
0
 10
3513.2603274268708446
 20
171.7031692560852036
 30
0.0
 40
0.023744272669884
 50
192.5745256472742994
 51
203.4410688460461927
  0
ARC
  5
CF48
  8
0
 10
3513.2398101525841412
 20
171.6942518686805101
 30
0.0
 40
0.00137304705941
 50
202.6254140825905949
 51
235.4579079424310066
  0
ARC
  5
CF49
  8
0
 10
3513.2391287178238599
 20
171.6933379683507042
 30
0.0
 40
0.0002378174365517
 50
245.902470769600086
 51
329.2298644436993982
  0
ARC
  5
CF4A
  8
0
 10
3513.2088056206998772
 20
171.6989236406959094
 30
0.0
 40
0.0310563693161441
 50
349.4103651555470833
 51
6.3133032667350983
  0
ARC
  5
CF4B
  8
0
 10
3513.0098497038948153
 20
171.6868362042102092
 30
0.0
 40
0.2303462047085162
 50
3.8589859141963792
 51
8.5115383037526886
  0
ARC
  5
CF4C
  8
0
 10
3513.1003384590148926
 20
171.7025232443677112
 30
0.0
 40
0.1385485074275824
 50
7.6343160972967823
 51
14.8530819133743801
  0
ARC
  5
CF4D
  8
0
 10
3513.2283635734879681
 20
171.7367357147481925
 30
0.0
 40
0.0060363403732802
 50
12.4683069626763103
 51
34.9813431892726427
  0
ARC
  5
CF4E
  8
0
 10
3513.2330194789919915
 20
171.7399935560119957
 30
0.0
 40
0.0003538245770197
 50
34.9813431882432724
 51
90.6944591087633682
  0
ARC
  5
CF4F
  8
0
 10
3513.5788155021250532
 20
171.4168605224139981
 30
0.0
 40
0.3418648890745564
 50
190.2234507396397873
 51
198.3923734087919115
  0
ARC
  5
CF50
  8
0
 10
3513.291348315121013
 20
171.3212754140704135
 30
0.0
 40
0.0389228211123506
 50
198.3923734087873072
 51
234.2311964568366989
  0
ARC
  5
CF51
  8
0
 10
3513.2830500641080107
 20
171.3097563908534937
 30
0.0
 40
0.0247260304270489
 50
234.2311964568357041
 51
293.9732665448648845
  0
ARC
  5
CF52
  8
0
 10
3513.3329859890150146
 20
171.1974574817016901
 30
0.0
 40
0.0981749117706585
 50
106.6168017218276987
 51
113.9732665448648987
  0
ARC
  5
CF53
  8
0
 10
3513.3142108592310251
 20
171.2667346742485108
 30
0.0
 40
0.0264843246390574
 50
42.4735189255465713
 51
110.5574812695010962
  0
ARC
  5
CF54
  8
0
 10
3513.379395451561777
 20
171.2998433830919964
 30
0.0
 40
0.0481220502947821
 50
198.4445584383568075
 51
214.9850884155333972
  0
ARC
  5
CF55
  8
0
 10
3513.3414196463040753
 20
171.2732445111496133
 30
0.0
 40
0.0017577068570844
 50
214.3800815838577023
 51
281.9172652240779939
  0
ARC
  5
CF56
  8
0
 10
3513.3397283935642008
 20
171.2740360702267139
 30
0.0
 40
0.0032445104092566
 50
309.2818984282772021
 51
351.9430132388933998
  0
ARC
  5
CF57
  8
0
 10
3512.9033572431831089
 20
171.2573899103443864
 30
0.0
 40
0.4398817271461448
 50
2.1094520479689249
 51
14.5942834400209502
  0
ARC
  5
CF58
  8
0
 10
3512.7753030264530025
 20
171.253498415476912
 30
0.0
 40
0.5655033723310164
 50
11.7054661165060701
 51
21.0750333563201693
  0
ARC
  5
CF59
  8
0
 10
3513.298883390789797
 20
171.4547741181596905
 30
0.0
 40
0.0045916526952947
 50
26.8491812587950491
 51
57.1722334691986092
  0
ARC
  5
CF5A
  8
0
 10
3513.3010405935910967
 20
171.4579765576295074
 30
0.0
 40
0.0007351798975183
 50
63.1539601235123911
 51
159.8185701182023877
  0
ARC
  5
CF5B
  8
0
 10
3513.3129903320132144
 20
171.4535843067644123
 30
0.0
 40
0.0134665630128536
 50
159.818570118217508
 51
183.8714488705919052
  0
ARC
  5
CF5C
  8
0
 10
3513.1740856855490165
 20
171.4441842750609908
 30
0.0
 40
0.1257557821955899
 50
0.3608811416260982
 51
3.8714488705919301
  0
ARC
  5
CF5D
  8
0
 10
3513.2742816367817795
 20
171.4515785164896045
 30
0.0
 40
0.026396326288454
 50
290.8515101389589859
 51
345.5155735221305804
  0
ARC
  5
CF5E
  8
0
 10
3504.4576739832450585
 20
195.2300696908100974
 30
0.0
 40
25.3867819806424393
 50
290.2799096278810111
 51
290.3443404811056894
  0
ARC
  5
CF5F
  8
0
 10
3513.2683460494558858
 20
171.3888511922461078
 30
0.0
 40
0.0303861742914872
 50
112.1196411974353992
 51
190.6068422980870878
  0
ARC
  5
CF60
  8
0
 10
3513.4954148689239446
 20
171.406444714901113
 30
0.0
 40
0.2579798928242205
 50
185.1565775057871974
 51
191.2345055821812991
  0
ARC
  5
CF61
  8
0
 10
3513.2835103466868532
 20
171.4257005716133904
 30
0.0
 40
0.0010867740668627
 50
52.1517398756475004
 51
118.086659318384207
  0
ARC
  5
CF62
  8
0
 10
3513.2439189731271654
 20
171.365396519983392
 30
0.0
 40
0.0005576776466367
 50
121.1250043926292932
 51
173.2788371821663134
  0
ARC
  5
CF63
  8
0
 10
3513.3201303476448629
 20
171.3659033667015024
 30
0.0
 40
0.0767664895536442
 50
180.3295795570626012
 51
192.2212524725493097
  0
ARC
  5
CF64
  8
0
 10
3513.4510679292711757
 20
171.3864550396812092
 30
0.0
 40
0.2092264593783408
 50
190.1308231527183921
 51
197.3578928004762076
  0
ARC
  5
CF65
  8
0
 10
3513.2740182662178086
 20
171.3311641842286122
 30
0.0
 40
0.023744272669884
 50
197.4737061649751126
 51
208.3402493637524913
  0
ARC
  5
CF66
  8
0
 10
3513.2543375201448725
 20
171.3205271462788062
 30
0.0
 40
0.00137304705941
 50
207.5245946002926871
 51
240.3570884601454054
  0
ARC
  5
CF67
  8
0
 10
3513.2537366245260273
 20
171.3195583885178053
 30
0.0
 40
0.0002378174365517
 50
250.8016512872891042
 51
334.1290449614093063
  0
ARC
  5
CF68
  8
0
 10
3513.2230472809510502
 20
171.3225339801684015
 30
0.0
 40
0.0310563693161441
 50
354.3095456732530124
 51
11.2124837844414191
  0
ARC
  5
CF69
  8
0
 10
3513.0258505454330589
 20
171.2934993378650859
 30
0.0
 40
0.2303462047085162
 50
8.7581664319031667
 51
13.4107188214545392
  0
ARC
  5
CF6A
  8
0
 10
3513.1146689863389838
 20
171.3168570472402052
 30
0.0
 40
0.1385485074275824
 50
12.5334966150024592
 51
19.752262431080041
  0
ARC
  5
CF6B
  8
0
 10
3513.2393045269200229
 20
171.3618782099215991
 30
0.0
 40
0.0060363403732802
 50
17.3674874803808699
 51
39.8805237069734133
  0
ARC
  5
CF6C
  8
0
 10
3513.2436651938060095
 20
171.3655217754944999
 30
0.0
 40
0.0003538245770197
 50
39.8805237059546869
 51
95.5936396264685442
  0
ARC
  5
CF6D
  8
0
 10
3513.1539712753638014
 20
172.2491403936151073
 30
0.0
 40
0.0006468099891361
 50
22.197013640259879
 51
74.1918435020623974
  0
ARC
  5
CF6E
  8
0
 10
3513.1542138977979448
 20
172.2493866546566039
 30
0.0
 40
0.0003819062681776
 50
100.0156798750951026
 51
155.9698042726994913
  0
ARC
  5
CF6F
  8
0
 10
3513.1996069962269758
 20
172.2402777303840935
 30
0.0
 40
0.0466706739572941
 50
168.5503491093128901
 51
179.8671596256293981
  0
ARC
  5
CF70
  8
0
 10
3513.1275290803851021
 20
172.2464276413101061
 30
0.0
 40
0.0261158287879979
 50
299.5118488536593873
 51
346.6238680884392238
  0
ARC
  5
CF71
  8
0
 10
3513.0123946639168935
 20
172.5792241122715041
 30
0.0
 40
0.3778637448026994
 50
283.9234024073775231
 51
289.8003847080015021
  0
ARC
  5
CF72
  8
0
 10
3513.1116611775578349
 20
172.1844680755777119
 30
0.0
 40
0.0292114020406875
 50
106.5956552551669034
 51
184.634948852641287
  0
ARC
  5
CF73
  8
0
 10
3513.6043658864650752
 20
172.1877067154960912
 30
0.0
 40
0.5218506214258295
 50
180.6147588489799034
 51
189.5890546342006076
  0
ARC
  5
CF74
  8
0
 10
3512.0385408279139483
 20
172.1548908341274
 30
0.0
 40
1.1040044018417561
 50
3.5728871971377978
 51
6.0239877053392643
  0
ARC
  5
CF75
  8
0
 10
3513.1319876196389487
 20
172.2702795877872006
 30
0.0
 40
0.0044861205910464
 50
6.023987705302015
 51
23.901174705071039
  0
ARC
  5
CF76
  8
0
 10
3513.1360468013231184
 20
172.2720784690812081
 30
0.0
 40
0.0000461960584205
 50
23.90117470473837
 51
150.0398311567550991
  0
ARC
  5
CF77
  8
0
 10
3513.1673098047222084
 20
172.2672281704836053
 30
0.0
 40
0.0316801070985613
 50
171.1510207733487903
 51
181.2522428128787055
  0
ARC
  5
CF78
  8
0
 10
3513.1081810139498884
 20
172.2706643887746907
 30
0.0
 40
0.0277649171680523
 50
285.360674666310274
 51
351.4485847781177768
  0
ARC
  5
CF79
  8
0
 10
3883.1466256035942024
 20
-1171.556953335317985
 30
0.0
 40
1393.8162423686669626
 50
105.3955085590292953
 51
105.3968745061009997
  0
ARC
  5
CF7A
  8
0
 10
3513.0911206020541613
 20
172.2080482207013858
 30
0.0
 40
0.0280752883925395
 50
105.7511126508880039
 51
183.1458013081081901
  0
ARC
  5
CF7B
  8
0
 10
3513.8662933253840492
 20
172.2191813083449858
 30
0.0
 40
0.8033056891475387
 50
180.9039945633577986
 51
187.0680939553477913
  0
ARC
  5
CF7C
  8
0
 10
3512.6713483986532083
 20
172.112697511698201
 30
0.0
 40
0.4184284521247101
 50
4.2801864427379659
 51
9.4189502023411364
  0
ARC
  5
CF7D
  8
0
 10
3513.0735666110299462
 20
172.1793573521167104
 30
0.0
 40
0.0107240605447071
 50
9.7543653371913717
 51
22.3047968883118308
  0
ARC
  5
CF7E
  8
0
 10
3513.0828471723098119
 20
172.1831654200335038
 30
0.0
 40
0.0006926006509508
 50
22.2340289088282397
 51
51.2164536248576425
  0
ARC
  5
CF7F
  8
0
 10
3513.0832222243088836
 20
172.1836321650523018
 30
0.0
 40
0.0000938395012483
 50
51.2164536231191079
 51
129.7363030145934886
  0
ARC
  5
CF80
  8
0
 10
3513.0843125548130956
 20
172.1828732087130902
 30
0.0
 40
0.0014191508286074
 50
144.1514391455000066
 51
174.8562809997204965
  0
ARC
  5
CF81
  8
0
 10
3513.1022850415802168
 20
172.1794802065249996
 30
0.0
 40
0.0197029452231271
 50
169.7079655677933943
 51
181.3787328766426867
  0
ARC
  5
CF82
  8
0
 10
3512.7199657108890278
 20
172.1063588699410047
 30
0.0
 40
0.370553407904878
 50
359.9339310063285211
 51
5.818778980267334
  0
ARC
  5
CF83
  8
0
 10
3513.0741351943488553
 20
172.106629743760891
 30
0.0
 40
0.0163985470226078
 50
349.6175242384546209
 51
357.5598992656284167
  0
ARC
  5
CF84
  8
0
 10
3513.0892402302820301
 20
172.10383559885301
 30
0.0
 40
0.0010376058716435
 50
321.2775559054766177
 51
351.0639449460614969
  0
ARC
  5
CF85
  8
0
 10
3513.0899505370380211
 20
172.1032660788588942
 30
0.0
 40
0.0001271726168365
 50
214.1854180108684886
 51
321.2775559051568735
  0
ARC
  5
CF86
  8
0
 10
3513.0939327683590818
 20
172.1057974783398947
 30
0.0
 40
0.0048458174734064
 50
191.5213782295919884
 51
212.4887641325967991
  0
ARC
  5
CF87
  8
0
 10
3513.0860578798778988
 20
172.1042881392897073
 30
0.0
 40
0.0031732507875415
 50
9.824724351489424
 51
18.8729283899677611
  0
ARC
  5
CF88
  8
0
 10
3512.7797906055329804
 20
172.1126323156506999
 30
0.0
 40
0.309412226992966
 50
5.5072826477045771
 51
9.0063755898766775
  0
ARC
  5
CF89
  8
0
 10
3512.7222701018567932
 20
172.1070863420115984
 30
0.0
 40
0.3671994761627273
 50
2.138802639204028
 51
5.5072826477045771
  0
ARC
  5
CF8A
  8
0
 10
3513.0419121639570221
 20
172.1190238532392129
 30
0.0
 40
0.0473345796242469
 50
355.1830963554837126
 51
2.138802639204028
  0
ARC
  5
CF8B
  8
0
 10
3513.0881051459850823
 20
172.1151922611597911
 30
0.0
 40
0.0009848810263787
 50
328.3527767614111781
 51
351.6408825430559091
  0
ARC
  5
CF8C
  8
0
 10
3513.0888759837998805
 20
172.1147236269329994
 30
0.0
 40
0.0000829669119451
 50
240.7834783489537074
 51
324.5494801460924919
  0
ARC
  5
CF8D
  8
0
 10
3513.1397434109408096
 20
172.1291948022793008
 30
0.0
 40
0.0529446190060595
 50
185.3953599596113122
 51
195.9437998210781018
  0
ARC
  5
CF8E
  8
0
 10
3513.4490473743790062
 20
172.1682187868937035
 30
0.0
 40
0.3646784132566755
 50
181.5015062668319104
 51
186.9302179036706093
  0
ARC
  5
CF8F
  8
0
 10
3513.1082938818581169
 20
172.1592327824673134
 30
0.0
 40
0.0238065221534819
 50
172.9601456048388002
 51
181.3713569089838984
  0
ARC
  5
CF90
  8
0
 10
3513.0854564218489031
 20
172.1620377010353877
 30
0.0
 40
0.000797604981868
 50
147.1849339445531086
 51
171.8696269817843074
  0
ARC
  5
CF91
  8
0
 10
3513.0777038658770834
 20
172.1594882497570893
 30
0.0
 40
0.0078451191778803
 50
11.6248098601803491
 51
20.7602424772629988
  0
ARC
  5
CF92
  8
0
 10
3513.0845236528680289
 20
172.1620734301444031
 30
0.0
 40
0.0005517898811404
 50
20.7602424774947387
 51
49.9875662952355526
  0
ARC
  5
CF93
  8
0
 10
3513.0848411320857849
 20
172.1624516204400095
 30
0.0
 40
0.0000580075869402
 50
49.9875662953456583
 51
161.5832850958948086
  0
ARC
  5
CF94
  8
0
 10
3513.0714983430771099
 20
172.1384233250360865
 30
0.0
 40
0.0042789035351527
 50
181.9861150234094964
 51
199.2646350993200883
  0
ARC
  5
CF95
  8
0
 10
3513.0667814258608814
 20
172.1367747519039142
 30
0.0
 40
0.0007178055215033
 50
10.9259461609535506
 51
19.2646350993155515
  0
ARC
  5
CF96
  8
0
 10
3513.0674516897411195
 20
172.1369693635188014
 30
0.0
 40
0.0000679811605211
 50
300.5263358637812985
 51
352.4726211378364837
  0
ARC
  5
CF97
  8
0
 10
3512.8900984805559347
 20
172.1388980258780919
 30
0.0
 40
0.1774311840510525
 50
359.3743114009993747
 51
3.6452810745418471
  0
ARC
  5
CF98
  8
0
 10
3512.3749170496430452
 20
172.1169526109684114
 30
0.0
 40
0.6930505651414275
 50
2.7479379736166321
 51
5.1005948734108522
  0
ARC
  5
CF99
  8
0
 10
3513.0652232332467975
 20
172.178568020752806
 30
0.0
 40
0.0000000000040066
 50
106.8742649022402986
 51
263.2663766738405116
  0
ARC
  5
CF9A
  8
0
 10
3513.0643978215211973
 20
172.1784903581996957
 30
0.0
 40
0.0008290572885091
 50
5.3751049880156714
 51
82.418659819034275
  0
ARC
  5
CF9B
  8
0
 10
3513.7862911013671692
 20
172.2068718805386141
 30
0.0
 40
0.7223336389730735
 50
183.0357807062414111
 51
185.4493401523988894
  0
ARC
  5
CF9C
  8
0
 10
3513.6199338071310194
 20
172.1980492867639043
 30
0.0
 40
0.5557425602609721
 50
181.9321199751674953
 51
183.0357807062414111
  0
ARC
  5
CF9D
  8
0
 10
3513.6937281463569889
 20
171.2705096780692884
 30
0.0
 40
0.3418648890745564
 50
190.2234507396397873
 51
198.3923734087919115
  0
ARC
  5
CF9E
  8
0
 10
3513.4062609593529487
 20
171.1749245697257038
 30
0.0
 40
0.0389228211123506
 50
198.3923734087873072
 51
234.2311964568366989
  0
ARC
  5
CF9F
  8
0
 10
3513.3979627083399464
 20
171.1634055465088124
 30
0.0
 40
0.0247260304270489
 50
234.2311964568357041
 51
293.9732665448648845
  0
ARC
  5
CFA0
  8
0
 10
3513.4478986332469503
 20
171.0511066373570088
 30
0.0
 40
0.0981749117706585
 50
106.6168017218276987
 51
113.9732665448648987
  0
ARC
  5
CFA1
  8
0
 10
3513.4291235034629608
 20
171.1203838299038011
 30
0.0
 40
0.0264843246390574
 50
42.4735189255465713
 51
110.5574812695010962
  0
ARC
  5
CFA2
  8
0
 10
3513.4943080957928032
 20
171.1534925387472867
 30
0.0
 40
0.0481220502947821
 50
198.4445584383568075
 51
214.9850884155333972
  0
ARC
  5
CFA3
  8
0
 10
3513.456332290536011
 20
171.1268936668049037
 30
0.0
 40
0.0017577068570844
 50
214.3800815838577023
 51
281.9172652240779939
  0
ARC
  5
CFA4
  8
0
 10
3513.4546410377961365
 20
171.1276852258818906
 30
0.0
 40
0.0032445104092566
 50
309.2818984282772021
 51
351.9430132388933998
  0
ARC
  5
CFA5
  8
0
 10
3513.0182698874141352
 20
171.1110390659997051
 30
0.0
 40
0.4398817271461448
 50
2.1094520479689249
 51
14.5942834400209502
  0
ARC
  5
CFA6
  8
0
 10
3512.8902156706849382
 20
171.1071475711322023
 30
0.0
 40
0.5655033723310164
 50
11.7054661165060701
 51
21.0750333563201693
  0
ARC
  5
CFA7
  8
0
 10
3513.4137960350221874
 20
171.3084232738150092
 30
0.0
 40
0.0045916526952947
 50
26.8491812587950491
 51
57.1722334691986092
  0
ARC
  5
CFA8
  8
0
 10
3513.4159532378221229
 20
171.3116257132847977
 30
0.0
 40
0.0007351798975183
 50
63.1539601235123911
 51
159.8185701182023877
  0
ARC
  5
CFA9
  8
0
 10
3513.4279029762451501
 20
171.3072334624197879
 30
0.0
 40
0.0134665630128536
 50
159.818570118217508
 51
183.8714488705919052
  0
ARC
  5
CFAA
  8
0
 10
3513.2889983297809522
 20
171.2978334307163095
 30
0.0
 40
0.1257557821955899
 50
0.3608811416260982
 51
3.8714488705919301
  0
ARC
  5
CFAB
  8
0
 10
3513.38919428101417
 20
171.3052276721448948
 30
0.0
 40
0.026396326288454
 50
290.8515101389589859
 51
345.5155735221305804
  0
ARC
  5
CFAC
  8
0
 10
3504.5725866274769942
 20
195.0837188464653877
 30
0.0
 40
25.3867819806424393
 50
290.2799096278810111
 51
290.3443404811056894
  0
ARC
  5
CFAD
  8
0
 10
3513.3832586936878215
 20
171.2425003479013981
 30
0.0
 40
0.0303861742914872
 50
112.1196411974353992
 51
190.6068422980870878
  0
ARC
  5
CFAE
  8
0
 10
3513.6103275131558803
 20
171.2600938705564033
 30
0.0
 40
0.2579798928242205
 50
185.1565775057871974
 51
191.2345055821812991
  0
ARC
  5
CFAF
  8
0
 10
3513.3588316173581916
 20
171.2190456756387107
 30
0.0
 40
0.0005576776466367
 50
121.1250043926292932
 51
173.2788371821663134
  0
ARC
  5
CFB0
  8
0
 10
3513.4350429918758891
 20
171.2195525223567927
 30
0.0
 40
0.0767664895536442
 50
180.3295795570626012
 51
192.2212524725493097
  0
ARC
  5
CFB1
  8
0
 10
3513.5659805735031114
 20
171.2401041953364995
 30
0.0
 40
0.2092264593783408
 50
190.1308231527183921
 51
197.3578928004762076
  0
ARC
  5
CFB2
  8
0
 10
3513.388930910450199
 20
171.1848133398839025
 30
0.0
 40
0.023744272669884
 50
197.4737061649751126
 51
208.3402493637524913
  0
ARC
  5
CFB3
  8
0
 10
3513.3692501643768082
 20
171.1741763019340965
 30
0.0
 40
0.00137304705941
 50
207.5245946002926871
 51
240.3570884601454054
  0
ARC
  5
CFB4
  8
0
 10
3513.368649268757963
 20
171.1732075441730956
 30
0.0
 40
0.0002378174365517
 50
250.8016512872891042
 51
334.1290449614093063
  0
ARC
  5
CFB5
  8
0
 10
3513.3379599251829859
 20
171.1761831358236918
 30
0.0
 40
0.0310563693161441
 50
354.3095456732530124
 51
11.2124837844414191
  0
ARC
  5
CFB6
  8
0
 10
3513.1407631896649946
 20
171.1471484935204046
 30
0.0
 40
0.2303462047085162
 50
8.7581664319031667
 51
13.4107188214545392
  0
ARC
  5
CFB7
  8
0
 10
3513.2295816305709195
 20
171.1705062028954956
 30
0.0
 40
0.1385485074275824
 50
12.5334966150024592
 51
19.752262431080041
  0
ARC
  5
CFB8
  8
0
 10
3513.3542171711519586
 20
171.2155273655768895
 30
0.0
 40
0.0060363403732802
 50
17.3674874803808699
 51
39.8805237069734133
  0
ARC
  5
CFB9
  8
0
 10
3513.3585778380379452
 20
171.2191709311497902
 30
0.0
 40
0.0003538245770197
 50
39.8805237059546869
 51
95.5936396264685442
  0
ARC
  5
CFBA
  8
0
 10
3513.8173478689050171
 20
170.7892622035321892
 30
0.0
 40
0.3418648890745564
 50
190.2234507396397873
 51
198.3923734087919115
  0
ARC
  5
CFBB
  8
0
 10
3513.5298806819009769
 20
170.6936770951886047
 30
0.0
 40
0.0389228211123506
 50
198.3923734087873072
 51
234.2311964568366989
  0
ARC
  5
CFBC
  8
0
 10
3513.5215824308870651
 20
170.6821580719717133
 30
0.0
 40
0.0247260304270489
 50
234.2311964568357041
 51
293.9732665448648845
  0
ARC
  5
CFBD
  8
0
 10
3513.5715183557949786
 20
170.569859162819796
 30
0.0
 40
0.0981749117706585
 50
106.6168017218276987
 51
113.9732665448648987
  0
ARC
  5
CFBE
  8
0
 10
3513.552743226010989
 20
170.639136355366702
 30
0.0
 40
0.0264843246390574
 50
42.4735189255465713
 51
110.5574812695010962
  0
ARC
  5
CFBF
  8
0
 10
3513.6179278183408314
 20
170.6722450642101876
 30
0.0
 40
0.0481220502947821
 50
198.4445584383568075
 51
214.9850884155333972
  0
ARC
  5
CFC0
  8
0
 10
3513.5799520130840392
 20
170.6456461922678045
 30
0.0
 40
0.0017577068570844
 50
214.3800815838577023
 51
281.9172652240779939
  0
ARC
  5
CFC1
  8
0
 10
3513.5782607603428005
 20
170.6464377513447914
 30
0.0
 40
0.0032445104092566
 50
309.2818984282772021
 51
351.9430132388933998
  0
ARC
  5
CFC2
  8
0
 10
3513.1418896099630729
 20
170.629791591462606
 30
0.0
 40
0.4398817271461448
 50
2.1094520479689249
 51
14.5942834400209502
  0
ARC
  5
CFC3
  8
0
 10
3513.0138353932329665
 20
170.6259000965951032
 30
0.0
 40
0.5655033723310164
 50
11.7054661165060701
 51
21.0750333563201693
  0
ARC
  5
CFC4
  8
0
 10
3513.5374157575688514
 20
170.8271757992779101
 30
0.0
 40
0.0045916526952947
 50
26.8491812587950491
 51
57.1722334691986092
  0
ARC
  5
CFC5
  8
0
 10
3513.5395729603701511
 20
170.8303782387476986
 30
0.0
 40
0.0007351798975183
 50
63.1539601235123911
 51
159.8185701182023877
  0
ARC
  5
CFC6
  8
0
 10
3513.5515226987931783
 20
170.8259859878826887
 30
0.0
 40
0.0134665630128536
 50
159.818570118217508
 51
183.8714488705919052
  0
ARC
  5
CFC7
  8
0
 10
3513.4126180523280709
 20
170.8165859561792104
 30
0.0
 40
0.1257557821955899
 50
0.3608811416260982
 51
3.8714488705919301
  0
ARC
  5
CFC8
  8
0
 10
3513.512814003560834
 20
170.8239801976077956
 30
0.0
 40
0.026396326288454
 50
290.8515101389589859
 51
345.5155735221305804
  0
ARC
  5
CFC9
  8
0
 10
3504.6962063500250224
 20
194.6024713719282886
 30
0.0
 40
25.3867819806424393
 50
290.2799096278810111
 51
290.3443404811056894
  0
ARC
  5
CFCA
  8
0
 10
3513.5068784162349402
 20
170.7612528733642989
 30
0.0
 40
0.0303861742914872
 50
112.1196411974353992
 51
190.6068422980870878
  0
ARC
  5
CFCB
  8
0
 10
3513.733947235702999
 20
170.7788463960191905
 30
0.0
 40
0.2579798928242205
 50
185.1565775057871974
 51
191.2345055821812991
  0
ARC
  5
CFCC
  8
0
 10
3513.5220427134668171
 20
170.79810225273161
 30
0.0
 40
0.0010867740668627
 50
52.1517398756475004
 51
118.086659318384207
  0
ARC
  5
CFCD
  8
0
 10
3513.1820181554321607
 20
170.6706370882866111
 30
0.0
 40
0.364056982626243
 50
0.1458572866810196
 51
20.6391653102407489
  0
ARC
  5
CFCE
  8
0
 10
3513.5369349111620068
 20
170.6704450258725103
 30
0.0
 40
0.0092072787472254
 50
315.0064781669333911
 51
6.9796398230919792
  0
ARC
  5
CFCF
  8
0
 10
3512.8135260785929859
 20
170.5254415740647005
 30
0.0
 40
0.7313351234830041
 50
10.5944093927236693
 51
21.1608128952737715
  0
ARC
  5
CFD0
  8
0
 10
3513.4824513399062198
 20
170.7377982011016115
 30
0.0
 40
0.0005576776466367
 50
121.1250043926292932
 51
173.2788371821663134
  0
ARC
  5
CFD1
  8
0
 10
3513.5586627144239174
 20
170.7383050478196935
 30
0.0
 40
0.0767664895536442
 50
180.3295795570626012
 51
192.2212524725493097
  0
ARC
  5
CFD2
  8
0
 10
3513.6896002960497754
 20
170.7588567207994004
 30
0.0
 40
0.2092264593783408
 50
190.1308231527183921
 51
197.3578928004762076
  0
ARC
  5
CFD3
  8
0
 10
3513.5125506329982272
 20
170.7035658653468033
 30
0.0
 40
0.023744272669884
 50
197.4737061649751126
 51
208.3402493637524913
  0
ARC
  5
CFD4
  8
0
 10
3513.492869886923927
 20
170.6929288273969973
 30
0.0
 40
0.00137304705941
 50
207.5245946002926871
 51
240.3570884601454054
  0
ARC
  5
CFD5
  8
0
 10
3513.4922689913050817
 20
170.6919600696359964
 30
0.0
 40
0.0002378174365517
 50
250.8016512872891042
 51
334.1290449614093063
  0
ARC
  5
CFD6
  8
0
 10
3513.4615796477301046
 20
170.6949356612865927
 30
0.0
 40
0.0310563693161441
 50
354.3095456732530124
 51
11.2124837844414191
  0
ARC
  5
CFD7
  8
0
 10
3513.2643829122121133
 20
170.6659010189833054
 30
0.0
 40
0.2303462047085162
 50
8.7581664319031667
 51
13.4107188214545392
  0
ARC
  5
CFD8
  8
0
 10
3513.3532013531180382
 20
170.6892587283583964
 30
0.0
 40
0.1385485074275824
 50
12.5334966150024592
 51
19.752262431080041
  0
ARC
  5
CFD9
  8
0
 10
3513.4778368936990773
 20
170.734279891039904
 30
0.0
 40
0.0060363403732802
 50
17.3674874803808699
 51
39.8805237069734133
  0
ARC
  5
CFDA
  8
0
 10
3513.4821975605850639
 20
170.7379234566126911
 30
0.0
 40
0.0003538245770197
 50
39.8805237059546869
 51
95.5936396264685442
  0
ARC
  5
CFDB
  8
0
 10
3513.693069522301812
 20
170.9690254443445099
 30
0.0
 40
0.3418648890745564
 50
190.2234507396397873
 51
198.3923734087919115
  0
ARC
  5
CFDC
  8
0
 10
3513.4056023352982265
 20
170.8734403360008969
 30
0.0
 40
0.0389228211123506
 50
198.3923734087873072
 51
234.2311964568366989
  0
ARC
  5
CFDD
  8
0
 10
3513.39730408428386
 20
170.8619213127838918
 30
0.0
 40
0.0247260304270489
 50
234.2311964568357041
 51
293.9732665448648845
  0
ARC
  5
CFDE
  8
0
 10
3513.4472400091917734
 20
170.7496224036322019
 30
0.0
 40
0.0981749117706585
 50
106.6168017218276987
 51
113.9732665448648987
  0
ARC
  5
CFDF
  8
0
 10
3513.4284648794068744
 20
170.8188995961789942
 30
0.0
 40
0.0264843246390574
 50
42.4735189255465713
 51
110.5574812695010962
  0
ARC
  5
CFE0
  8
0
 10
3513.493649471738081
 20
170.8520083050225082
 30
0.0
 40
0.0481220502947821
 50
198.4445584383568075
 51
214.9850884155333972
  0
ARC
  5
CFE1
  8
0
 10
3513.4556736664808341
 20
170.8254094330800967
 30
0.0
 40
0.0017577068570844
 50
214.3800815838577023
 51
281.9172652240779939
  0
ARC
  5
CFE2
  8
0
 10
3513.4539824137400501
 20
170.8262009921571121
 30
0.0
 40
0.0032445104092566
 50
309.2818984282772021
 51
351.9430132388933998
  0
ARC
  5
CFE3
  8
0
 10
3513.0176112633589582
 20
170.8095548322748982
 30
0.0
 40
0.4398817271461448
 50
2.1094520479689249
 51
14.5942834400209502
  0
ARC
  5
CFE4
  8
0
 10
3512.8895570466288518
 20
170.8056633374073101
 30
0.0
 40
0.5655033723310164
 50
11.7054661165060701
 51
21.0750333563201693
  0
ARC
  5
CFE5
  8
0
 10
3513.413137410966101
 20
171.0069390400902023
 30
0.0
 40
0.0045916526952947
 50
26.8491812587950491
 51
57.1722334691986092
  0
ARC
  5
CFE6
  8
0
 10
3513.415294613766946
 20
171.0101414795599908
 30
0.0
 40
0.0007351798975183
 50
63.1539601235123911
 51
159.8185701182023877
  0
ARC
  5
CFE7
  8
0
 10
3513.4272443521899731
 20
171.0057492286948957
 30
0.0
 40
0.0134665630128536
 50
159.818570118217508
 51
183.8714488705919052
  0
ARC
  5
CFE8
  8
0
 10
3513.2883397057248658
 20
170.9963491969915026
 30
0.0
 40
0.1257557821955899
 50
0.3608811416260982
 51
3.8714488705919301
  0
ARC
  5
CFE9
  8
0
 10
3513.3885356569580836
 20
171.0037434384200878
 30
0.0
 40
0.026396326288454
 50
290.8515101389589859
 51
345.5155735221305804
  0
ARC
  5
CFEA
  8
0
 10
3504.5719280034209078
 20
194.7822346127406092
 30
0.0
 40
25.3867819806424393
 50
290.2799096278810111
 51
290.3443404811056894
  0
ARC
  5
CFEB
  8
0
 10
3513.3826000696321898
 20
170.9410161141765911
 30
0.0
 40
0.0303861742914872
 50
112.1196411974353992
 51
190.6068422980870878
  0
ARC
  5
CFEC
  8
0
 10
3513.6096688890997939
 20
170.9586096368315111
 30
0.0
 40
0.2579798928242205
 50
185.1565775057871974
 51
191.2345055821812991
  0
ARC
  5
CFED
  8
0
 10
3513.3581729933030147
 20
170.9175614419139038
 30
0.0
 40
0.0005576776466367
 50
121.1250043926292932
 51
173.2788371821663134
  0
ARC
  5
CFEE
  8
0
 10
3513.434384367821167
 20
170.9180682886320142
 30
0.0
 40
0.0767664895536442
 50
180.3295795570626012
 51
192.2212524725493097
  0
ARC
  5
CFEF
  8
0
 10
3513.565321949447025
 20
170.9386199616116926
 30
0.0
 40
0.2092264593783408
 50
190.1308231527183921
 51
197.3578928004762076
  0
ARC
  5
CFF0
  8
0
 10
3513.3882722863950221
 20
170.8833291061590955
 30
0.0
 40
0.023744272669884
 50
197.4737061649751126
 51
208.3402493637524913
  0
ARC
  5
CFF1
  8
0
 10
3513.3685915403211766
 20
170.8726920682092896
 30
0.0
 40
0.00137304705941
 50
207.5245946002926871
 51
240.3570884601454054
  0
ARC
  5
CFF2
  8
0
 10
3513.3679906447018766
 20
170.8717233104482887
 30
0.0
 40
0.0002378174365517
 50
250.8016512872891042
 51
334.1290449614093063
  0
ARC
  5
CFF3
  8
0
 10
3513.3373013011268995
 20
170.8746989020989133
 30
0.0
 40
0.0310563693161441
 50
354.3095456732530124
 51
11.2124837844414191
  0
ARC
  5
CFF4
  8
0
 10
3513.1401045656098177
 20
170.8456642597955977
 30
0.0
 40
0.2303462047085162
 50
8.7581664319031667
 51
13.4107188214545392
  0
ARC
  5
CFF5
  8
0
 10
3513.2289230065148331
 20
170.8690219691706886
 30
0.0
 40
0.1385485074275824
 50
12.5334966150024592
 51
19.752262431080041
  0
ARC
  5
CFF6
  8
0
 10
3513.3535585470958722
 20
170.9140431318521109
 30
0.0
 40
0.0060363403732802
 50
17.3674874803808699
 51
39.8805237069734133
  0
ARC
  5
CFF7
  8
0
 10
3513.3579192139818588
 20
170.9176866974250117
 30
0.0
 40
0.0003538245770197
 50
39.8805237059546869
 51
95.5936396264685442
  0
ARC
  5
CFF8
  8
0
 10
3513.8122499431237884
 20
170.5149660087834889
 30
0.0
 40
0.3418648890745564
 50
190.2234507396397873
 51
198.3923734087919115
  0
ARC
  5
CFF9
  8
0
 10
3513.524782756120203
 20
170.4193809004399043
 30
0.0
 40
0.0389228211123506
 50
198.3923734087873072
 51
234.2311964568366989
  0
ARC
  5
CFFA
  8
0
 10
3513.5164845051058364
 20
170.4078618772230129
 30
0.0
 40
0.0247260304270489
 50
234.2311964568357041
 51
293.9732665448648845
  0
ARC
  5
CFFB
  8
0
 10
3513.5664204300128404
 20
170.2955629680712093
 30
0.0
 40
0.0981749117706585
 50
106.6168017218276987
 51
113.9732665448648987
  0
ARC
  5
CFFC
  8
0
 10
3513.5476453002288508
 20
170.3648401606180869
 30
0.0
 40
0.0264843246390574
 50
42.4735189255465713
 51
110.5574812695010962
  0
ARC
  5
CFFD
  8
0
 10
3513.612829892559148
 20
170.3979488694614872
 30
0.0
 40
0.0481220502947821
 50
198.4445584383568075
 51
214.9850884155333972
  0
ARC
  5
CFFE
  8
0
 10
3513.5748540873028105
 20
170.3713499975191041
 30
0.0
 40
0.0017577068570844
 50
214.3800815838577023
 51
281.9172652240779939
  0
ARC
  5
CFFF
  8
0
 10
3513.5731628345620265
 20
170.3721415565962047
 30
0.0
 40
0.0032445104092566
 50
309.2818984282772021
 51
351.9430132388933998
  0
ARC
  5
D000
  8
0
 10
3513.1367916841809347
 20
170.3554953967139909
 30
0.0
 40
0.4398817271461448
 50
2.1094520479689249
 51
14.5942834400209502
  0
ARC
  5
D001
  8
0
 10
3513.0087374674508283
 20
170.3516039018464028
 30
0.0
 40
0.5655033723310164
 50
11.7054661165060701
 51
21.0750333563201693
  0
ARC
  5
D002
  8
0
 10
3513.5323178317880775
 20
170.552879604529295
 30
0.0
 40
0.0045916526952947
 50
26.8491812587950491
 51
57.1722334691986092
  0
ARC
  5
D003
  8
0
 10
3513.5344750345880129
 20
170.5560820439989982
 30
0.0
 40
0.0007351798975183
 50
63.1539601235123911
 51
159.8185701182023877
  0
ARC
  5
D004
  8
0
 10
3513.5464247730110401
 20
170.5516897931339884
 30
0.0
 40
0.0134665630128536
 50
159.818570118217508
 51
183.8714488705919052
  0
ARC
  5
D005
  8
0
 10
3513.4075201265468422
 20
170.54228976143051
 30
0.0
 40
0.1257557821955899
 50
0.3608811416260982
 51
3.8714488705919301
  0
ARC
  5
D006
  8
0
 10
3513.5077160777809695
 20
170.5496840028590952
 30
0.0
 40
0.026396326288454
 50
290.8515101389589859
 51
345.5155735221305804
  0
ARC
  5
D007
  8
0
 10
3504.6911084242428842
 20
194.3281751771797019
 30
0.0
 40
25.3867819806424393
 50
290.2799096278810111
 51
290.3443404811056894
  0
ARC
  5
D008
  8
0
 10
3513.5017804904541663
 20
170.4869566786157122
 30
0.0
 40
0.0303861742914872
 50
112.1196411974353992
 51
190.6068422980870878
  0
ARC
  5
D009
  8
0
 10
3513.7288493099208608
 20
170.5045502012706038
 30
0.0
 40
0.2579798928242205
 50
185.1565775057871974
 51
191.2345055821812991
  0
ARC
  5
D00A
  8
0
 10
3513.5169447876851336
 20
170.5238060579829096
 30
0.0
 40
0.0010867740668627
 50
52.1517398756475004
 51
118.086659318384207
  0
ARC
  5
D00B
  8
0
 10
3513.4773534141249911
 20
170.4635020063529964
 30
0.0
 40
0.0005576776466367
 50
121.1250043926292932
 51
173.2788371821663134
  0
ARC
  5
D00C
  8
0
 10
3513.5535647886431434
 20
170.4640088530711068
 30
0.0
 40
0.0767664895536442
 50
180.3295795570626012
 51
192.2212524725493097
  0
ARC
  5
D00D
  8
0
 10
3513.6845023702680919
 20
170.4845605260508137
 30
0.0
 40
0.2092264593783408
 50
190.1308231527183921
 51
197.3578928004762076
  0
ARC
  5
D00E
  8
0
 10
3513.507452707216089
 20
170.4292696705981882
 30
0.0
 40
0.023744272669884
 50
197.4737061649751126
 51
208.3402493637524913
  0
ARC
  5
D00F
  8
0
 10
3513.487771961143153
 20
170.4186326326484107
 30
0.0
 40
0.00137304705941
 50
207.5245946002926871
 51
240.3570884601454054
  0
ARC
  5
D010
  8
0
 10
3513.487171065523853
 20
170.4176638748874097
 30
0.0
 40
0.0002378174365517
 50
250.8016512872891042
 51
334.1290449614093063
  0
ARC
  5
D011
  8
0
 10
3513.4564817219488759
 20
170.420639466538006
 30
0.0
 40
0.0310563693161441
 50
354.3095456732530124
 51
11.2124837844414191
  0
ARC
  5
D012
  8
0
 10
3513.2592849864308846
 20
170.3916048242346903
 30
0.0
 40
0.2303462047085162
 50
8.7581664319031667
 51
13.4107188214545392
  0
ARC
  5
D013
  8
0
 10
3513.3481034273368095
 20
170.4149625336098097
 30
0.0
 40
0.1385485074275824
 50
12.5334966150024592
 51
19.752262431080041
  0
ARC
  5
D014
  8
0
 10
3513.4727389679178486
 20
170.4599836962912036
 30
0.0
 40
0.0060363403732802
 50
17.3674874803808699
 51
39.8805237069734133
  0
ARC
  5
D015
  8
0
 10
3513.4770996348038352
 20
170.4636272618641044
 30
0.0
 40
0.0003538245770197
 50
39.8805237059546869
 51
95.5936396264685442
  0
ARC
  5
D016
  8
0
 10
3513.7093242681180527
 20
170.6679288259875875
 30
0.0
 40
0.3418648890745564
 50
190.2234507396397873
 51
198.3923734087919115
  0
ARC
  5
D017
  8
0
 10
3513.421857081113103
 20
170.5723437176440882
 30
0.0
 40
0.0389228211123506
 50
198.3923734087873072
 51
234.2311964568366989
  0
ARC
  5
D018
  8
0
 10
3513.413558830097827
 20
170.5608246944271116
 30
0.0
 40
0.0247260304270489
 50
234.2311964568357041
 51
293.9732665448648845
  0
ARC
  5
D019
  8
0
 10
3513.4634947550071047
 20
170.448525785275308
 30
0.0
 40
0.0981749117706585
 50
106.6168017218276987
 51
113.9732665448648987
  0
ARC
  5
D01A
  8
0
 10
3513.4447196252231151
 20
170.517802977822214
 30
0.0
 40
0.0264843246390574
 50
42.4735189255465713
 51
110.5574812695010962
  0
ARC
  5
D01B
  8
0
 10
3513.5099042175529576
 20
170.5509116866656996
 30
0.0
 40
0.0481220502947821
 50
198.4445584383568075
 51
214.9850884155333972
  0
ARC
  5
D01C
  8
0
 10
3513.4719284122961653
 20
170.5243128147232881
 30
0.0
 40
0.0017577068570844
 50
214.3800815838577023
 51
281.9172652240779939
  0
ARC
  5
D01D
  8
0
 10
3513.4702371595549266
 20
170.5251043738003887
 30
0.0
 40
0.0032445104092566
 50
309.2818984282772021
 51
351.9430132388933998
  0
ARC
  5
D01E
  8
0
 10
3513.0338660091738348
 20
170.5084582139180895
 30
0.0
 40
0.4398817271461448
 50
2.1094520479689249
 51
14.5942834400209502
  0
ARC
  5
D01F
  8
0
 10
3512.9058117924450926
 20
170.5045667190505014
 30
0.0
 40
0.5655033723310164
 50
11.7054661165060701
 51
21.0750333563201693
  0
ARC
  5
D020
  8
0
 10
3513.429392156780068
 20
170.7058424217333936
 30
0.0
 40
0.0045916526952947
 50
26.8491812587950491
 51
57.1722334691986092
  0
ARC
  5
D021
  8
0
 10
3513.4315493595818225
 20
170.7090448612032105
 30
0.0
 40
0.0007351798975183
 50
63.1539601235123911
 51
159.8185701182023877
  0
ARC
  5
D022
  8
0
 10
3513.4434990980039402
 20
170.7046526103382007
 30
0.0
 40
0.0134665630128536
 50
159.818570118217508
 51
183.8714488705919052
  0
ARC
  5
D023
  8
0
 10
3513.304594451540197
 20
170.6952525786346939
 30
0.0
 40
0.1257557821955899
 50
0.3608811416260982
 51
3.8714488705919301
  0
ARC
  5
D024
  8
0
 10
3513.4047904027729601
 20
170.7026468200633076
 30
0.0
 40
0.026396326288454
 50
290.8515101389589859
 51
345.5155735221305804
  0
ARC
  5
D025
  8
0
 10
3504.5881827492371485
 20
194.4811379943838006
 30
0.0
 40
25.3867819806424393
 50
290.2799096278810111
 51
290.3443404811056894
  0
ARC
  5
D026
  8
0
 10
3513.3988548154470664
 20
170.6399194958198109
 30
0.0
 40
0.0303861742914872
 50
112.1196411974353992
 51
190.6068422980870878
  0
ARC
  5
D027
  8
0
 10
3513.6259236349151251
 20
170.6575130184747877
 30
0.0
 40
0.2579798928242205
 50
185.1565775057871974
 51
191.2345055821812991
  0
ARC
  5
D028
  8
0
 10
3513.3744277391178912
 20
170.6164648235570951
 30
0.0
 40
0.0005576776466367
 50
121.1250043926292932
 51
173.2788371821663134
  0
ARC
  5
D029
  8
0
 10
3513.450639113635134
 20
170.6169716702752055
 30
0.0
 40
0.0767664895536442
 50
180.3295795570626012
 51
192.2212524725493097
  0
ARC
  5
D02A
  8
0
 10
3513.5815766952619015
 20
170.6375233432549123
 30
0.0
 40
0.2092264593783408
 50
190.1308231527183921
 51
197.3578928004762076
  0
ARC
  5
D02B
  8
0
 10
3513.4045270322089891
 20
170.5822324878022869
 30
0.0
 40
0.023744272669884
 50
197.4737061649751126
 51
208.3402493637524913
  0
ARC
  5
D02C
  8
0
 10
3513.3848462861369626
 20
170.5715954498525093
 30
0.0
 40
0.00137304705941
 50
207.5245946002926871
 51
240.3570884601454054
  0
ARC
  5
D02D
  8
0
 10
3513.3842453905172079
 20
170.5706266920915084
 30
0.0
 40
0.0002378174365517
 50
250.8016512872891042
 51
334.1290449614093063
  0
ARC
  5
D02E
  8
0
 10
3513.3535560469431402
 20
170.5736022837421046
 30
0.0
 40
0.0310563693161441
 50
354.3095456732530124
 51
11.2124837844414191
  0
ARC
  5
D02F
  8
0
 10
3513.1563593114251489
 20
170.544567641438789
 30
0.0
 40
0.2303462047085162
 50
8.7581664319031667
 51
13.4107188214545392
  0
ARC
  5
D030
  8
0
 10
3513.2451777523301644
 20
170.5679253508139084
 30
0.0
 40
0.1385485074275824
 50
12.5334966150024592
 51
19.752262431080041
  0
ARC
  5
D031
  8
0
 10
3513.3698132929112035
 20
170.6129465134953023
 30
0.0
 40
0.0060363403732802
 50
17.3674874803808699
 51
39.8805237069734133
  0
ARC
  5
D032
  8
0
 10
3513.37417395979719
 20
170.6165900790682031
 30
0.0
 40
0.0003538245770197
 50
39.8805237059546869
 51
95.5936396264685442
  0
ARC
  5
D033
  8
0
 10
3513.4868613701219147
 20
171.711021301233302
 30
0.0
 40
0.3418648890745564
 50
185.3242702219363878
 51
193.493192891085414
  0
ARC
  5
D034
  8
0
 10
3513.1922812156481086
 20
171.6403358774778951
 30
0.0
 40
0.0389228211123506
 50
193.493192891080696
 51
229.3320159391217032
  0
ARC
  5
D035
  8
0
 10
3513.1830295267768633
 20
171.6295676316231891
 30
0.0
 40
0.0247260304270489
 50
229.3320159391217032
 51
289.074086027167823
  0
ARC
  5
D036
  8
0
 10
3513.2231923846829886
 20
171.5134143430867937
 30
0.0
 40
0.0981749117706585
 50
101.7176212041163978
 51
109.0740860271677946
  0
ARC
  5
D037
  8
0
 10
3513.2104023069050527
 20
171.5840418789067883
 30
0.0
 40
0.0264843246390574
 50
37.5743384078371889
 51
105.6583007518032957
  0
ARC
  5
D038
  8
0
 10
3513.2781763207121912
 20
171.6114626872648898
 30
0.0
 40
0.0481220502947821
 50
193.5453779206534932
 51
210.085907897820988
  0
ARC
  5
D039
  8
0
 10
3513.238067644630064
 20
171.5882042290965046
 30
0.0
 40
0.0017577068570844
 50
209.4809010661585091
 51
277.018084706358195
  0
ARC
  5
D03A
  8
0
 10
3513.2364501721108354
 20
171.5891373337308892
 30
0.0
 40
0.0032445104092566
 50
304.3827179105725236
 51
347.0438327211887213
  0
ARC
  5
D03B
  8
0
 10
3512.8002516694250517
 20
171.6098192528455115
 30
0.0
 40
0.4398817271461448
 50
357.2102715302627871
 51
9.6951029223161456
  0
ARC
  5
D03C
  8
0
 10
3512.6723329524370456
 20
171.6168781478490928
 30
0.0
 40
0.5655033723310164
 50
6.8062855987989801
 51
16.1758528386153309
  0
ARC
  5
D03D
  8
0
 10
3513.2111899081869524
 20
171.7727033308239868
 30
0.0
 40
0.0045916526952947
 50
21.9500007410855602
 51
52.2730529514963109
  0
ARC
  5
D03E
  8
0
 10
3513.213612726575775
 20
171.7757098393533113
 30
0.0
 40
0.0007351798975183
 50
58.254779605798177
 51
154.9193896004989881
  0
ARC
  5
D03F
  8
0
 10
3513.2251436968781491
 20
171.7703130958988993
 30
0.0
 40
0.0134665630128536
 50
154.9193896005048998
 51
178.9722683528862888
  0
ARC
  5
D040
  8
0
 10
3513.0859437482390604
 20
171.7728102351076132
 30
0.0
 40
0.1257557821955899
 50
355.4617006239201942
 51
358.9722683528862035
  0
ARC
  5
D041
  8
0
 10
3513.1864051233269493
 20
171.7716204597739136
 30
0.0
 40
0.026396326288454
 50
285.952329621249703
 51
340.6163930044240828
  0
ARC
  5
D042
  8
0
 10
3506.4327554890328429
 20
196.2161991974172111
 30
0.0
 40
25.3867819806424393
 50
285.3807291101865076
 51
285.4451599634110153
  0
ARC
  5
D043
  8
0
 10
3513.175134140418777
 20
171.7096292237162913
 30
0.0
 40
0.0303861742914872
 50
107.2204606797230042
 51
185.707661780377606
  0
ARC
  5
D044
  8
0
 10
3513.4028759018488017
 20
171.7077661846714136
 30
0.0
 40
0.2579798928242205
 50
180.2573969880808136
 51
186.3353250644738068
  0
ARC
  5
D045
  8
0
 10
3513.1487932162799552
 20
171.6883463802874132
 30
0.0
 40
0.0005576776466367
 50
116.2258238749223977
 51
168.3796566644610095
  0
ARC
  5
D046
  8
0
 10
3513.2247694399598004
 20
171.6823427201732954
 30
0.0
 40
0.0767664895536442
 50
175.4303990393568995
 51
187.3220719548442048
  0
ARC
  5
D047
  8
0
 10
3513.3569838112621255
 20
171.6916368885486008
 30
0.0
 40
0.2092264593783408
 50
185.231642635013003
 51
192.4587122827697954
  0
ARC
  5
D048
  8
0
 10
3513.1758590091721999
 20
171.6516685516851908
 30
0.0
 40
0.023744272669884
 50
192.5745256472742994
 51
203.4410688460461927
  0
ARC
  5
D049
  8
0
 10
3513.1553417348841322
 20
171.6427511642804973
 30
0.0
 40
0.00137304705941
 50
202.6254140825905949
 51
235.4579079424310066
  0
ARC
  5
D04A
  8
0
 10
3513.1546603001238509
 20
171.641837263950606
 30
0.0
 40
0.0002378174365517
 50
245.902470769600086
 51
329.2298644436993982
  0
ARC
  5
D04B
  8
0
 10
3513.1243372029998682
 20
171.6474229362958965
 30
0.0
 40
0.0310563693161441
 50
349.4103651555470833
 51
6.3133032667350983
  0
ARC
  5
D04C
  8
0
 10
3512.9253812861948063
 20
171.6353354998101963
 30
0.0
 40
0.2303462047085162
 50
3.8589859141963792
 51
8.5115383037526886
  0
ARC
  5
D04D
  8
0
 10
3513.0158700413157931
 20
171.6510225399676983
 30
0.0
 40
0.1385485074275824
 50
7.6343160972967823
 51
14.8530819133743801
  0
ARC
  5
D04E
  8
0
 10
3513.1438951557870496
 20
171.6852350103482081
 30
0.0
 40
0.0060363403732802
 50
12.4683069626763103
 51
34.9813431892726427
  0
ARC
  5
D04F
  8
0
 10
3513.148551061292892
 20
171.6884928516120112
 30
0.0
 40
0.0003538245770197
 50
34.9813431882432724
 51
90.6944591087633682
  0
ARC
  5
D050
  8
0
 10
3512.0887288338049075
 20
169.9585454055493017
 30
0.0
 40
1.444637731432312
 50
11.9106146518593299
 51
21.3731088962636591
  0
ARC
  5
D051
  8
0
 10
3513.4232001209179543
 20
170.4807966072212082
 30
0.0
 40
0.0116129815494408
 50
21.3731088962359586
 51
53.9355582721955713
  0
ARC
  5
D052
  8
0
 10
3513.4292889485559499
 20
170.489157368429801
 30
0.0
 40
0.0012700540147039
 50
53.9355582721323685
 51
190.36392931594321
  0
ARC
  5
D053
  8
0
 10
3513.493319741652158
 20
170.4816148600887118
 30
0.0
 40
0.0656885822177297
 50
173.6072062161335054
 51
188.8950854196764055
  0
ARC
  5
D054
  8
0
 10
3513.3915766125378468
 20
170.4793131690759935
 30
0.0
 40
0.0376726791863447
 50
285.1678898894393228
 51
347.9644569164934182
  0
ARC
  5
D055
  8
0
 10
3513.4029084021021845
 20
170.4112632726682079
 30
0.0
 40
0.031723908835503
 50
92.664554398510063
 51
174.6949127825810137
  0
ARC
  5
D056
  8
0
 10
3514.2326150817311827
 20
170.5213556305448037
 30
0.0
 40
0.8679352809009818
 50
187.0920913413087874
 51
201.1746514465037023
  0
ARC
  5
D057
  8
0
 10
3513.4511656395170576
 20
170.2183064221549955
 30
0.0
 40
0.0297830997019732
 50
200.5600268574289089
 51
285.6544553737521142
  0
ARC
  5
D058
  8
0
 10
3513.4779879233528845
 20
170.1318920814655939
 30
0.0
 40
0.0607153216765777
 50
89.6788413369790902
 51
108.0235093252057936
  0
ARC
  5
D059
  8
0
 10
3513.3801195468167862
 20
170.3785729544325136
 30
0.0
 40
0.0005613629187746
 50
48.2401306925061419
 51
104.171958642981096
  0
ARC
  5
D05A
  8
0
 10
3513.3123806921280448
 20
170.3373392849709944
 30
0.0
 40
0.0798390087761837
 50
16.5707502084759497
 51
31.4466924814809197
  0
ARC
  5
D05B
  8
0
 10
3512.6951110960358164
 20
170.1258657000718983
 30
0.0
 40
0.7322693834288002
 50
9.1609414166588401
 51
18.6561030082891115
  0
ARC
  5
D05C
  8
0
 10
3513.3949426897570447
 20
170.2396180612421119
 30
0.0
 40
0.0232705522576549
 50
352.7365263822889005
 51
6.987537935212659
  0
ARC
  5
D05D
  8
0
 10
3513.4168455442618324
 20
170.2368344287189075
 30
0.0
 40
0.0011915482817176
 50
305.7174090819154912
 51
352.3550880462132113
  0
ARC
  5
D05E
  8
0
 10
3513.417438878440862
 20
170.2368188580998947
 30
0.0
 40
0.0009573339065679
 50
213.6521253868675103
 51
276.1329328132183036
  0
ARC
  5
D05F
  8
0
 10
3514.0128592059040784
 20
170.4721219282126015
 30
0.0
 40
0.641164923810069
 50
188.9669860689606082
 51
201.5812619216775943
  0
ARC
  5
D060
  8
0
 10
3513.4028790309489523
 20
170.3754245611632996
 30
0.0
 40
0.0235720894556055
 50
172.7757085609133014
 51
187.8954874261137888
  0
ARC
  5
D061
  8
0
 10
3513.3804559857057939
 20
170.3782720299107893
 30
0.0
 40
0.0009689832869722
 50
119.2780055664102008
 51
173.0760830740711924
  0
ARC
  5
D062
  8
0
 10
3513.5975693924488041
 20
170.2217385959075102
 30
0.0
 40
0.1234434085578051
 50
175.1170838564769099
 51
200.6390846838461925
  0
ARC
  5
D063
  8
0
 10
3513.5032545550429859
 20
170.2266932561313126
 30
0.0
 40
0.0292131544822578
 50
105.9685467564193999
 51
169.0425740289798
  0
ARC
  5
D064
  8
0
 10
3512.8578292848887941
 20
172.6099188991923938
 30
0.0
 40
2.4398662355311651
 50
285.1435636712913038
 51
285.6367821924744135
  0
ARC
  5
D065
  8
0
 10
3513.5086234818509183
 20
170.2847998969338903
 30
0.0
 40
0.0253866929665614
 50
285.6367821924749251
 51
337.216859742935128
  0
ARC
  5
D066
  8
0
 10
3513.5762521569249657
 20
170.281550338895812
 30
0.0
 40
0.0447097617168903
 50
166.3199965376751095
 51
188.464719545730901
  0
ARC
  5
D067
  8
0
 10
3513.5352464737097762
 20
170.2915638037449924
 30
0.0
 40
0.0024993639841591
 50
37.6791564492817486
 51
167.0442972922872116
  0
ARC
  5
D068
  8
0
 10
3513.1583573063371659
 20
170.0894590220445934
 30
0.0
 40
0.430123942981652
 50
4.1341546894254186
 51
28.2570121605458091
  0
ARC
  5
D069
  8
0
 10
3513.5692516945018724
 20
170.1199891299474984
 30
0.0
 40
0.0181166833995621
 50
336.2139154576295823
 51
1.5131469274549989
  0
ARC
  5
D06A
  8
0
 10
3513.5838081554070413
 20
170.1136939455113861
 30
0.0
 40
0.0022603919106716
 50
228.6750092427394065
 51
333.4118809486764121
  0
ARC
  5
D06B
  8
0
 10
3513.6050684395231656
 20
170.1378727416046104
 30
0.0
 40
0.0344568802475791
 50
198.9728470048391955
 51
228.6750092427404866
  0
ARC
  5
D06C
  8
0
 10
3513.5574478621920207
 20
170.1067944834387902
 30
0.0
 40
0.0249221090223191
 50
52.8929979750112835
 51
104.6325738568484951
  0
ARC
  5
D06D
  8
0
 10
3513.0874200123880655
 20
171.7561485827974934
 30
0.0
 40
1.690104584499603
 50
285.2065257181251923
 51
285.9251099462348975
  0
ARC
  5
D06E
  8
0
 10
3513.5234023572052138
 20
170.1549393134914965
 30
0.0
 40
0.0306097847554729
 50
202.8871957984611072
 51
283.856072619570682
  0
ARC
  5
D06F
  8
0
 10
3513.6664753472869052
 20
170.2271047962493071
 30
0.0
 40
0.1907936444322249
 50
194.8435263190532112
 51
206.1443447419734127
  0
ARC
  5
D070
  8
0
 10
3511.7625095950288596
 20
171.6043968814537948
 30
0.0
 40
1.436158571835279
 50
5.6464149125805188
 51
10.4209451811357603
  0
ARC
  5
D071
  8
0
 10
3513.1645347666208181
 20
171.8622464800573937
 30
0.0
 40
0.0106197273004571
 50
10.4209451811373608
 51
29.0989985105888813
  0
ARC
  5
D072
  8
0
 10
3513.17347462052021
 20
171.8672221342353055
 30
0.0
 40
0.0003884946168669
 50
29.098998510035301
 51
91.0307817100354697
  0
ARC
  5
D073
  8
0
 10
3513.1736919007148572
 20
171.8671602249985142
 30
0.0
 40
0.0005030940345136
 50
116.4732265269850018
 51
166.5619754357190914
  0
ARC
  5
D074
  8
0
 10
3513.2142413551241589
 20
171.8611253516006059
 30
0.0
 40
0.0414972955237386
 50
171.4747330658352098
 51
182.9469421491612025
  0
ARC
  5
D075
  8
0
 10
3513.1468259173448132
 20
171.8638954359024922
 30
0.0
 40
0.0264318394786758
 50
309.9113296324978251
 51
349.3088271216512908
  0
ARC
  5
D076
  8
0
 10
3513.0907052005482001
 20
171.9933250203501132
 30
0.0
 40
0.1665888189650194
 50
281.8025852570672214
 51
296.0197808437608273
  0
ARC
  5
D077
  8
0
 10
3510.6961857969058656
 20
171.5874159098424911
 30
0.0
 40
2.4808638333915778
 50
5.9276544881031681
 51
7.34539911162324
  0
ARC
  5
D078
  8
0
 10
3513.1541426182748182
 20
171.9042671991560951
 30
0.0
 40
0.0025687591014967
 50
7.3453991116716928
 51
21.5319975959640608
  0
ARC
  5
D079
  8
0
 10
3513.1564898485330559
 20
171.9051993067157014
 30
0.0
 40
0.00004359087164
 50
14.1826875366164202
 51
88.1815202995988443
  0
ARC
  5
D07A
  8
0
 10
3513.1262708061099147
 20
171.9029339424189118
 30
0.0
 40
0.0303085021406889
 50
349.2860797586379817
 51
4.3690850774672851
  0
ARC
  5
D07B
  8
0
 10
3513.1290338673920814
 20
171.9027101523807062
 30
0.0
 40
0.0275535699167542
 50
285.4331882979491866
 51
348.6751746980220901
  0
ARC
  5
D07C
  8
0
 10
3513.490397466856848
 20
170.5585443001922101
 30
0.0
 40
1.364339839021546
 50
105.0397439875079044
 51
106.3221046802431005
  0
ARC
  5
D07D
  8
0
 10
3513.1139744889010217
 20
171.8414350885267936
 30
0.0
 40
0.0273739657556412
 50
104.8311923483848034
 51
184.9911294977738976
  0
ARC
  5
D07E
  8
0
 10
3515.6337988669588412
 20
172.0680050432196992
 30
0.0
 40
2.5573637662967919
 50
185.1363609151547109
 51
186.9547963355657032
  0
ARC
  5
D07F
  8
0
 10
3513.1226556064420947
 20
171.7626937060890953
 30
0.0
 40
0.0277465454391328
 50
189.0202659505930001
 51
244.3763439169285903
  0
ARC
  5
D080
  8
0
 10
3513.144040013321046
 20
171.7316270086045904
 30
0.0
 40
0.0339272116989424
 50
169.7297758921160096
 51
271.7765992280440059
  0
ARC
  5
D081
  8
0
 10
3510.9267587359840945
 20
171.0782962152684945
 30
0.0
 40
2.3220468314511731
 50
7.1811847184997468
 51
11.0255880079591702
  0
ARC
  5
D082
  8
0
 10
3513.1849654065608775
 20
171.518293825714693
 30
0.0
 40
0.0213740463211003
 50
11.0255880079639592
 51
22.2236653789228207
  0
ARC
  5
D083
  8
0
 10
3513.2033018763149812
 20
171.5257856368905038
 30
0.0
 40
0.0015661348276523
 50
22.2236653790284606
 51
39.6991971770614214
  0
ARC
  5
D084
  8
0
 10
3513.2043765887488007
 20
171.526677854906211
 30
0.0
 40
0.0001693314041118
 50
39.6991971776669104
 51
97.6122487244912662
  0
ARC
  5
D085
  8
0
 10
3513.2044589577021725
 20
171.5266189834007946
 30
0.0
 40
0.0002497613860452
 50
114.8093658660739038
 51
169.2679180374437919
  0
ARC
  5
D086
  8
0
 10
3513.2408767505539799
 20
171.5238121670865894
 30
0.0
 40
0.0367740485493734
 50
175.5499045774018043
 51
185.9514180504137926
  0
ARC
  5
D087
  8
0
 10
3513.1785842143531227
 20
171.5222327522280921
 30
0.0
 40
0.0258135020059508
 50
332.2514091719951921
 51
355.0362874515146245
  0
ARC
  5
D088
  8
0
 10
3513.1770825983458053
 20
171.5228828575943965
 30
0.0
 40
0.0274453943650334
 50
285.4513134257339857
 51
332.5098560732440092
  0
ARC
  5
D089
  8
0
 10
3513.0470984098228655
 20
171.9845569037285031
 30
0.0
 40
0.5070687163368309
 50
284.8785754215708153
 51
285.7097603270015043
  0
ARC
  5
D08A
  8
0
 10
3513.4449409330850358
 20
170.4871015980970981
 30
0.0
 40
1.0423347384416051
 50
104.878575421570801
 51
105.9872926311790025
  0
ARC
  5
D08B
  8
0
 10
3513.1656798167509805
 20
171.4618166857464132
 30
0.0
 40
0.0284036396054243
 50
105.9872926311790025
 51
189.9238323165357087
  0
ARC
  5
D08C
  8
0
 10
3513.7711254630908115
 20
171.5198434788958934
 30
0.0
 40
0.6365418336077271
 50
185.6729235737510066
 51
193.3534879736604069
  0
ARC
  5
D08D
  8
0
 10
3513.1772023655048542
 20
171.3838284691229035
 30
0.0
 40
0.0276876517811002
 50
203.4077010477477927
 51
285.3280872847192882
  0
ARC
  5
D08E
  8
0
 10
3495.4436098267601665
 20
235.8104371817505012
 30
0.0
 40
66.8503500680694742
 50
285.3896810227727769
 51
285.4020189340113802
  0
ARC
  5
D08F
  8
0
 10
3513.2056896255840002
 20
171.3341405351897038
 30
0.0
 40
0.0277803516974532
 50
81.8017476810667858
 51
105.2120839621204027
  0
ARC
  5
D090
  8
0
 10
3513.1321998420471573
 20
171.4356682131918035
 30
0.0
 40
0.0093309764410935
 50
10.4215302636081102
 51
23.6584244379473603
  0
ARC
  5
D091
  8
0
 10
3512.6223594312828027
 20
171.3362392553171958
 30
0.0
 40
0.528775695087245
 50
6.2906325081079064
 51
11.0244694433605392
  0
ARC
  5
D092
  8
0
 10
3513.1440498332781317
 20
171.3932908690474051
 30
0.0
 40
0.004001097138138
 50
347.5703489681403084
 51
12.8125663716656693
  0
ARC
  5
D093
  8
0
 10
3513.1479355101077999
 20
171.3924344392733019
 30
0.0
 40
0.0000221580348548
 50
267.7756702812391723
 51
347.5703489724808151
  0
ARC
  5
D094
  8
0
 10
3513.5401402949150906
 20
171.4772851453780049
 30
0.0
 40
0.4012837749670851
 50
185.4621969176027108
 51
192.2104647238109862
  0
ARC
  5
D095
  8
0
 10
3513.1413291966919132
 20
171.4391211887661086
 30
0.0
 40
0.0006514146533842
 50
153.428322777294909
 51
182.9775058378816084
  0
ARC
  5
D096
  8
0
 10
3519.5318183071622116
 20
172.4228058801323868
 30
0.0
 40
6.3958307224915147
 50
187.3422996332760135
 51
188.2032690962261938
  0
ARC
  5
D097
  8
0
 10
3513.1664837254029408
 20
171.5608802891158007
 30
0.0
 40
0.0276079584973717
 50
285.4413533122976219
 51
5.6976586478122462
  0
ARC
  5
D098
  8
0
 10
3513.0579580159719626
 20
171.9024108544871865
 30
0.0
 40
0.3859479857690182
 50
283.3195685895065026
 51
287.4719186014146999
  0
ARC
  5
D099
  8
0
 10
3513.1542758933028381
 20
171.5002881705736115
 30
0.0
 40
0.0275689735961647
 50
105.5752446093284931
 51
188.051060953477986
  0
ARC
  5
D09A
  8
0
 10
3520.1986706403599783
 20
172.4967159260972096
 30
0.0
 40
7.1420869210288824
 50
188.051060953477986
 51
188.7089528481108118
  0
ARC
  5
D09B
  8
0
 10
3513.1599899421648843
 20
171.4185208054628049
 30
0.0
 40
0.0213053144008507
 50
188.708952848125989
 51
226.7813595276221008
  0
ARC
  5
D09C
  8
0
 10
3513.21702548844587
 20
171.3897721704433081
 30
0.0
 40
0.0251698337555767
 50
284.6556657094282059
 51
331.0644946094614056
  0
ARC
  5
D09D
  8
0
 10
3513.4807376616859074
 20
170.3813828838098914
 30
0.0
 40
1.0171319765238129
 50
104.6556657094281064
 51
106.136036990969302
  0
ARC
  5
D09E
  8
0
 10
3513.2069746175620821
 20
171.3298950219059975
 30
0.0
 40
0.0299096506551613
 50
107.345693924042493
 51
190.0503993337646023
  0
ARC
  5
D09F
  8
0
 10
3513.5694739413111165
 20
171.3572227524770142
 30
0.0
 40
0.3932990402896995
 50
184.7469310912350977
 51
196.923945667311699
  0
ARC
  5
D0A0
  8
0
 10
3513.2188065539621675
 20
171.2538532526689039
 30
0.0
 40
0.0279098630250433
 50
203.4812538871248933
 51
285.7667088547684102
  0
ARC
  5
D0A1
  8
0
 10
3513.3414829495568483
 20
170.8133068037878957
 30
0.0
 40
0.4293984001112454
 50
102.9823068304661007
 51
105.5472184440689034
  0
ARC
  5
D0A2
  8
0
 10
3513.2488101041608388
 20
171.2068109225697015
 30
0.0
 40
0.0252054452250034
 50
11.4226836329808101
 51
98.6516539830210348
  0
ARC
  5
D0A3
  8
0
 10
3513.2797008665711473
 20
171.2141005477706983
 30
0.0
 40
0.0065976316895782
 50
200.3819545916566938
 51
224.0245729677187967
  0
ARC
  5
D0A4
  8
0
 10
3513.2754051153801811
 20
171.2099486271326896
 30
0.0
 40
0.0006233599116586
 50
224.0245729677452005
 51
346.58068007693862
  0
ARC
  5
D0A5
  8
0
 10
3512.8254569323348733
 20
171.2048623558403904
 30
0.0
 40
0.4505816223027325
 50
0.6283850529706015
 51
10.9205979221815301
  0
ARC
  5
D0A6
  8
0
 10
3513.2041784644288782
 20
171.3230407300744105
 30
0.0
 40
0.0264422336489207
 50
171.3892001486038907
 51
188.3744791899445943
  0
ARC
  5
D0A7
  8
0
 10
3513.1783972430512222
 20
171.326944744093197
 30
0.0
 40
0.0003670979596974
 50
111.7695663691074941
 51
171.3892001492426118
  0
ARC
  5
D0A8
  8
0
 10
3513.1782085071349684
 20
171.3267477669027983
 30
0.0
 40
0.0005404594214066
 50
24.0587759277692612
 51
84.4160835516701837
  0
ARC
  5
D0A9
  8
0
 10
3512.8164521852600046
 20
171.2224965485090991
 30
0.0
 40
0.3770135862731479
 50
4.4000546466586092
 51
16.0873711836851498
  0
ARC
  5
D0AA
  8
0
 10
3513.1847877729519496
 20
171.2509497733925059
 30
0.0
 40
0.0075814786820818
 50
343.5802529387593154
 51
3.5636884917491409
  0
ARC
  5
D0AB
  8
0
 10
3513.1917829468729906
 20
171.2489326725290084
 30
0.0
 40
0.0003043956635355
 50
290.3775124268132117
 51
335.5536512366234092
  0
ARC
  5
D0AC
  8
0
 10
3513.1918156737228855
 20
171.2488445668543022
 30
0.0
 40
0.0002104081292172
 50
215.7304694147019006
 51
290.3775124273685719
  0
ARC
  5
D0AD
  8
0
 10
3513.1928706983080701
 20
171.2499954097222883
 30
0.0
 40
0.0017677686878877
 50
208.0620724109205071
 51
226.0975619031335953
  0
ARC
  5
D0AE
  8
0
 10
3520.6168548619020839
 20
172.585668147264613
 30
0.0
 40
7.4925452514573871
 50
184.3945237896411982
 51
185.2727428409691868
  0
ARC
  5
D0AF
  8
0
 10
3519.7827832624520852
 20
172.3497284782582142
 30
0.0
 40
6.6326746519090012
 50
189.7048425239779021
 51
191.1819730984695127
  0
ARC
  5
D0B0
  8
0
 10
3513.1326807653790638
 20
171.8028091023178945
 30
0.0
 40
0.0285637118784105
 50
106.0589395570453064
 51
185.3834139700093999
  0
ARC
  5
D0B1
  8
0
 10
3513.7779961871551677
 20
171.8377611479992026
 30
0.0
 40
0.6748032739015024
 50
183.1968843135140048
 51
188.5294437304515895
  0
ARC
  5
D0B2
  8
0
 10
3513.1764427340558541
 20
171.7413303125005939
 30
0.0
 40
0.0658877661901711
 50
183.1794781239914869
 51
210.1618539774636076
  0
ARC
  5
D0B3
  8
0
 10
3513.1125240017490796
 20
171.7337055585011001
 30
0.0
 40
0.0000981943960266
 50
287.5387527568793189
 51
341.1054634139896962
  0
ARC
  5
D0B4
  8
0
 10
3512.8088296264809287
 20
171.7222047027219105
 30
0.0
 40
0.3040037004931857
 50
2.1620940336198902
 51
11.0399696647927605
  0
ARC
  5
D0B5
  8
0
 10
3513.105862267863813
 20
171.7800021409954923
 30
0.0
 40
0.0014083795611787
 50
17.2381776560512812
 51
33.712095417289099
  0
ARC
  5
D0B6
  8
0
 10
3513.1069557360387989
 20
171.7807317271702914
 30
0.0
 40
0.0000938573527895
 50
33.7120954212039905
 51
94.3965629302758771
  0
ARC
  5
D0B7
  8
0
 10
3513.1069523662531537
 20
171.7807755558137046
 30
0.0
 40
0.0000498993565021
 50
94.3965629261993939
 51
174.4278247904813099
  0
ARC
  5
D0B8
  8
0
 10
3513.1781145342010859
 20
171.7783511348295065
 30
0.0
 40
0.0712532545342415
 50
178.0462130575741924
 51
186.4647816132620903
  0
ARC
  5
D0B9
  8
0
 10
3513.459242329457993
 20
171.7995140305453958
 30
0.0
 40
0.3531360740791287
 50
184.7407053944770894
 51
190.602985415528309
  0
ARC
  5
D0BA
  8
0
 10
3513.1152780508828073
 20
171.7352478786887104
 30
0.0
 40
0.0032218762519351
 50
192.7633520601185069
 51
209.7984440472382914
  0
ARC
  5
D0BB
  8
0
 10
3513.1125525226179889
 20
171.7337003593943052
 30
0.0
 40
0.0000884370345966
 50
217.3012751731243952
 51
270.693297014554787
  0
ARC
  5
D0BC
  8
0
 10
3513.2206890387551539
 20
171.1427909899418864
 30
0.0
 40
0.0395054572846328
 50
285.4932111961194892
 51
8.8141730937680371
  0
ARC
  5
D0BD
  8
0
 10
3512.1705324437789386
 20
174.9312763986029893
 30
0.0
 40
3.9708475392725742
 50
285.2960023290893901
 51
285.4932111961194892
  0
ARC
  5
D0BE
  8
0
 10
3513.2253392936709133
 20
171.0744946914529123
 30
0.0
 40
0.0275749780692252
 50
105.2960023291145006
 51
194.5302674248775077
  0
ARC
  5
D0BF
  8
0
 10
3526.2605839683837985
 20
173.55829664259781
 30
0.0
 40
13.2972893209614291
 50
190.7958623159127001
 51
191.6745482091131976
  0
ARC
  5
D0C0
  8
0
 10
3513.265336037869929
 20
170.8731765104911062
 30
0.0
 40
0.0275365767144909
 50
191.7695137813693975
 51
234.7595026721461977
  0
ARC
  5
D0C1
  8
0
 10
3513.3236144103279912
 20
171.1008701549974944
 30
0.0
 40
0.0024872369133277
 50
116.3087036914132995
 51
167.9092768003135063
  0
ARC
  5
D0C2
  8
0
 10
3513.3733924520051914
 20
171.0913146894218073
 30
0.0
 40
0.0531735810782196
 50
169.0763397711735081
 51
184.5366729968945947
  0
ARC
  5
D0C3
  8
0
 10
3513.2962768160818996
 20
171.0959643736619
 30
0.0
 40
0.0256836161185391
 50
285.0634239597583814
 51
339.8307612793756789
  0
ARC
  5
D0C4
  8
0
 10
3513.5272461875720182
 20
170.233722686699906
 30
0.0
 40
0.8669572067180826
 50
104.9930741265015968
 51
106.8446108018047056
  0
ARC
  5
D0C5
  8
0
 10
3513.2881373199438713
 20
171.0363773599073909
 30
0.0
 40
0.0296894944482978
 50
114.0838031216354977
 51
157.0297197679896044
  0
ARC
  5
D0C6
  8
0
 10
3513.6533449446751547
 20
171.0735262621240054
 30
0.0
 40
0.3974579074765682
 50
186.5110236534293051
 51
196.9441745177674932
  0
ARC
  5
D0C7
  8
0
 10
3513.3028075807378627
 20
170.9609654270678902
 30
0.0
 40
0.0281333164611862
 50
227.3922876262595878
 51
285.4214473231259035
  0
ARC
  5
D0C8
  8
0
 10
3513.3012322449640124
 20
171.033195126206806
 30
0.0
 40
0.0430432295490054
 50
159.9333877225708989
 51
186.3201361143368899
  0
ARC
  5
D0C9
  8
0
 10
3513.3346395999919878
 20
170.906827958334901
 30
0.0
 40
0.0325272656496501
 50
55.8710894845738935
 51
103.6621309095699957
  0
LINE
  5
D0CA
  8
0
 10
3513.3102887074360297
 20
170.9338450244449916
 30
0.0
 11
3513.3269567913080209
 21
170.9384348794339132
 31
0.0
  0
ARC
  5
D0CB
  8
0
 10
3513.2633507582118
 20
171.0147778022002001
 30
0.0
 40
0.0003550258867186
 50
38.4320625453591234
 51
133.6349382397542058
  0
ARC
  5
D0CC
  8
0
 10
3513.2661564150098457
 20
171.0134177093158883
 30
0.0
 40
0.0034527195066486
 50
152.0734668371441956
 51
181.1316560435159886
  0
ARC
  5
D0CD
  8
0
 10
3513.4178796775631781
 20
171.0228614401968912
 30
0.0
 40
0.1554665657158921
 50
183.5077223769471004
 51
199.6151740428543917
  0
ARC
  5
D0CE
  8
0
 10
3513.2785785287242106
 20
170.9737848219405976
 30
0.0
 40
0.0077925688398565
 50
203.5512542210925915
 51
214.1441204463795884
  0
ARC
  5
D0CF
  8
0
 10
3513.2734110820770184
 20
170.97016324290081
 30
0.0
 40
0.001486301972758
 50
210.4039124986746003
 51
239.9032473772240053
  0
ARC
  5
D0D0
  8
0
 10
3513.2728150354078025
 20
170.9691348741106935
 30
0.0
 40
0.0002976834469864
 50
239.9032473771931961
 51
332.4225890598851265
  0
ARC
  5
D0D1
  8
0
 10
3513.2605987922061104
 20
170.972254360261303
 30
0.0
 40
0.012898179186518
 50
345.3721715687306073
 51
7.4261216097423368
  0
ARC
  5
D0D2
  8
0
 10
3513.097584806955183
 20
170.9565207303380987
 30
0.0
 40
0.1766630210444791
 50
5.65259902634235
 51
17.9466295943911796
  0
ARC
  5
D0D3
  8
0
 10
3513.2526696013110268
 20
171.006985812151612
 30
0.0
 40
0.0135760213644476
 50
17.0045024364996102
 51
36.1717324446502033
  0
ARC
  5
D0D4
  8
0
 10
3513.3147683049110128
 20
170.9711022661921049
 30
0.0
 40
0.0437342860989939
 50
197.85737536871099
 51
224.8488626876531953
  0
ARC
  5
D0D5
  8
0
 10
3513.3228477341340295
 20
171.1018589084681025
 30
0.0
 40
0.0012854613963177
 50
54.50323488434843
 51
105.1402808391172954
  0
ARC
  5
D0D6
  8
0
 10
3513.2290871077798329
 20
171.0433757653021019
 30
0.0
 40
0.1116931754153956
 50
13.5262349159665494
 51
32.2067025585801332
  0
ARC
  5
D0D7
  8
0
 10
3512.5866622177941281
 20
170.8521423975080893
 30
0.0
 40
0.7818409639795704
 50
8.0857520528819755
 51
16.1412988853293591
  0
ARC
  5
D0D8
  8
0
 10
3513.2673831666838851
 20
170.9543871471798866
 30
0.0
 40
0.0389020002339901
 50
285.3873124108429806
 51
326.6240165996986207
  0
ARC
  5
D0D9
  8
0
 10
3510.3273191339671939
 20
181.6374618319881051
 30
0.0
 40
11.1191574683027703
 50
285.3239710631746107
 51
285.3873124108429806
  0
ARC
  5
D0DA
  8
0
 10
3513.2758410536121119
 20
170.8837996248290096
 30
0.0
 40
0.0314531993034926
 50
108.516995496325805
 51
197.885621717452608
  0
ARC
  5
D0DB
  8
0
 10
3514.5649931054690569
 20
171.0713680774699981
 30
0.0
 40
1.3337483540554229
 50
188.5038106831154039
 51
197.2805836000553086
  0
ARC
  5
D0DC
  8
0
 10
3513.3169647455220002
 20
170.6876378855270104
 30
0.0
 40
0.0283969517455586
 50
206.0294031197603033
 51
284.8790259389533048
  0
ARC
  5
D0DD
  8
0
 10
3513.3395334453389296
 20
170.617346905018195
 30
0.0
 40
0.0454882416624282
 50
47.1822209848998781
 51
109.6238765332345935
  0
ARC
  5
D0DE
  8
0
 10
3513.2841690810978434
 20
170.7079081559593021
 30
0.0
 40
0.000706943208563
 50
206.4685404788320966
 51
257.6769629792023011
  0
ARC
  5
D0DF
  8
0
 10
3514.1891890294677978
 20
170.9832833339210083
 30
0.0
 40
0.9466847933728388
 50
188.1437594927473924
 51
196.9308023510371868
  0
ARC
  5
D0E0
  8
0
 10
3513.2212458365761449
 20
170.8499281232161877
 30
0.0
 40
0.0308141192921849
 50
358.6060213649574848
 51
2.2000166489958279
  0
ARC
  5
D0E1
  8
0
 10
3513.2540113908580679
 20
170.8510942220273989
 30
0.0
 40
0.0019742193688104
 50
152.6894631134184976
 51
179.512521441085795
  0
ARC
  5
D0E2
  8
0
 10
3513.2523972837120709
 20
170.8518838968300884
 30
0.0
 40
0.0001819311265993
 50
50.418483036819211
 51
140.3364634742895021
  0
ARC
  5
D0E3
  8
0
 10
3513.2482608759901268
 20
170.8483209681492951
 30
0.0
 40
0.0056387588920412
 50
19.3477039445160806
 51
41.0510161680559733
  0
ARC
  5
D0E4
  8
0
 10
3512.2962231956721553
 20
170.5678307664971953
 30
0.0
 40
0.9981285232248966
 50
8.1122892233195056
 51
16.4326299711949417
  0
ARC
  5
D0E5
  8
0
 10
3513.2821230391491554
 20
170.7084375546577917
 30
0.0
 40
0.0022539248844686
 50
327.2276910871266864
 51
6.181460223691035
  0
ARC
  5
D0E6
  8
0
 10
3510.438005158408032
 20
170.1609864308933879
 30
0.0
 40
2.9803929896161501
 50
9.6436343923814878
 51
15.0608155740587399
  0
LINE
  5
D0E7
  8
0
 10
3513.3872027893157792
 20
170.5546218085079033
 30
0.0
 11
3513.3982078458079741
 21
170.506106514034002
 31
0.0
  0
ARC
  5
D0E8
  8
0
 10
3513.3589450830831993
 20
170.5158584180622086
 30
0.0
 40
0.0404557062592448
 50
287.3126293117758792
 51
346.0513977409137283
  0
ARC
  5
D0E9
  8
0
 10
3513.4208676010239287
 20
170.2457739105389862
 30
0.0
 40
0.2367759547000382
 50
102.1620899880870041
 51
106.4721349054865982
  0
ARC
  5
D0EA
  8
0
 10
3513.3593224317401109
 20
170.4532878951582973
 30
0.0
 40
0.020328526526427
 50
105.9680864190190022
 51
191.6474323969918885
  0
ARC
  5
D0EB
  8
0
 10
3513.3880868959049621
 20
170.3401210649331858
 30
0.0
 40
0.0204646088645833
 50
198.2443038610875021
 51
270.9907081579804071
  0
ARC
  5
D0EC
  8
0
 10
3513.3438778308777728
 20
170.4331754263756977
 30
0.0
 40
0.0002089392879692
 50
126.072006356184005
 51
181.5613402173698887
  0
ARC
  5
D0ED
  8
0
 10
3513.3437862520140698
 20
170.4333011413201007
 30
0.0
 40
0.0000534049326761
 50
17.0256964006978393
 51
126.0720063594969957
  0
ARC
  5
D0EE
  8
0
 10
3513.2209465555069983
 20
170.3840675401681892
 30
0.0
 40
0.1323919429950872
 50
14.5144255386737004
 51
21.8387521904945103
  0
ARC
  5
D0EF
  8
0
 10
3513.9697365651281871
 20
170.5356217179169107
 30
0.0
 40
0.6340902522882752
 50
192.7742612941169114
 51
198.5674455740139877
  0
ARC
  5
D0F0
  8
0
 10
3513.6410287583839818
 20
170.4878929757826995
 30
0.0
 40
0.3040900647538721
 50
187.3133156585097936
 51
197.7043082201537061
  0
ARC
  5
D0F1
  8
0
 10
3513.3654392723419733
 20
170.3500544808989048
 30
0.0
 40
0.0008508460430923
 50
199.8010681651022935
 51
238.320046254031098
  0
ARC
  5
D0F2
  8
0
 10
3513.8092953515351837
 20
170.4977984542435081
 30
0.0
 40
0.4686502333608495
 50
193.6756561727885924
 51
198.4132981539812874
  0
ARC
  5
D0F3
  8
0
 10
3513.8630102858519422
 20
170.5243757991372888
 30
0.0
 40
0.527289246668177
 50
189.9606394444734008
 51
195.1019027551998875
  0
ARC
  5
D0F4
  8
0
 10
3512.9771802112049954
 20
170.2932422811450124
 30
0.0
 40
0.3920606553683126
 50
8.350034612869754
 51
18.43885530145808
  0
ARC
  5
D0F5
  8
0
 10
3513.3629095822020645
 20
170.3498581689019034
 30
0.0
 40
0.0021984920380638
 50
349.9516952231099935
 51
8.3500346128681446
  0
ARC
  5
D0F6
  8
0
 10
3513.3648305026040362
 20
170.3495177887224088
 30
0.0
 40
0.0002476476429379
 50
310.8334733887248262
 51
349.9516952238768113
  0
ARC
  5
D0F7
  8
0
 10
3513.4729133303021626
 20
170.1976013710462894
 30
0.0
 40
0.01075543050319
 50
23.3003482650861287
 51
45.563527356705869
  0
ARC
  5
D0F8
  8
0
 10
3513.3631641434558333
 20
170.1493619999201883
 30
0.0
 40
0.1306381030413646
 50
5.909541718630881
 51
23.6923357176937195
  0
ARC
  5
D0F9
  8
0
 10
3513.4857698508290014
 20
170.1624128982701905
 30
0.0
 40
0.0073490028790426
 50
343.1597326781670745
 51
3.1151365094135901
  0
ARC
  5
D0FA
  8
0
 10
3513.4921649803131913
 20
170.1604657656797883
 30
0.0
 40
0.0006641181824778
 50
278.4026916337580815
 51
344.1030934642668058
  0
ARC
  5
D0FB
  8
0
 10
3513.4923886416581809
 20
170.1608990132866097
 30
0.0
 40
0.001097564298683
 50
223.4493097866510141
 51
263.3756592498288001
  0
ARC
  5
D0FC
  8
0
 10
3513.5927557117997821
 20
170.2126709843882111
 30
0.0
 40
0.1139876917788669
 50
184.9147663006841924
 51
207.4394508913850075
  0
ARC
  5
D0FD
  8
0
 10
3513.4833175501721598
 20
170.2032804335873095
 30
0.0
 40
0.0041474317260549
 50
152.0204596753528961
 51
185.1903446042036023
  0
ARC
  5
D0FE
  8
0
 10
3513.4800758071460223
 20
170.2048700972407005
 30
0.0
 40
0.0005513614805072
 50
48.1869799117795807
 51
139.766070193815608
  0
ARC
  5
D0FF
  8
0
 10
3513.7283444652539401
 20
170.2543024763245114
 30
0.0
 40
0.1234434085578051
 50
175.1170838564769099
 51
200.6390846838461925
  0
ARC
  5
D100
  8
0
 10
3513.6340296278481219
 20
170.2592571365482002
 30
0.0
 40
0.0292131544822578
 50
105.9685467564193999
 51
169.0425740289798
  0
ARC
  5
D101
  8
0
 10
3512.9886043576939301
 20
172.6424827796093098
 30
0.0
 40
2.4398662355311651
 50
285.1435636712913038
 51
285.6367821924744135
  0
ARC
  5
D102
  8
0
 10
3513.6393985546551448
 20
170.3173637773508062
 30
0.0
 40
0.0253866929665614
 50
285.6367821924749251
 51
337.216859742935128
  0
ARC
  5
D103
  8
0
 10
3513.7070272297301017
 20
170.3141142193126996
 30
0.0
 40
0.0447097617168903
 50
166.3199965376751095
 51
188.464719545730901
  0
ARC
  5
D104
  8
0
 10
3513.6660215465149122
 20
170.3241276841619083
 30
0.0
 40
0.0024993639841591
 50
37.6791564492817486
 51
167.0442972922872116
  0
ARC
  5
D105
  8
0
 10
3513.2891323791409377
 20
170.1220229024615094
 30
0.0
 40
0.430123942981652
 50
4.1341546894254186
 51
28.2570121605458091
  0
ARC
  5
D106
  8
0
 10
3513.7000267673070084
 20
170.1525530103644996
 30
0.0
 40
0.0181166833995621
 50
336.2139154576295823
 51
1.5131469274549989
  0
ARC
  5
D107
  8
0
 10
3513.7145832282121773
 20
170.1462578259283021
 30
0.0
 40
0.0022603919106716
 50
228.6750092427394065
 51
333.4118809486764121
  0
ARC
  5
D108
  8
0
 10
3513.7358435123278468
 20
170.1704366220216116
 30
0.0
 40
0.0344568802475791
 50
198.9728470048391955
 51
228.6750092427404866
  0
ARC
  5
D109
  8
0
 10
3513.6882229349971567
 20
170.1393583638557061
 30
0.0
 40
0.0249221090223191
 50
52.8929979750112835
 51
104.6325738568484951
  0
ARC
  5
D10A
  8
0
 10
3513.2181950851932015
 20
171.7887124632144946
 30
0.0
 40
1.690104584499603
 50
285.2065257181251923
 51
285.9251099462348975
  0
ARC
  5
D10B
  8
0
 10
3513.6541774300089855
 20
170.1875031939084124
 30
0.0
 40
0.0306097847554729
 50
202.8871957984611072
 51
283.856072619570682
  0
ARC
  5
D10C
  8
0
 10
3513.7972504200920412
 20
170.2596686766661946
 30
0.0
 40
0.1907936444322249
 50
194.8435263190532112
 51
206.1443447419734127
  0
ARC
  5
D10D
  8
0
 10
3513.6036884031068439
 20
170.2301652514632906
 30
0.0
 40
0.01075543050319
 50
23.3003482650861287
 51
45.563527356705869
  0
ARC
  5
D10E
  8
0
 10
3513.4939392162609693
 20
170.1819258803371042
 30
0.0
 40
0.1306381030413646
 50
5.909541718630881
 51
23.6923357176937195
  0
ARC
  5
D10F
  8
0
 10
3513.6165449236327731
 20
170.1949767786871917
 30
0.0
 40
0.0073490028790426
 50
343.1597326781670745
 51
3.1151365094135901
  0
ARC
  5
D110
  8
0
 10
3513.6229400531178726
 20
170.1930296460967895
 30
0.0
 40
0.0006641181824778
 50
278.4026916337580815
 51
344.1030934642668058
  0
ARC
  5
D111
  8
0
 10
3513.6231637144628621
 20
170.1934628937036109
 30
0.0
 40
0.001097564298683
 50
223.4493097866510141
 51
263.3756592498288001
  0
ARC
  5
D112
  8
0
 10
3513.7235307846049182
 20
170.2452348648052123
 30
0.0
 40
0.1139876917788669
 50
184.9147663006841924
 51
207.4394508913850075
  0
ARC
  5
D113
  8
0
 10
3513.6140926229759316
 20
170.235844314004197
 30
0.0
 40
0.0041474317260549
 50
152.0204596753528961
 51
185.1903446042036023
  0
ARC
  5
D114
  8
0
 10
3513.610850879949794
 20
170.237433977657588
 30
0.0
 40
0.0005513614805072
 50
48.1869799117795807
 51
139.766070193815608
  0
ARC
  5
D115
  8
0
 10
3514.3667806248868146
 20
168.8684672413803867
 30
0.0
 40
0.3418648890745564
 50
197.2440608228789074
 51
205.4129834920331916
  0
ARC
  5
D116
  8
0
 10
3514.0774555973971474
 20
168.7786623138482867
 30
0.0
 40
0.0389228211123506
 50
161.4052377748319884
 51
197.244060822883597
  0
ARC
  5
D117
  8
0
 10
3514.0639999137670202
 20
168.7831892823481041
 30
0.0
 40
0.0247260304270489
 50
101.6631676867917946
 51
161.4052377748334948
  0
ARC
  5
D118
  8
0
 10
3514.0391545339898585
 20
168.9035526849955033
 30
0.0
 40
0.0981749117706585
 50
281.6631676868174168
 51
289.0196325098503962
  0
ARC
  5
D119
  8
0
 10
3514.0642590713650861
 20
168.8363098630086085
 30
0.0
 40
0.0264843246390574
 50
285.0789529621490033
 51
353.1629153061185207
  0
ARC
  5
D11A
  8
0
 10
3514.1365270277178752
 20
168.8473805523802014
 30
0.0
 40
0.0481220502947821
 50
180.6513458161385017
 51
197.1918757933152904
  0
ARC
  5
D11B
  8
0
 10
3514.0901653712089683
 20
168.8468720454962977
 30
0.0
 40
0.0017577068570844
 50
113.7191690075877943
 51
181.256352647808086
  0
ARC
  5
D11C
  8
0
 10
3514.0892520325510304
 20
168.8452433300205939
 30
0.0
 40
0.0032445104092566
 50
43.6934209927855406
 51
86.3545358033964305
  0
ARC
  5
D11D
  8
0
 10
3513.7249012045531344
 20
168.6045249267762074
 30
0.0
 40
0.4398817271461448
 50
21.0421507916524995
 51
33.5269821836986921
  0
ARC
  5
D11E
  8
0
 10
3513.6185603062222071
 20
168.533078166899486
 30
0.0
 40
0.5655033723310164
 50
14.5614008753458695
 51
23.9309681151628588
  0
ARC
  5
D11F
  8
0
 10
3514.1613612543910676
 20
168.6745540909111014
 30
0.0
 40
0.0045916526952947
 50
338.464200762465623
 51
8.7872529728780204
  0
ARC
  5
D120
  8
0
 10
3514.1649803477598653
 20
168.6732082433420885
 30
0.0
 40
0.0007351798975183
 50
235.8178641134684881
 51
332.4824741081632169
  0
ARC
  5
D121
  8
0
 10
3514.1721331631520115
 20
168.6837403536715101
 30
0.0
 40
0.0134665630128536
 50
211.7649853610737125
 51
235.817864113465788
  0
ARC
  5
D122
  8
0
 10
3514.0537642970821253
 20
168.6104486559792122
 30
0.0
 40
0.1257557821955899
 50
31.7649853610737196
 51
35.2755530900386205
  0
ARC
  5
D123
  8
0
 10
3514.1395047753298968
 20
168.662817290099099
 30
0.0
 40
0.026396326288454
 50
50.1208607095295804
 51
104.7849240927226049
  0
ARC
  5
D124
  8
0
 10
3520.8282772229240436
 20
144.2004066119187939
 30
0.0
 40
25.3867819806424393
 50
105.2920937505565036
 51
105.3565246037888983
  0
ARC
  5
D125
  8
0
 10
3514.0981333009249283
 20
168.7103393850570114
 30
0.0
 40
0.0303861742914872
 50
205.0295919335898134
 51
283.5167930342421982
  0
ARC
  5
D126
  8
0
 10
3514.2929297276568832
 20
168.8283399483871108
 30
0.0
 40
0.2579798928242205
 50
204.4019286494882124
 51
210.479856725881092
  0
ARC
  5
D127
  8
0
 10
3514.0646150448428671
 20
168.7151695215081872
 30
0.0
 40
0.0005576776466367
 50
222.3575970495004128
 51
274.5114298390408862
  0
ARC
  5
D128
  8
0
 10
3514.1268496568609407
 20
168.7591613794637908
 30
0.0
 40
0.0767664895536442
 50
203.4151817591238967
 51
215.3068546746054892
  0
ARC
  5
D129
  8
0
 10
3514.2452408380991073
 20
168.8187478691197896
 30
0.0
 40
0.2092264593783408
 50
198.2785414311993009
 51
205.5056110789548995
  0
ARC
  5
D12A
  8
0
 10
3514.0691325314310234
 20
168.7605282314848125
 30
0.0
 40
0.023744272669884
 50
187.2961848679161108
 51
198.1627280666969
  0
ARC
  5
D12B
  8
0
 10
3514.0469398275490676
 20
168.7577064879284023
 30
0.0
 40
0.00137304705941
 50
155.2793457715264083
 51
188.1118396313721064
  0
ARC
  5
D12C
  8
0
 10
3514.0458870244688114
 20
168.7581437210722868
 30
0.0
 40
0.0002378174365517
 50
61.507389270254798
 51
144.8347829443657986
  0
ARC
  5
D12D
  8
0
 10
3514.0226785596091759
 20
168.737844531099114
 30
0.0
 40
0.0310563693161441
 50
24.4239504472340094
 51
41.3268885584182115
  0
ARC
  5
D12E
  8
0
 10
3513.8454940315791646
 20
168.6465471818530091
 30
0.0
 40
0.2303462047085162
 50
22.2257154102150309
 51
26.8782677997720789
  0
ARC
  5
D12F
  8
0
 10
3513.9312886143939068
 20
168.679312828373412
 30
0.0
 40
0.1385485074275824
 50
15.8841718005920907
 51
23.1029376166649989
  0
ARC
  5
D130
  8
0
 10
3514.0588148361839558
 20
168.7153403986631872
 30
0.0
 40
0.0060363403732802
 50
355.7559105246979243
 51
18.268946751288599
  0
ARC
  5
D131
  8
0
 10
3514.0644817695251731
 20
168.7149198605850131
 30
0.0
 40
0.0003538245770197
 50
300.0427946051993899
 51
355.7559105257201963
  0
ARC
  5
D132
  8
0
 10
3514.1965465111088633
 20
169.1693962087566092
 30
0.0
 40
0.3418648890745564
 50
192.3448803051711025
 51
200.5138029743243067
  0
ARC
  5
D133
  8
0
 10
3513.9006089466261074
 20
169.1046285125678992
 30
0.0
 40
0.0389228211123506
 50
156.5060572571252919
 51
192.344880305175792
  0
ARC
  5
D134
  8
0
 10
3513.8875890383069418
 20
169.110288093214308
 30
0.0
 40
0.0247260304270489
 50
96.7639871691010711
 51
156.5060572571267983
  0
ARC
  5
D135
  8
0
 10
3513.8731137869690428
 20
169.2323336121480111
 30
0.0
 40
0.0981749117706585
 50
276.7639871691010853
 51
284.1204519921341216
  0
ARC
  5
D136
  8
0
 10
3513.8923838886439626
 20
169.1631924660260893
 30
0.0
 40
0.0264843246390574
 50
280.1797724444436994
 51
348.2637347884133874
  0
ARC
  5
D137
  8
0
 10
3513.9653332817638329
 20
169.1680508322052106
 30
0.0
 40
0.0481220502947821
 50
175.7521652984314926
 51
192.2926952756039043
  0
ARC
  5
D138
  8
0
 10
3513.9190975788960714
 20
169.1715035925205086
 30
0.0
 40
0.0017577068570844
 50
108.8199884898822063
 51
176.3571721301011905
  0
ARC
  5
D139
  8
0
 10
3513.9180484804492153
 20
169.1699588290904046
 30
0.0
 40
0.0032445104092566
 50
38.7942404750783822
 51
81.4553552856816054
  0
ARC
  5
D13A
  8
0
 10
3513.5344708067091233
 20
168.9612364207775101
 30
0.0
 40
0.4398817271461448
 50
16.1429702739454193
 51
28.6278016659964614
  0
ARC
  5
D13B
  8
0
 10
3513.4224166787080321
 20
168.8991324873063888
 30
0.0
 40
0.5655033723310164
 50
9.6622203576437293
 51
19.0317875974614807
  0
ARC
  5
D13C
  8
0
 10
3513.9753169353029989
 20
168.993734879807306
 30
0.0
 40
0.0045916526952947
 50
333.5650202447666857
 51
3.8880724551740449
  0
ARC
  5
D13D
  8
0
 10
3513.9788078673977907
 20
168.9920848690219941
 30
0.0
 40
0.0007351798975183
 50
230.9186835957629
 51
327.5832935904485907
  0
ARC
  5
D13E
  8
0
 10
3513.9868340204779997
 20
169.0019676309213992
 30
0.0
 40
0.0134665630128536
 50
206.8658048433748036
 51
230.9186835957598021
  0
ARC
  5
D13F
  8
0
 10
3513.8626383060832268
 20
168.9390527206747095
 30
0.0
 40
0.1257557821955899
 50
26.8658048433748213
 51
30.3763725723418503
  0
ARC
  5
D140
  8
0
 10
3513.9525379543401868
 20
168.9839075609168049
 30
0.0
 40
0.026396326288454
 50
45.2216801918324691
 51
99.8857435749981875
  0
ARC
  5
D141
  8
0
 10
3518.527717837219825
 20
144.0396308208923131
 30
0.0
 40
25.3867819806424393
 50
100.3929132328541982
 51
100.457344086084305
  0
ARC
  5
D142
  8
0
 10
3513.9153761438051333
 20
169.0347892692348921
 30
0.0
 40
0.0303861742914872
 50
200.130411415883998
 51
278.6176125165251847
  0
ARC
  5
D143
  8
0
 10
3514.1195384487477895
 20
169.1357225841223908
 30
0.0
 40
0.2579798928242205
 50
199.5027481317868023
 51
205.5806762081739976
  0
ARC
  5
D144
  8
0
 10
3513.8823928526371674
 20
169.042464307523403
 30
0.0
 40
0.0005576776466367
 50
217.4584165317930058
 51
269.6122493213454163
  0
ARC
  5
D145
  8
0
 10
3513.9481571138549043
 20
169.0809804398049039
 30
0.0
 40
0.0767664895536442
 50
198.5160012414112884
 51
210.4076741569082003
  0
ARC
  5
D146
  8
0
 10
3514.0712046004928197
 20
169.1302383079743095
 30
0.0
 40
0.2092264593783408
 50
193.3793609134878011
 51
200.6064305612459862
  0
ARC
  5
D147
  8
0
 10
3513.8907675897321496
 20
169.0872714948307873
 30
0.0
 40
0.023744272669884
 50
182.397004350210409
 51
193.2635475489869066
  0
ARC
  5
D148
  8
0
 10
3513.8684149820578568
 20
169.0863553766909888
 30
0.0
 40
0.00137304705941
 50
150.3801652538203939
 51
183.2126591136666036
  0
ARC
  5
D149
  8
0
 10
3513.8674033662550755
 20
169.0868809246082094
 30
0.0
 40
0.0002378174365517
 50
56.6082087525473625
 51
139.9356024266697034
  0
ARC
  5
D14A
  8
0
 10
3513.842546088031213
 20
169.068637962293991
 30
0.0
 40
0.0310563693161441
 50
19.5247699295219697
 51
36.4277080407168583
  0
ARC
  5
D14B
  8
0
 10
3513.6582118628839453
 20
168.9928061985515058
 30
0.0
 40
0.2303462047085162
 50
17.3265348925075813
 51
21.97908728205757
  0
ARC
  5
D14C
  8
0
 10
3513.7464912705017923
 20
169.0181250496862901
 30
0.0
 40
0.1385485074275824
 50
10.98499128288754
 51
18.2037570989645587
  0
ARC
  5
D14D
  8
0
 10
3513.8766284283037749
 20
169.0431299137036092
 30
0.0
 40
0.0060363403732802
 50
350.8567300069905741
 51
13.3697662335878693
  0
ARC
  5
D14E
  8
0
 10
3513.882238742528898
 20
169.042226940800191
 30
0.0
 40
0.0003538245770197
 50
295.1436140874819216
 51
350.8567300080106861
  0
ARC
  5
D14F
  8
0
 10
3514.2205160500348029
 20
169.3539197754045915
 30
0.0
 40
0.3418648890745564
 50
192.3448803051711025
 51
200.5138029743243067
  0
ARC
  5
D150
  8
0
 10
3513.9245784855520469
 20
169.2891520792159099
 30
0.0
 40
0.0389228211123506
 50
156.5060572571252919
 51
192.344880305175792
  0
ARC
  5
D151
  8
0
 10
3513.9115585772328814
 20
169.2948116598622903
 30
0.0
 40
0.0247260304270489
 50
96.7639871691010711
 51
156.5060572571267983
  0
ARC
  5
D152
  8
0
 10
3513.8970833258958919
 20
169.4168571787959934
 30
0.0
 40
0.0981749117706585
 50
276.7639871691010853
 51
284.1204519921341216
  0
ARC
  5
D153
  8
0
 10
3513.9163534275689926
 20
169.3477160326741
 30
0.0
 40
0.0264843246390574
 50
280.1797724444436994
 51
348.2637347884133874
  0
ARC
  5
D154
  8
0
 10
3513.989302820688863
 20
169.3525743988531929
 30
0.0
 40
0.0481220502947821
 50
175.7521652984314926
 51
192.2926952756039043
  0
ARC
  5
D155
  8
0
 10
3513.9430671178211014
 20
169.3560271591684909
 30
0.0
 40
0.0017577068570844
 50
108.8199884898822063
 51
176.3571721301011905
  0
ARC
  5
D156
  8
0
 10
3513.9420180193751548
 20
169.3544823957383869
 30
0.0
 40
0.0032445104092566
 50
38.7942404750783822
 51
81.4553552856816054
  0
ARC
  5
D157
  8
0
 10
3513.5584403456341533
 20
169.1457599874254925
 30
0.0
 40
0.4398817271461448
 50
16.1429702739454193
 51
28.6278016659964614
  0
ARC
  5
D158
  8
0
 10
3513.4463862176339717
 20
169.0836560539542859
 30
0.0
 40
0.5655033723310164
 50
9.6622203576437293
 51
19.0317875974614807
  0
ARC
  5
D159
  8
0
 10
3513.999286474228029
 20
169.1782584464552031
 30
0.0
 40
0.0045916526952947
 50
333.5650202447666857
 51
3.8880724551740449
  0
ARC
  5
D15A
  8
0
 10
3514.0027774063228208
 20
169.1766084356698912
 30
0.0
 40
0.0007351798975183
 50
230.9186835957629
 51
327.5832935904485907
  0
ARC
  5
D15B
  8
0
 10
3514.0108035594030298
 20
169.1864911975694099
 30
0.0
 40
0.0134665630128536
 50
206.8658048433748036
 51
230.9186835957598021
  0
ARC
  5
D15C
  8
0
 10
3513.8866078450091663
 20
169.1235762873226918
 30
0.0
 40
0.1257557821955899
 50
26.8658048433748213
 51
30.3763725723418503
  0
ARC
  5
D15D
  8
0
 10
3513.9765074932661264
 20
169.1684311275649009
 30
0.0
 40
0.026396326288454
 50
45.2216801918324691
 51
99.8857435749981875
  0
ARC
  5
D15E
  8
0
 10
3518.5516873761462193
 20
144.2241543875402954
 30
0.0
 40
25.3867819806424393
 50
100.3929132328541982
 51
100.457344086084305
  0
ARC
  5
D15F
  8
0
 10
3513.9393456827301634
 20
169.2193128358827892
 30
0.0
 40
0.0303861742914872
 50
200.130411415883998
 51
278.6176125165251847
  0
ARC
  5
D160
  8
0
 10
3514.1435079876728196
 20
169.3202461507702878
 30
0.0
 40
0.2579798928242205
 50
199.5027481317868023
 51
205.5806762081739976
  0
ARC
  5
D161
  8
0
 10
3513.9063623915621974
 20
169.2269878741713001
 30
0.0
 40
0.0005576776466367
 50
217.4584165317930058
 51
269.6122493213454163
  0
ARC
  5
D162
  8
0
 10
3513.9721266527808439
 20
169.2655040064528862
 30
0.0
 40
0.0767664895536442
 50
198.5160012414112884
 51
210.4076741569082003
  0
ARC
  5
D163
  8
0
 10
3514.095174139419214
 20
169.3147618746222065
 30
0.0
 40
0.2092264593783408
 50
193.3793609134878011
 51
200.6064305612459862
  0
ARC
  5
D164
  8
0
 10
3513.9147371286580892
 20
169.2717950614787981
 30
0.0
 40
0.023744272669884
 50
182.397004350210409
 51
193.2635475489869066
  0
ARC
  5
D165
  8
0
 10
3513.8923845209828869
 20
169.2708789433391132
 30
0.0
 40
0.00137304705941
 50
150.3801652538203939
 51
183.2126591136666036
  0
ARC
  5
D166
  8
0
 10
3513.8913729051810151
 20
169.2714044912561917
 30
0.0
 40
0.0002378174365517
 50
56.6082087525473625
 51
139.9356024266697034
  0
ARC
  5
D167
  8
0
 10
3513.8665156269557883
 20
169.2531615289420017
 30
0.0
 40
0.0310563693161441
 50
19.5247699295219697
 51
36.4277080407168583
  0
ARC
  5
D168
  8
0
 10
3513.6821814018098848
 20
169.1773297651994881
 30
0.0
 40
0.2303462047085162
 50
17.3265348925075813
 51
21.97908728205757
  0
ARC
  5
D169
  8
0
 10
3513.7704608094281866
 20
169.2026486163341872
 30
0.0
 40
0.1385485074275824
 50
10.98499128288754
 51
18.2037570989645587
  0
ARC
  5
D16A
  8
0
 10
3513.9005979672288049
 20
169.2276534803515915
 30
0.0
 40
0.0060363403732802
 50
350.8567300069905741
 51
13.3697662335878693
  0
ARC
  5
D16B
  8
0
 10
3513.9062082814548376
 20
169.2267505074482017
 30
0.0
 40
0.0003538245770197
 50
295.1436140874819216
 51
350.8567300080106861
  0
ARC
  5
D16C
  8
0
 10
3514.080803198824924
 20
169.8307439429526084
 30
0.0
 40
0.3418648890745564
 50
192.3448803051711025
 51
200.5138029743243067
  0
ARC
  5
D16D
  8
0
 10
3513.7848656343421681
 20
169.7659762467638984
 30
0.0
 40
0.0389228211123506
 50
156.5060572571252919
 51
192.344880305175792
  0
ARC
  5
D16E
  8
0
 10
3513.771845726022093
 20
169.7716358274103072
 30
0.0
 40
0.0247260304270489
 50
96.7639871691010711
 51
156.5060572571267983
  0
ARC
  5
D16F
  8
0
 10
3513.7573704746851035
 20
169.8936813463440103
 30
0.0
 40
0.0981749117706585
 50
276.7639871691010853
 51
284.1204519921341216
  0
ARC
  5
D170
  8
0
 10
3513.7766405763591138
 20
169.8245402002220885
 30
0.0
 40
0.0264843246390574
 50
280.1797724444436994
 51
348.2637347884133874
  0
ARC
  5
D171
  8
0
 10
3513.8495899694798936
 20
169.8293985664012098
 30
0.0
 40
0.0481220502947821
 50
175.7521652984314926
 51
192.2926952756039043
  0
ARC
  5
D172
  8
0
 10
3513.8033542666121321
 20
169.8328513267165079
 30
0.0
 40
0.0017577068570844
 50
108.8199884898822063
 51
176.3571721301011905
  0
ARC
  5
D173
  8
0
 10
3513.8023051681648212
 20
169.8313065632864038
 30
0.0
 40
0.0032445104092566
 50
38.7942404750783822
 51
81.4553552856816054
  0
ARC
  5
D174
  8
0
 10
3513.418727494425184
 20
169.6225841549735094
 30
0.0
 40
0.4398817271461448
 50
16.1429702739454193
 51
28.6278016659964614
  0
ARC
  5
D175
  8
0
 10
3513.3066733664240928
 20
169.5604802215023881
 30
0.0
 40
0.5655033723310164
 50
9.6622203576437293
 51
19.0317875974614807
  0
ARC
  5
D176
  8
0
 10
3513.8595736230181501
 20
169.6550826140033053
 30
0.0
 40
0.0045916526952947
 50
333.5650202447666857
 51
3.8880724551740449
  0
ARC
  5
D177
  8
0
 10
3513.8630645551129419
 20
169.6534326032179081
 30
0.0
 40
0.0007351798975183
 50
230.9186835957629
 51
327.5832935904485907
  0
ARC
  5
D178
  8
0
 10
3513.8710907081931509
 20
169.6633153651173984
 30
0.0
 40
0.0134665630128536
 50
206.8658048433748036
 51
230.9186835957598021
  0
ARC
  5
D179
  8
0
 10
3513.7468949937988327
 20
169.6004004548707087
 30
0.0
 40
0.1257557821955899
 50
26.8658048433748213
 51
30.3763725723418503
  0
ARC
  5
D17A
  8
0
 10
3513.8367946420548833
 20
169.6452552951128894
 30
0.0
 40
0.026396326288454
 50
45.2216801918324691
 51
99.8857435749981875
  0
ARC
  5
D17B
  8
0
 10
3518.4119745249358857
 20
144.7009785550883123
 30
0.0
 40
25.3867819806424393
 50
100.3929132328541982
 51
100.457344086084305
  0
ARC
  5
D17C
  8
0
 10
3513.7996328315198298
 20
169.6961370034308914
 30
0.0
 40
0.0303861742914872
 50
200.130411415883998
 51
278.6176125165251847
  0
ARC
  5
D17D
  8
0
 10
3514.0037951364629407
 20
169.7970703183183048
 30
0.0
 40
0.2579798928242205
 50
199.5027481317868023
 51
205.5806762081739976
  0
ARC
  5
D17E
  8
0
 10
3513.7666495403527733
 20
169.7038120417192886
 30
0.0
 40
0.0005576776466367
 50
217.4584165317930058
 51
269.6122493213454163
  0
ARC
  5
D17F
  8
0
 10
3513.832413801570965
 20
169.7423281740009031
 30
0.0
 40
0.0767664895536442
 50
198.5160012414112884
 51
210.4076741569082003
  0
ARC
  5
D180
  8
0
 10
3513.9554612882088804
 20
169.791586042170195
 30
0.0
 40
0.2092264593783408
 50
193.3793609134878011
 51
200.6064305612459862
  0
ARC
  5
D181
  8
0
 10
3513.7750242774482103
 20
169.7486192290267866
 30
0.0
 40
0.023744272669884
 50
182.397004350210409
 51
193.2635475489869066
  0
ARC
  5
D182
  8
0
 10
3513.752671669773008
 20
169.747703110886988
 30
0.0
 40
0.00137304705941
 50
150.3801652538203939
 51
183.2126591136666036
  0
ARC
  5
D183
  8
0
 10
3513.7516600539711362
 20
169.7482286588042939
 30
0.0
 40
0.0002378174365517
 50
56.6082087525473625
 51
139.9356024266697034
  0
ARC
  5
D184
  8
0
 10
3513.7268027757459095
 20
169.7299856964899902
 30
0.0
 40
0.0310563693161441
 50
19.5247699295219697
 51
36.4277080407168583
  0
ARC
  5
D185
  8
0
 10
3513.542468550600006
 20
169.654153932747505
 30
0.0
 40
0.2303462047085162
 50
17.3265348925075813
 51
21.97908728205757
  0
ARC
  5
D186
  8
0
 10
3513.630747958217853
 20
169.6794727838822041
 30
0.0
 40
0.1385485074275824
 50
10.98499128288754
 51
18.2037570989645587
  0
ARC
  5
D187
  8
0
 10
3513.7608851160189261
 20
169.7044776478996084
 30
0.0
 40
0.0060363403732802
 50
350.8567300069905741
 51
13.3697662335878693
  0
ARC
  5
D188
  8
0
 10
3513.7664954302449587
 20
169.7035746749961902
 30
0.0
 40
0.0003538245770197
 50
295.1436140874819216
 51
350.8567300080106861
  0
ARC
  5
D189
  8
0
 10
3514.0658607889799896
 20
169.6127149206417926
 30
0.0
 40
0.3418648890745564
 50
192.3448803051711025
 51
200.5138029743243067
  0
ARC
  5
D18A
  8
0
 10
3513.7699232244981431
 20
169.5479472244531109
 30
0.0
 40
0.0389228211123506
 50
156.5060572571252919
 51
192.344880305175792
  0
ARC
  5
D18B
  8
0
 10
3513.7569033161780681
 20
169.5536068050994913
 30
0.0
 40
0.0247260304270489
 50
96.7639871691010711
 51
156.5060572571267983
  0
ARC
  5
D18C
  8
0
 10
3513.7424280648410786
 20
169.6756523240333081
 30
0.0
 40
0.0981749117706585
 50
276.7639871691010853
 51
284.1204519921341216
  0
ARC
  5
D18D
  8
0
 10
3513.7616981665141793
 20
169.606511177911301
 30
0.0
 40
0.0264843246390574
 50
280.1797724444436994
 51
348.2637347884133874
  0
ARC
  5
D18E
  8
0
 10
3513.8346475596340497
 20
169.6113695440903939
 30
0.0
 40
0.0481220502947821
 50
175.7521652984314926
 51
192.2926952756039043
  0
ARC
  5
D18F
  8
0
 10
3513.7884118567658334
 20
169.614822304405692
 30
0.0
 40
0.0017577068570844
 50
108.8199884898822063
 51
176.3571721301011905
  0
ARC
  5
D190
  8
0
 10
3513.7873627583198868
 20
169.613277540975588
 30
0.0
 40
0.0032445104092566
 50
38.7942404750783822
 51
81.4553552856816054
  0
ARC
  5
D191
  8
0
 10
3513.4037850845797948
 20
169.4045551326626935
 30
0.0
 40
0.4398817271461448
 50
16.1429702739454193
 51
28.6278016659964614
  0
ARC
  5
D192
  8
0
 10
3513.2917309565791584
 20
169.3424511991916006
 30
0.0
 40
0.5655033723310164
 50
9.6622203576437293
 51
19.0317875974614807
  0
ARC
  5
D193
  8
0
 10
3513.8446312131732157
 20
169.4370535916924894
 30
0.0
 40
0.0045916526952947
 50
333.5650202447666857
 51
3.8880724551740449
  0
ARC
  5
D194
  8
0
 10
3513.8481221452680074
 20
169.4354035809072059
 30
0.0
 40
0.0007351798975183
 50
230.9186835957629
 51
327.5832935904485907
  0
ARC
  5
D195
  8
0
 10
3513.856148298349126
 20
169.4452863428066109
 30
0.0
 40
0.0134665630128536
 50
206.8658048433748036
 51
230.9186835957598021
  0
ARC
  5
D196
  8
0
 10
3513.7319525839538983
 20
169.3823714325600065
 30
0.0
 40
0.1257557821955899
 50
26.8658048433748213
 51
30.3763725723418503
  0
ARC
  5
D197
  8
0
 10
3513.8218522322108583
 20
169.4272262728021019
 30
0.0
 40
0.026396326288454
 50
45.2216801918324691
 51
99.8857435749981875
  0
ARC
  5
D198
  8
0
 10
3518.3970321150909513
 20
144.4829495327776101
 30
0.0
 40
25.3867819806424393
 50
100.3929132328541982
 51
100.457344086084305
  0
ARC
  5
D199
  8
0
 10
3513.7846904216748953
 20
169.4781079811201039
 30
0.0
 40
0.0303861742914872
 50
200.130411415883998
 51
278.6176125165251847
  0
ARC
  5
D19A
  8
0
 10
3513.9888527266180063
 20
169.5790412960076026
 30
0.0
 40
0.2579798928242205
 50
199.5027481317868023
 51
205.5806762081739976
  0
ARC
  5
D19B
  8
0
 10
3513.7517071305078389
 20
169.4857830194085864
 30
0.0
 40
0.0005576776466367
 50
217.4584165317930058
 51
269.6122493213454163
  0
ARC
  5
D19C
  8
0
 10
3513.8174713917260306
 20
169.5242991516902009
 30
0.0
 40
0.0767664895536442
 50
198.5160012414112884
 51
210.4076741569082003
  0
ARC
  5
D19D
  8
0
 10
3513.940518878363946
 20
169.5735570198594928
 30
0.0
 40
0.2092264593783408
 50
193.3793609134878011
 51
200.6064305612459862
  0
ARC
  5
D19E
  8
0
 10
3513.7600818676041854
 20
169.5305902067159991
 30
0.0
 40
0.023744272669884
 50
182.397004350210409
 51
193.2635475489869066
  0
ARC
  5
D19F
  8
0
 10
3513.7377292599280736
 20
169.5296740885762858
 30
0.0
 40
0.00137304705941
 50
150.3801652538203939
 51
183.2126591136666036
  0
ARC
  5
D1A0
  8
0
 10
3513.7367176441262018
 20
169.5301996364933927
 30
0.0
 40
0.0002378174365517
 50
56.6082087525473625
 51
139.9356024266697034
  0
ARC
  5
D1A1
  8
0
 10
3513.711860365900975
 20
169.5119566741792028
 30
0.0
 40
0.0310563693161441
 50
19.5247699295219697
 51
36.4277080407168583
  0
ARC
  5
D1A2
  8
0
 10
3513.5275261407550715
 20
169.4361249104366891
 30
0.0
 40
0.2303462047085162
 50
17.3265348925075813
 51
21.97908728205757
  0
ARC
  5
D1A3
  8
0
 10
3513.6158055483729186
 20
169.4614437615715019
 30
0.0
 40
0.1385485074275824
 50
10.98499128288754
 51
18.2037570989645587
  0
ARC
  5
D1A4
  8
0
 10
3513.7459427061749011
 20
169.4864486255887925
 30
0.0
 40
0.0060363403732802
 50
350.8567300069905741
 51
13.3697662335878693
  0
ARC
  5
D1A5
  8
0
 10
3513.7515530204000243
 20
169.4855456526854027
 30
0.0
 40
0.0003538245770197
 50
295.1436140874819216
 51
350.8567300080106861
  0
ARC
  5
D1A6
  8
0
 10
3513.9362281265462116
 20
170.0639014857781035
 30
0.0
 40
0.3418648890745564
 50
192.3448803051711025
 51
200.5138029743243067
  0
ARC
  5
D1A7
  8
0
 10
3513.6402905620639103
 20
169.9991337895893935
 30
0.0
 40
0.0389228211123506
 50
156.5060572571252919
 51
192.344880305175792
  0
ARC
  5
D1A8
  8
0
 10
3513.6272706537429258
 20
170.0047933702356886
 30
0.0
 40
0.0247260304270489
 50
96.7639871691010711
 51
156.5060572571267983
  0
ARC
  5
D1A9
  8
0
 10
3513.6127954024059363
 20
170.1268388891695054
 30
0.0
 40
0.0981749117706585
 50
276.7639871691010853
 51
284.1204519921341216
  0
ARC
  5
D1AA
  8
0
 10
3513.632065504080856
 20
170.0576977430474983
 30
0.0
 40
0.0264843246390574
 50
280.1797724444436994
 51
348.2637347884133874
  0
ARC
  5
D1AB
  8
0
 10
3513.7050148971998169
 20
170.0625561092265912
 30
0.0
 40
0.0481220502947821
 50
175.7521652984314926
 51
192.2926952756039043
  0
ARC
  5
D1AC
  8
0
 10
3513.6587791943329648
 20
170.0660088695418892
 30
0.0
 40
0.0017577068570844
 50
108.8199884898822063
 51
176.3571721301011905
  0
ARC
  5
D1AD
  8
0
 10
3513.6577300958861088
 20
170.0644641061118136
 30
0.0
 40
0.0032445104092566
 50
38.7942404750783822
 51
81.4553552856816054
  0
ARC
  5
D1AE
  8
0
 10
3513.2741524221460168
 20
169.8557416977988908
 30
0.0
 40
0.4398817271461448
 50
16.1429702739454193
 51
28.6278016659964614
  0
ARC
  5
D1AF
  8
0
 10
3513.1620982941449256
 20
169.7936377643277979
 30
0.0
 40
0.5655033723310164
 50
9.6622203576437293
 51
19.0317875974614807
  0
ARC
  5
D1B0
  8
0
 10
3513.7149985507389829
 20
169.8882401568286866
 30
0.0
 40
0.0045916526952947
 50
333.5650202447666857
 51
3.8880724551740449
  0
ARC
  5
D1B1
  8
0
 10
3513.7184894828351389
 20
169.8865901460434031
 30
0.0
 40
0.0007351798975183
 50
230.9186835957629
 51
327.5832935904485907
  0
ARC
  5
D1B2
  8
0
 10
3513.7265156359139837
 20
169.8964729079428082
 30
0.0
 40
0.0134665630128536
 50
206.8658048433748036
 51
230.9186835957598021
  0
ARC
  5
D1B3
  8
0
 10
3513.6023199215201203
 20
169.8335579976962038
 30
0.0
 40
0.1257557821955899
 50
26.8658048433748213
 51
30.3763725723418503
  0
ARC
  5
D1B4
  8
0
 10
3513.6922195697761708
 20
169.8784128379382992
 30
0.0
 40
0.026396326288454
 50
45.2216801918324691
 51
99.8857435749981875
  0
ARC
  5
D1B5
  8
0
 10
3518.2673994526571732
 20
144.9341360979138074
 30
0.0
 40
25.3867819806424393
 50
100.3929132328541982
 51
100.457344086084305
  0
ARC
  5
D1B6
  8
0
 10
3513.6550577592411173
 20
169.9292945462563011
 30
0.0
 40
0.0303861742914872
 50
200.130411415883998
 51
278.6176125165251847
  0
ARC
  5
D1B7
  8
0
 10
3513.8592200641851377
 20
170.0302278611437998
 30
0.0
 40
0.2579798928242205
 50
199.5027481317868023
 51
205.5806762081739976
  0
ARC
  5
D1B8
  8
0
 10
3513.686925565330057
 20
169.9053722636450914
 30
0.0
 40
0.0010867740668627
 50
272.6505943955767179
 51
338.585513838313318
  0
ARC
  5
D1B9
  8
0
 10
3513.6220744680740609
 20
169.9369695845448121
 30
0.0
 40
0.0005576776466367
 50
217.4584165317930058
 51
269.6122493213454163
  0
ARC
  5
D1BA
  8
0
 10
3513.687838729293162
 20
169.9754857168263982
 30
0.0
 40
0.0767664895536442
 50
198.5160012414112884
 51
210.4076741569082003
  0
ARC
  5
D1BB
  8
0
 10
3513.810886215930168
 20
170.0247435849956901
 30
0.0
 40
0.2092264593783408
 50
193.3793609134878011
 51
200.6064305612459862
  0
ARC
  5
D1BC
  8
0
 10
3513.6304492051690431
 20
169.9817767718521964
 30
0.0
 40
0.023744272669884
 50
182.397004350210409
 51
193.2635475489869066
  0
ARC
  5
D1BD
  8
0
 10
3513.6080965974938408
 20
169.9808606537125115
 30
0.0
 40
0.00137304705941
 50
150.3801652538203939
 51
183.2126591136666036
  0
ARC
  5
D1BE
  8
0
 10
3513.607084981691969
 20
169.9813862016297037
 30
0.0
 40
0.0002378174365517
 50
56.6082087525473625
 51
139.9356024266697034
  0
ARC
  5
D1BF
  8
0
 10
3513.582227703467197
 20
169.9631432393154
 30
0.0
 40
0.0310563693161441
 50
19.5247699295219697
 51
36.4277080407168583
  0
ARC
  5
D1C0
  8
0
 10
3513.3978934783208388
 20
169.8873114755728864
 30
0.0
 40
0.2303462047085162
 50
17.3265348925075813
 51
21.97908728205757
  0
ARC
  5
D1C1
  8
0
 10
3513.4861728859391405
 20
169.9126303267076992
 30
0.0
 40
0.1385485074275824
 50
10.98499128288754
 51
18.2037570989645587
  0
ARC
  5
D1C2
  8
0
 10
3513.6163100437402136
 20
169.9376351907251035
 30
0.0
 40
0.0060363403732802
 50
350.8567300069905741
 51
13.3697662335878693
  0
ARC
  5
D1C3
  8
0
 10
3513.6219203579657915
 20
169.9367322178216
 30
0.0
 40
0.0003538245770197
 50
295.1436140874819216
 51
350.8567300080106861
  0
ARC
  5
D1C4
  8
0
 10
3513.9259410208228473
 20
169.8798213579030971
 30
0.0
 40
0.3418648890745564
 50
192.3448803051711025
 51
200.5138029743243067
  0
ARC
  5
D1C5
  8
0
 10
3513.6300034563410009
 20
169.8150536617143871
 30
0.0
 40
0.0389228211123506
 50
156.5060572571252919
 51
192.344880305175792
  0
ARC
  5
D1C6
  8
0
 10
3513.6169835480209258
 20
169.8207132423607959
 30
0.0
 40
0.0247260304270489
 50
96.7639871691010711
 51
156.5060572571267983
  0
ARC
  5
D1C7
  8
0
 10
3513.6025082966839364
 20
169.942758761294499
 30
0.0
 40
0.0981749117706585
 50
276.7639871691010853
 51
284.1204519921341216
  0
ARC
  5
D1C8
  8
0
 10
3513.6217783983579466
 20
169.8736176151726056
 30
0.0
 40
0.0264843246390574
 50
280.1797724444436994
 51
348.2637347884133874
  0
ARC
  5
D1C9
  8
0
 10
3513.6947277914778169
 20
169.8784759813516985
 30
0.0
 40
0.0481220502947821
 50
175.7521652984314926
 51
192.2926952756039043
  0
ARC
  5
D1CA
  8
0
 10
3513.6484920886109649
 20
169.8819287416669965
 30
0.0
 40
0.0017577068570844
 50
108.8199884898822063
 51
176.3571721301011905
  0
ARC
  5
D1CB
  8
0
 10
3513.647442990161835
 20
169.8803839782368925
 30
0.0
 40
0.0032445104092566
 50
38.7942404750783822
 51
81.4553552856816054
  0
ARC
  5
D1CC
  8
0
 10
3513.2638653164231073
 20
169.6716615699239128
 30
0.0
 40
0.4398817271461448
 50
16.1429702739454193
 51
28.6278016659964614
  0
ARC
  5
D1CD
  8
0
 10
3513.1518111884229256
 20
169.6095576364529052
 30
0.0
 40
0.5655033723310164
 50
9.6622203576437293
 51
19.0317875974614807
  0
ARC
  5
D1CE
  8
0
 10
3513.7047114450169829
 20
169.7041600289537087
 30
0.0
 40
0.0045916526952947
 50
333.5650202447666857
 51
3.8880724551740449
  0
ARC
  5
D1CF
  8
0
 10
3513.7082023771117747
 20
169.7025100181685104
 30
0.0
 40
0.0007351798975183
 50
230.9186835957629
 51
327.5832935904485907
  0
ARC
  5
D1D0
  8
0
 10
3513.7162285301919837
 20
169.7123927800678871
 30
0.0
 40
0.0134665630128536
 50
206.8658048433748036
 51
230.9186835957598021
  0
ARC
  5
D1D1
  8
0
 10
3513.5920328157972108
 20
169.6494778698211974
 30
0.0
 40
0.1257557821955899
 50
26.8658048433748213
 51
30.3763725723418503
  0
ARC
  5
D1D2
  8
0
 10
3513.6819324640541709
 20
169.6943327100632928
 30
0.0
 40
0.026396326288454
 50
45.2216801918324691
 51
99.8857435749981875
  0
ARC
  5
D1D3
  8
0
 10
3518.2571123469351733
 20
144.750055970038801
 30
0.0
 40
25.3867819806424393
 50
100.3929132328541982
 51
100.457344086084305
  0
ARC
  5
D1D4
  8
0
 10
3513.6447706535191173
 20
169.7452144183814084
 30
0.0
 40
0.0303861742914872
 50
200.130411415883998
 51
278.6176125165251847
  0
ARC
  5
D1D5
  8
0
 10
3513.8489329584617735
 20
169.8461477332689071
 30
0.0
 40
0.2579798928242205
 50
199.5027481317868023
 51
205.5806762081739976
  0
ARC
  5
D1D6
  8
0
 10
3513.6766384596071475
 20
169.7212921357701134
 30
0.0
 40
0.0010867740668627
 50
272.6505943955767179
 51
338.585513838313318
  0
ARC
  5
D1D7
  8
0
 10
3513.6117873623511514
 20
169.7528894566698057
 30
0.0
 40
0.0005576776466367
 50
217.4584165317930058
 51
269.6122493213454163
  0
ARC
  5
D1D8
  8
0
 10
3513.6775516235688883
 20
169.7914055889513918
 30
0.0
 40
0.0767664895536442
 50
198.5160012414112884
 51
210.4076741569082003
  0
ARC
  5
D1D9
  8
0
 10
3513.8005991102068037
 20
169.8406634571207121
 30
0.0
 40
0.2092264593783408
 50
193.3793609134878011
 51
200.6064305612459862
  0
ARC
  5
D1DA
  8
0
 10
3513.6201620994470431
 20
169.7976966439773037
 30
0.0
 40
0.023744272669884
 50
182.397004350210409
 51
193.2635475489869066
  0
ARC
  5
D1DB
  8
0
 10
3513.5978094917718408
 20
169.7967805258375051
 30
0.0
 40
0.00137304705941
 50
150.3801652538203939
 51
183.2126591136666036
  0
ARC
  5
D1DC
  8
0
 10
3513.5967978759690595
 20
169.7973060737546973
 30
0.0
 40
0.0002378174365517
 50
56.6082087525473625
 51
139.9356024266697034
  0
ARC
  5
D1DD
  8
0
 10
3513.571940597745197
 20
169.7790631114405073
 30
0.0
 40
0.0310563693161441
 50
19.5247699295219697
 51
36.4277080407168583
  0
ARC
  5
D1DE
  8
0
 10
3513.3876063725988388
 20
169.7032313476979937
 30
0.0
 40
0.2303462047085162
 50
17.3265348925075813
 51
21.97908728205757
  0
ARC
  5
D1DF
  8
0
 10
3513.4758857802157763
 20
169.7285501988326928
 30
0.0
 40
0.1385485074275824
 50
10.98499128288754
 51
18.2037570989645587
  0
ARC
  5
D1E0
  8
0
 10
3513.6060229380168494
 20
169.7535550628500971
 30
0.0
 40
0.0060363403732802
 50
350.8567300069905741
 51
13.3697662335878693
  0
ARC
  5
D1E1
  8
0
 10
3513.6116332522437915
 20
169.7526520899467073
 30
0.0
 40
0.0003538245770197
 50
295.1436140874819216
 51
350.8567300080106861
  0
ARC
  5
D1E2
  8
0
 10
3514.2678562119708658
 20
168.8695611661894134
 30
0.0
 40
0.3418648890745564
 50
197.2440608228789074
 51
205.4129834920331916
  0
ARC
  5
D1E3
  8
0
 10
3513.9785311844811986
 20
168.7797562386573134
 30
0.0
 40
0.0389228211123506
 50
161.4052377748319884
 51
197.244060822883597
  0
ARC
  5
D1E4
  8
0
 10
3513.9650755008501619
 20
168.7842832071571024
 30
0.0
 40
0.0247260304270489
 50
101.6631676867917946
 51
161.4052377748334948
  0
ARC
  5
D1E5
  8
0
 10
3513.9402301210739097
 20
168.9046466098045016
 30
0.0
 40
0.0981749117706585
 50
281.6631676868174168
 51
289.0196325098503962
  0
ARC
  5
D1E6
  8
0
 10
3513.9653346584491374
 20
168.8374037878174931
 30
0.0
 40
0.0264843246390574
 50
285.0789529621490033
 51
353.1629153061185207
  0
ARC
  5
D1E7
  8
0
 10
3514.0376026148019264
 20
168.8484744771891997
 30
0.0
 40
0.0481220502947821
 50
180.6513458161385017
 51
197.1918757933152904
  0
ARC
  5
D1E8
  8
0
 10
3513.9912409582930195
 20
168.8479659703052107
 30
0.0
 40
0.0017577068570844
 50
113.7191690075877943
 51
181.256352647808086
  0
ARC
  5
D1E9
  8
0
 10
3513.9903276196341722
 20
168.8463372548295069
 30
0.0
 40
0.0032445104092566
 50
43.6934209927855406
 51
86.3545358033964305
  0
ARC
  5
D1EA
  8
0
 10
3513.6259767916358214
 20
168.6056188515852057
 30
0.0
 40
0.4398817271461448
 50
21.0421507916524995
 51
33.5269821836986921
  0
ARC
  5
D1EB
  8
0
 10
3513.5196358933048941
 20
168.5341720917085127
 30
0.0
 40
0.5655033723310164
 50
14.5614008753458695
 51
23.9309681151628588
  0
ARC
  5
D1EC
  8
0
 10
3514.0624368414751189
 20
168.6756480157200997
 30
0.0
 40
0.0045916526952947
 50
338.464200762465623
 51
8.7872529728780204
  0
ARC
  5
D1ED
  8
0
 10
3514.0660559348420975
 20
168.6743021681510868
 30
0.0
 40
0.0007351798975183
 50
235.8178641134684881
 51
332.4824741081632169
  0
ARC
  5
D1EE
  8
0
 10
3514.0732087502351533
 20
168.6848342784805084
 30
0.0
 40
0.0134665630128536
 50
211.7649853610737125
 51
235.817864113465788
  0
ARC
  5
D1EF
  8
0
 10
3513.9548398841648122
 20
168.6115425807882104
 30
0.0
 40
0.1257557821955899
 50
31.7649853610737196
 51
35.2755530900386205
  0
ARC
  5
D1F0
  8
0
 10
3514.040580362413948
 20
168.6639112149080972
 30
0.0
 40
0.026396326288454
 50
50.1208607095295804
 51
104.7849240927226049
  0
ARC
  5
D1F1
  8
0
 10
3520.7293528100071853
 20
144.2015005367277922
 30
0.0
 40
25.3867819806424393
 50
105.2920937505565036
 51
105.3565246037888983
  0
ARC
  5
D1F2
  8
0
 10
3513.9992088880080701
 20
168.711433309865896
 30
0.0
 40
0.0303861742914872
 50
205.0295919335898134
 51
283.5167930342421982
  0
ARC
  5
D1F3
  8
0
 10
3514.1940053147400249
 20
168.8294338731961091
 30
0.0
 40
0.2579798928242205
 50
204.4019286494882124
 51
210.479856725881092
  0
ARC
  5
D1F4
  8
0
 10
3513.9656906319260088
 20
168.7162634463171003
 30
0.0
 40
0.0005576776466367
 50
222.3575970495004128
 51
274.5114298390408862
  0
ARC
  5
D1F5
  8
0
 10
3514.0279252439440825
 20
168.7602553042727891
 30
0.0
 40
0.0767664895536442
 50
203.4151817591238967
 51
215.3068546746054892
  0
ARC
  5
D1F6
  8
0
 10
3514.1463164251817943
 20
168.8198417939287879
 30
0.0
 40
0.2092264593783408
 50
198.2785414311993009
 51
205.5056110789548995
  0
ARC
  5
D1F7
  8
0
 10
3513.9702081185141651
 20
168.7616221562938108
 30
0.0
 40
0.023744272669884
 50
187.2961848679161108
 51
198.1627280666969
  0
ARC
  5
D1F8
  8
0
 10
3513.948015414630845
 20
168.7588004127372869
 30
0.0
 40
0.00137304705941
 50
155.2793457715264083
 51
188.1118396313721064
  0
ARC
  5
D1F9
  8
0
 10
3513.9469626115528627
 20
168.7592376458811998
 30
0.0
 40
0.0002378174365517
 50
61.507389270254798
 51
144.8347829443657986
  0
ARC
  5
D1FA
  8
0
 10
3513.9237541466932271
 20
168.7389384559081122
 30
0.0
 40
0.0310563693161441
 50
24.4239504472340094
 51
41.3268885584182115
  0
ARC
  5
D1FB
  8
0
 10
3513.7465696186632158
 20
168.6476411066620074
 30
0.0
 40
0.2303462047085162
 50
22.2257154102150309
 51
26.8782677997720789
  0
ARC
  5
D1FC
  8
0
 10
3513.8323642014770485
 20
168.6804067531824103
 30
0.0
 40
0.1385485074275824
 50
15.8841718005920907
 51
23.1029376166649989
  0
ARC
  5
D1FD
  8
0
 10
3513.9598904232670975
 20
168.7164343234722139
 30
0.0
 40
0.0060363403732802
 50
355.7559105246979243
 51
18.268946751288599
  0
ARC
  5
D1FE
  8
0
 10
3513.9655573566078601
 20
168.7160137853940114
 30
0.0
 40
0.0003538245770197
 50
300.0427946051993899
 51
355.7559105257201963
  0
ARC
  5
D1FF
  8
0
 10
3512.1704394105508982
 20
169.6612613084039083
 30
0.0
 40
1.444637731432312
 50
9.3641448177036555
 51
18.8266390621034816
  0
ARC
  5
D200
  8
0
 10
3513.5843679253121081
 20
169.8944266765898021
 30
0.0
 40
0.0116129815494408
 50
336.8016954417666966
 51
9.3641448177229361
  0
ARC
  5
D201
  8
0
 10
3513.5938745960847882
 20
169.8903524452765055
 30
0.0
 40
0.0012700540147039
 50
200.3733243980177008
 51
336.8016954418293949
  0
ARC
  5
D202
  8
0
 10
3513.6450553617669357
 20
169.9295616421684088
 30
0.0
 40
0.0656885822177297
 50
201.8421682942874043
 51
217.1300474978378077
  0
ARC
  5
D203
  8
0
 10
3513.5564286950898349
 20
169.8795388867733038
 30
0.0
 40
0.0376726791863447
 50
42.7727967974660217
 51
105.5693638245448938
  0
ARC
  5
D204
  8
0
 10
3513.5313881659972139
 20
169.9438208419284138
 30
0.0
 40
0.031723908835503
 50
216.042340931390612
 51
298.0726993154469255
  0
ARC
  5
D205
  8
0
 10
3514.3008061749110311
 20
170.2732588923173012
 30
0.0
 40
0.8679352809009818
 50
189.5626022674599085
 51
203.6451623726570972
  0
ARC
  5
D206
  8
0
 10
3513.4742456230201242
 20
170.1343355051569119
 30
0.0
 40
0.0297830997019732
 50
105.082798340201407
 51
190.1772268565354125
  0
ARC
  5
D207
  8
0
 10
3513.4531333835470832
 20
170.2223192907732994
 30
0.0
 40
0.0607153216765777
 50
282.7137443887501149
 51
301.0584123769950793
  0
ARC
  5
D208
  8
0
 10
3513.4950926027299829
 20
169.960271401754909
 30
0.0
 40
0.0005613629187746
 50
286.5652950709928177
 51
342.4971230214591174
  0
ARC
  5
D209
  8
0
 10
3513.4157950869871456
 20
169.9610911145132093
 30
0.0
 40
0.0798390087761837
 50
359.290561232489722
 51
14.1665035054851494
  0
ARC
  5
D20A
  8
0
 10
3512.7771548924451963
 20
169.8273692640740933
 30
0.0
 40
0.7322693834288002
 50
12.0811507056714706
 51
21.5763122973048205
  0
ARC
  5
D20B
  8
0
 10
3513.4368132845870605
 20
170.087282066602512
 30
0.0
 40
0.0232705522576549
 50
23.7497157787481612
 51
38.000727331676579
  0
ARC
  5
D20C
  8
0
 10
3513.4542165092129835
 20
170.1008692450477042
 30
0.0
 40
0.0011915482817176
 50
38.3821656677552099
 51
85.0198446320382857
  0
ARC
  5
D20D
  8
0
 10
3513.4547185337141855
 20
170.1011858825264085
 30
0.0
 40
0.0009573339065679
 50
114.6043209007444972
 51
177.0851283270955889
  0
ARC
  5
D20E
  8
0
 10
3514.0867581367688217
 20
170.203258608219187
 30
0.0
 40
0.641164923810069
 50
189.1559917922874945
 51
201.7702676450053048
  0
ARC
  5
D20F
  8
0
 10
3513.5130456878628138
 20
169.9746099244233051
 30
0.0
 40
0.0235720894556055
 50
202.8417662878482872
 51
217.9615451530470978
  0
ARC
  5
D210
  8
0
 10
3513.4952279756380449
 20
169.9607020069908003
 30
0.0
 40
0.0009689832869722
 50
217.6611706398888089
 51
271.459248147557787
  0
ARC
  5
D211
  8
0
 10
3512.7312451996399432
 20
168.0798875577019089
 30
0.0
 40
1.436158571835279
 50
20.3163085328257509
 51
25.0908388013813983
  0
ARC
  5
D212
  8
0
 10
3514.0681014803440121
 20
168.574838345173788
 30
0.0
 40
0.0106197273004571
 50
1.638255203376153
 51
20.3163085328242197
  0
ARC
  5
D213
  8
0
 10
3514.0783285310058091
 20
168.5751308464107012
 30
0.0
 40
0.0003884946168669
 50
299.706472003936085
 51
1.638255203933598
  0
ARC
  5
D214
  8
0
 10
3514.0784836457819438
 20
168.5752951109641913
 30
0.0
 40
0.0005030940345136
 50
224.1752782782482996
 51
274.2640271869673825
  0
ARC
  5
D215
  8
0
 10
3514.1102522831288297
 20
168.6012071087801019
 30
0.0
 40
0.0414972955237386
 50
207.7903115648051937
 51
219.2625206481272073
  0
ARC
  5
D216
  8
0
 10
3514.0537231522680486
 20
168.5643700081622001
 30
0.0
 40
0.0264318394786758
 50
41.4284265923097621
 51
80.8259240814704469
  0
ARC
  5
D217
  8
0
 10
3514.0716379708960631
 20
168.4244392700886976
 30
0.0
 40
0.1665888189650194
 50
94.7174728702068336
 51
108.9346684568943004
  0
ARC
  5
D218
  8
0
 10
3511.806039418239834
 20
167.5494829405400878
 30
0.0
 40
2.4808638333915778
 50
23.3918546023416916
 51
24.8095992258613798
  0
ARC
  5
D219
  8
0
 10
3514.0806460883718501
 20
168.5334092444080909
 30
0.0
 40
0.0025687591014967
 50
9.2052561180006922
 51
23.3918546022894986
  0
ARC
  5
D21A
  8
0
 10
3514.083139981972181
 20
168.533807753004794
 30
0.0
 40
0.00004359087164
 50
302.555733414364795
 51
16.55456617734486
  0
ARC
  5
D21B
  8
0
 10
3514.056008274587839
 20
168.5203098696584902
 30
0.0
 40
0.0303085021406889
 50
26.3681686365017391
 51
41.4511739553210319
  0
ARC
  5
D21C
  8
0
 10
3514.058268801883969
 20
168.5219144275345116
 30
0.0
 40
0.0275535699167542
 50
42.0620790159486901
 51
105.3040654160252956
  0
ARC
  5
D21D
  8
0
 10
3513.6818623896560894
 20
169.8619456592757899
 30
0.0
 40
1.364339839021546
 50
284.415149033732007
 51
285.6975097264688088
  0
ARC
  5
D21E
  8
0
 10
3514.0140071621599418
 20
168.5668847019360044
 30
0.0
 40
0.0273739657556412
 50
205.7461242161872974
 51
285.906061365586595
  0
ARC
  5
D21F
  8
0
 10
3516.2956472825790115
 20
169.6600302556128952
 30
0.0
 40
2.5573637662967919
 50
203.782457378402313
 51
205.6008927988117989
  0
ARC
  5
D220
  8
0
 10
3513.9812238884192084
 20
168.639001441136287
 30
0.0
 40
0.0277465454391328
 50
146.3609097970245045
 51
201.7169877633735098
  0
ARC
  5
D221
  8
0
 10
3513.9837259690320934
 20
168.6766335038323916
 30
0.0
 40
0.0339272116989424
 50
118.9606544859175017
 51
221.0074778218429969
  0
ARC
  5
D222
  8
0
 10
3511.7440094659050374
 20
168.1049278330825132
 30
0.0
 40
2.3220468314511731
 50
19.7116657060023712
 51
23.5560689954654983
  0
ARC
  5
D223
  8
0
 10
3513.909867176455009
 20
168.8809147156285064
 30
0.0
 40
0.0213740463211003
 50
8.5135883350402732
 51
19.7116657059977705
  0
ARC
  5
D224
  8
0
 10
3513.9294568202321898
 20
168.8838471573475886
 30
0.0
 40
0.0015661348276523
 50
351.0380565369027863
 51
8.5135883349365642
  0
ARC
  5
D225
  8
0
 10
3513.930836571519194
 20
168.8836295655503932
 30
0.0
 40
0.0001693314041118
 50
293.1250049894708809
 51
351.0380565362995071
  0
ARC
  5
D226
  8
0
 10
3513.9308772799549843
 20
168.8837222657217012
 30
0.0
 40
0.0002497613860452
 50
221.4693356765141914
 51
275.9278878478968977
  0
ARC
  5
D227
  8
0
 10
3513.9607445370670575
 20
168.9047479834646026
 30
0.0
 40
0.0367740485493734
 50
204.7858356635464077
 51
215.187349136569992
  0
ARC
  5
D228
  8
0
 10
3513.9063956060381315
 20
168.8742676896085868
 30
0.0
 40
0.0258135020059508
 50
35.7009662624540667
 51
58.4858445419771584
  0
ARC
  5
D229
  8
0
 10
3513.9054372069231249
 20
168.8729414321836089
 30
0.0
 40
0.0274453943650334
 50
58.227397640721172
 51
105.2859402882161959
  0
ARC
  5
D22A
  8
0
 10
3514.0296756553088926
 20
168.4096881298935955
 30
0.0
 40
0.5070687163368309
 50
105.0274933869603018
 51
105.8586782923787979
  0
ARC
  5
D22B
  8
0
 10
3513.6062770838448159
 20
169.9001191800805088
 30
0.0
 40
1.0423347384416051
 50
284.7499610827806009
 51
285.8586782923787837
  0
ARC
  5
D22C
  8
0
 10
3513.8644252509539001
 20
168.9196010532693037
 30
0.0
 40
0.0284036396054243
 50
200.8134213974300906
 51
284.7499610827806009
  0
ARC
  5
D22D
  8
0
 10
3514.4144755779670959
 20
169.1791702678326033
 30
0.0
 40
0.6365418336077271
 50
197.3837657403097126
 51
205.0643301402116094
  0
ARC
  5
D22E
  8
0
 10
3513.8344691890210925
 20
168.992522692138607
 30
0.0
 40
0.0276876517811002
 50
105.4091664292562029
 51
187.3295526662222983
  0
ARC
  5
D22F
  8
0
 10
3531.5206505516739526
 20
104.5528826919988035
 30
0.0
 40
66.8503500680694742
 50
105.3352347799507953
 51
105.3475726911991046
  0
ARC
  5
D230
  8
0
 10
3513.8335589659091056
 20
169.0497903641642097
 30
0.0
 40
0.0277803516974532
 50
285.5251697518474998
 51
308.9355060329139064
  0
ARC
  5
D231
  8
0
 10
3513.8222840049447768
 20
168.9249645137159916
 30
0.0
 40
0.0093309764410935
 50
7.0788292760233658
 51
20.3157234503561703
  0
ARC
  5
D232
  8
0
 10
3513.3332475784409326
 20
168.7498453095637956
 30
0.0
 40
0.528775695087245
 50
19.7127842706058303
 51
24.4466212058589996
  0
ARC
  5
D233
  8
0
 10
3513.8108101704970068
 20
168.96744524713651
 30
0.0
 40
0.004001097138138
 50
17.924687342304491
 51
43.1669047458222224
  0
ARC
  5
D234
  8
0
 10
3513.8137122650969104
 20
168.9701673425273043
 30
0.0
 40
0.0000221580348548
 50
43.1669047414776799
 51
122.9615834327280055
  0
ARC
  5
D235
  8
0
 10
3514.1941875305410576
 20
169.0976930573347943
 30
0.0
 40
0.4012837749670851
 50
198.5267889901564899
 51
205.2750567963599053
  0
ARC
  5
D236
  8
0
 10
3513.8318956914099545
 20
168.9266626420607906
 30
0.0
 40
0.0006514146533842
 50
207.7597478760852141
 51
237.3089309366638986
  0
ARC
  5
D237
  8
0
 10
3519.8274128544258019
 20
171.3473568794707091
 30
0.0
 40
6.3958307224915147
 50
202.533984617741794
 51
203.3949540806908942
  0
ARC
  5
D238
  8
0
 10
3513.9157478211300258
 20
168.8348647707678936
 30
0.0
 40
0.0276079584973717
 50
25.0395950661491717
 51
105.2959004016716023
  0
ARC
  5
D239
  8
0
 10
3513.9970247047667726
 20
168.4858446783999
 30
0.0
 40
0.3859479857690182
 50
103.2653351125497068
 51
107.4176851244534987
  0
ARC
  5
D23A
  8
0
 10
3513.8742861975820233
 20
168.8807054706610984
 30
0.0
 40
0.0275689735961647
 50
202.6861927604848006
 51
285.1620091046452217
  0
ARC
  5
D23B
  8
0
 10
3520.438361425677158
 20
171.6246591918904016
 30
0.0
 40
7.1420869210288824
 50
202.0283008658537938
 51
202.6861927604848006
  0
ARC
  5
D23C
  8
0
 10
3513.8374060831201859
 20
168.9539066284993112
 30
0.0
 40
0.0213053144008507
 50
163.9558941863423058
 51
202.0283008658433062
  0
ARC
  5
D23D
  8
0
 10
3513.8717358019771382
 20
169.0077676344145914
 30
0.0
 40
0.0251698337555767
 50
59.6727591044950216
 51
106.0815880045392987
  0
ARC
  5
D23E
  8
0
 10
3513.5830120585960685
 20
170.009282319139686
 30
0.0
 40
1.0171319765238129
 50
284.6012167230064165
 51
286.0815880045392987
  0
ARC
  5
D23F
  8
0
 10
3513.8324935525401997
 20
169.0540962301375885
 30
0.0
 40
0.0299096506551613
 50
200.6868543801975022
 51
283.3915597899293743
  0
ARC
  5
D240
  8
0
 10
3514.1580362748131847
 20
169.2158815834667109
 30
0.0
 40
0.3932990402896995
 50
193.813308046655095
 51
205.9903226227307869
  0
ARC
  5
D241
  8
0
 10
3513.8037982484479471
 20
169.1255029868960946
 30
0.0
 40
0.0279098630250433
 50
104.9705448591926
 51
187.2559998268409061
  0
ARC
  5
D242
  8
0
 10
3513.6840769596988139
 20
169.5668616671985092
 30
0.0
 40
0.4293984001112454
 50
285.1900352699018981
 51
287.7549468835156858
  0
ARC
  5
D243
  8
0
 10
3513.8055434803331991
 20
169.1812716878974925
 30
0.0
 40
0.0252054452250034
 50
292.0855997309312215
 51
19.314570080978811
  0
ARC
  5
D244
  8
0
 10
3513.8358204537939855
 20
169.1907944351854951
 30
0.0
 40
0.0065976316895782
 50
166.7126807462410909
 51
190.3552991223085087
  0
ARC
  5
D245
  8
0
 10
3513.8300061146828739
 20
169.192167528037487
 30
0.0
 40
0.0006233599116586
 50
44.1565736370275133
 51
166.7126807462267948
  0
ARC
  5
D246
  8
0
 10
3513.4406669888558099
 20
168.9665699157253869
 30
0.0
 40
0.4505816223027325
 50
19.8166557917834716
 51
30.108868660992929
  0
ARC
  5
D247
  8
0
 10
3513.8265869611418566
 20
169.0585585128382036
 30
0.0
 40
0.0264422336489207
 50
202.3627745240196987
 51
219.348053565364097
  0
ARC
  5
D248
  8
0
 10
3513.8064228311927764
 20
169.0420261033156919
 30
0.0
 40
0.0003670979596974
 50
219.3480535647194927
 51
278.9676873448469792
  0
ARC
  5
D249
  8
0
 10
3513.8061599334591847
 20
169.042098945894196
 30
0.0
 40
0.0005404594214066
 50
306.3211701622950045
 51
6.678477786191217
  0
ARC
  5
D24A
  8
0
 10
3513.4419400965630302
 20
168.9468106288522904
 30
0.0
 40
0.3770135862731479
 50
14.6498825302789104
 51
26.3371990673045602
  0
ARC
  5
D24B
  8
0
 10
3513.7730744474729363
 20
169.1106115226658062
 30
0.0
 40
0.0075814786820818
 50
27.173565222219171
 51
47.1570007752031231
  0
ARC
  5
D24C
  8
0
 10
3513.7780559962498046
 20
169.1159205080556944
 30
0.0
 40
0.0003043956635355
 50
55.18360247733888
 51
100.3597412871611994
  0
ARC
  5
D24D
  8
0
 10
3513.7780390946600164
 20
169.116012963411805
 30
0.0
 40
0.0002104081292172
 50
100.3597412866051002
 51
175.0067842992623071
  0
ARC
  5
D24E
  8
0
 10
3513.7795341074929638
 20
169.1155630158492045
 30
0.0
 40
0.0017677686878877
 50
164.6396918108405032
 51
182.6751813030475091
  0
ARC
  5
D24F
  8
0
 10
3520.0057722887349883
 20
171.5384370397229077
 30
0.0
 40
6.6326746519090012
 50
199.5552806154942118
 51
201.0324111899882951
  0
ARC
  5
D250
  8
0
 10
3514.0103437690459032
 20
168.6096453279978107
 30
0.0
 40
0.0285637118784105
 50
205.353839743956911
 51
284.6783141569276268
  0
ARC
  5
D251
  8
0
 10
3514.5828694238721255
 20
168.9094252700319885
 30
0.0
 40
0.6748032739015024
 50
202.2078099835109128
 51
207.5403694004533861
  0
ARC
  5
D252
  8
0
 10
3514.0165361368481172
 20
168.6848544104335872
 30
0.0
 40
0.0658877661901711
 50
180.5753997365036128
 51
207.5577755899685997
  0
ARC
  5
D253
  8
0
 10
3513.9576996732871521
 20
168.6587390553953014
 30
0.0
 40
0.0000981943960266
 50
49.6317902999772116
 51
103.1985009570925058
  0
ARC
  5
D254
  8
0
 10
3513.6907901338181546
 20
168.5134055045776051
 30
0.0
 40
0.3040037004931857
 50
19.6972840491711914
 51
28.575159680345859
  0
ARC
  5
D255
  8
0
 10
3513.9756360495020999
 20
168.6155413858136001
 30
0.0
 40
0.0014083795611787
 50
357.0251582966811839
 51
13.4990760579159694
  0
ARC
  5
D256
  8
0
 10
3513.9769488002848448
 20
168.6154731654526131
 30
0.0
 40
0.0000938573527895
 50
296.3406907837007225
 51
357.0251582927559753
  0
ARC
  5
D257
  8
0
 10
3513.9769683047888975
 20
168.6154337715474014
 30
0.0
 40
0.0000498993565021
 50
216.3094289234853136
 51
296.3406907877709955
  0
ARC
  5
D258
  8
0
 10
3514.0368944948440912
 20
168.6538887284395116
 30
0.0
 40
0.0712532545342415
 50
204.2724721007012931
 51
212.6910406563885942
  0
ARC
  5
D259
  8
0
 10
3514.2893458912521965
 20
168.7793837397865104
 30
0.0
 40
0.3531360740791287
 50
200.1342682984353871
 51
205.9965483194851004
  0
ARC
  5
D25A
  8
0
 10
3513.9608551167270889
 20
168.6588209998458012
 30
0.0
 40
0.0032218762519351
 50
180.9388096667263994
 51
197.9739016538441945
  0
ARC
  5
D25B
  8
0
 10
3513.9577215302751938
 20
168.6587581012022099
 30
0.0
 40
0.0000884370345966
 50
120.0439566994138971
 51
173.4359785408435073
  0
ARC
  5
D25C
  8
0
 10
3513.7486521501032257
 20
169.2219253794629026
 30
0.0
 40
0.0395054572846328
 50
21.9230806202019508
 51
105.2440425178652958
  0
ARC
  5
D25D
  8
0
 10
3514.7823234489160313
 20
165.4289088738804878
 30
0.0
 40
3.9708475392725742
 50
105.2440425178652958
 51
105.4412513848750024
  0
ARC
  5
D25E
  8
0
 10
3513.717742770879795
 20
169.2830041772089942
 30
0.0
 40
0.0275749780692252
 50
196.2069862890878937
 51
285.4412513848499771
  0
ARC
  5
D25F
  8
0
 10
3526.1912738931969216
 20
173.81046452521079
 30
0.0
 40
13.2972893209614291
 50
199.0627055048528007
 51
199.9413913980584994
  0
ARC
  5
D260
  8
0
 10
3513.6492266758978076
 20
169.4764836186514003
 30
0.0
 40
0.0275365767144909
 50
155.9777510418176121
 51
198.9677399325940996
  0
ARC
  5
D261
  8
0
 10
3513.815692761561877
 20
169.3105625326832069
 30
0.0
 40
0.0024872369133277
 50
222.8279769136495077
 51
274.4285500225545888
  0
ARC
  5
D262
  8
0
 10
3513.8535941741820352
 20
169.3442172987199967
 30
0.0
 40
0.0531735810782196
 50
206.2005807170733078
 51
221.660913942790188
  0
ARC
  5
D263
  8
0
 10
3513.7896881947758629
 20
169.3008068545443905
 30
0.0
 40
0.0256836161185391
 50
50.9064924345855019
 51
105.6738297542243004
  0
ARC
  5
D264
  8
0
 10
3513.5475176678278331
 20
170.1599698269654937
 30
0.0
 40
0.8669572067180826
 50
283.8926429121464139
 51
285.7441795874697164
  0
ARC
  5
D265
  8
0
 10
3513.7522370988549483
 20
169.3478629808172968
 30
0.0
 40
0.0296894944482978
 50
233.7075339459742906
 51
276.6534505923269762
  0
ARC
  5
D266
  8
0
 10
3514.085127279702192
 20
169.5025910571083898
 30
0.0
 40
0.3974579074765682
 50
193.7930791961954071
 51
204.2262300605405869
  0
ARC
  5
D267
  8
0
 10
3513.7263033022991294
 20
169.4201790534607142
 30
0.0
 40
0.0281333164611862
 50
105.315806390833302
 51
163.344966087705302
  0
ARC
  5
D268
  8
0
 10
3513.7618660049279242
 20
169.3572910156298121
 30
0.0
 40
0.0430432295490054
 50
204.4171175996355032
 51
230.8038659914060133
  0
ARC
  5
D269
  8
0
 10
3513.7259938014158251
 20
169.482980702959992
 30
0.0
 40
0.0325272656496501
 50
287.0751228044093182
 51
334.8661642293910745
  0
LINE
  5
D26A
  8
0
 10
3513.718872192400795
 20
169.4473132035448941
 30
0.0
 11
3513.7355446296401169
 21
169.4518872198665065
 31
0.0
  0
ARC
  5
D26B
  8
0
 10
3513.7198929752939875
 20
169.35375977712539
 30
0.0
 40
0.0003550258867186
 50
257.1023154742284191
 51
352.3051911686005724
  0
ARC
  5
D26C
  8
0
 10
3513.7216093477650247
 20
169.3563627808256058
 30
0.0
 40
0.0034527195066486
 50
209.6055976704521129
 51
238.6637868768164878
  0
ARC
  5
D26D
  8
0
 10
3513.856845255520966
 20
169.4257917496063044
 30
0.0
 40
0.1554665657158921
 50
191.122079671111095
 51
207.2295313370183862
  0
ARC
  5
D26E
  8
0
 10
3513.7120299611401606
 20
169.3967770112735138
 30
0.0
 40
0.0077925688398565
 50
176.5931332675772865
 51
187.1859994928720141
  0
ARC
  5
D26F
  8
0
 10
3513.705737440824123
 20
169.3972487396517863
 30
0.0
 40
0.001486301972758
 50
150.8340063367340065
 51
180.3333412152902895
  0
ARC
  5
D270
  8
0
 10
3513.7046995254818285
 20
169.397828002756512
 30
0.0
 40
0.0002976834469864
 50
58.3146646540945284
 51
150.8340063367581934
  0
ARC
  5
D271
  8
0
 10
3513.6957937937318093
 20
169.388902996660903
 30
0.0
 40
0.012898179186518
 50
23.3111321042248392
 51
45.365082145232499
  0
ARC
  5
D272
  8
0
 10
3513.5476385032161488
 20
169.319109613088699
 30
0.0
 40
0.1766630210444791
 50
12.7906241195715804
 51
25.0846546876198992
  0
ARC
  5
D273
  8
0
 10
3513.7067298050651516
 20
169.3549979900276981
 30
0.0
 40
0.0135760213644476
 50
354.5655212693199019
 51
13.7327512774631106
  0
ARC
  5
D274
  8
0
 10
3513.7417647431470868
 20
169.4175793848104092
 30
0.0
 40
0.0437342860989939
 50
165.8883910262995016
 51
192.8798783452488124
  0
ARC
  5
D275
  8
0
 10
3513.8155391416989914
 20
169.3093208295181
 30
0.0
 40
0.0012854613963177
 50
285.5969728748607963
 51
336.2340188296233237
  0
ARC
  5
D276
  8
0
 10
3513.7050591507249919
 20
169.311667035669899
 30
0.0
 40
0.1116931754153956
 50
358.5305511553810902
 51
17.21101879799388
  0
ARC
  5
D277
  8
0
 10
3513.0551422877160803
 20
169.1476913929460864
 30
0.0
 40
0.7818409639795704
 50
14.5959548286359801
 51
22.6515016610861508
  0
ARC
  5
D278
  8
0
 10
3513.6924931338971874
 20
169.4077277326487092
 30
0.0
 40
0.0389020002339901
 50
64.1132371142530104
 51
105.3499413031355942
  0
ARC
  5
D279
  8
0
 10
3516.6255885182740712
 20
158.7227376669623027
 30
0.0
 40
11.1191574683027703
 50
105.3499413031355942
 51
105.413282650786698
  0
ARC
  5
D27A
  8
0
 10
3513.6636854422181386
 20
169.4727219713396096
 30
0.0
 40
0.0314531993034926
 50
192.8516319965108039
 51
282.2202582176213923
  0
ARC
  5
D27B
  8
0
 10
3514.8676041775811427
 20
169.9703911545074959
 30
0.0
 40
1.3337483540554229
 50
193.4566701139081033
 51
202.2334430308503954
  0
ARC
  5
D27C
  8
0
 10
3513.5987734485411238
 20
169.6623453324509114
 30
0.0
 40
0.0283969517455586
 50
105.8582277749996052
 51
184.7078505942048992
  0
ARC
  5
D27D
  8
0
 10
3513.5822458477541659
 20
169.7342967505367994
 30
0.0
 40
0.0454882416624282
 50
281.1133771807195103
 51
343.5550327290674204
  0
ARC
  5
D27E
  8
0
 10
3513.5809450880769873
 20
169.6281607009395884
 30
0.0
 40
0.000706943208563
 50
133.0602907347669088
 51
184.2687132351304911
  0
ARC
  5
D27F
  8
0
 10
3514.4995727289438037
 20
169.8540275932001009
 30
0.0
 40
0.9466847933728388
 50
193.8064513629300052
 51
202.593494221219288
  0
ARC
  5
D280
  8
0
 10
3513.5994479655560099
 20
169.4739314905874039
 30
0.0
 40
0.0308141192921849
 50
28.5372370649691796
 51
32.1312323490140415
  0
ARC
  5
D281
  8
0
 10
3513.6282066144917735
 20
169.4896757417646995
 30
0.0
 40
0.0019742193688104
 50
211.2247322728823065
 51
238.0477906005448858
  0
ARC
  5
D282
  8
0
 10
3513.6272228611819628
 20
169.4881720271658878
 30
0.0
 40
0.0001819311265993
 50
250.4007902396730003
 51
340.3187706771391845
  0
ARC
  5
D283
  8
0
 10
3513.6218465158899562
 20
169.4891203103184125
 30
0.0
 40
0.0056387588920412
 50
349.6862375459148211
 51
11.3895497694474503
  0
ARC
  5
D284
  8
0
 10
3512.6601918894639311
 20
169.2436190324420977
 30
0.0
 40
0.9981285232248966
 50
14.3046237427663296
 51
22.6249644906424905
  0
ARC
  5
D285
  8
0
 10
3513.5794570504990588
 20
169.6266599362002125
 30
0.0
 40
0.0022539248844686
 50
24.5557934902785817
 51
63.5095626268390916
  0
ARC
  5
D286
  8
0
 10
3510.8550771642608197
 20
168.6435711874457013
 30
0.0
 40
2.9803929896161501
 50
15.6764381399063897
 51
21.0936193215828496
  0
LINE
  5
D287
  8
0
 10
3513.5911596936011847
 20
169.8125741255547041
 30
0.0
 11
3513.5758225027420849
 21
169.8598987031313072
 31
0.0
  0
ARC
  5
D288
  8
0
 10
3513.5470595841688919
 20
169.8314494731926914
 30
0.0
 40
0.0404557062592391
 50
44.6858559730393665
 51
103.4246244021733929
  0
ARC
  5
D289
  8
0
 10
3513.4622425340007794
 20
170.0952412612244871
 30
0.0
 40
0.2367759547000382
 50
284.2651188084735168
 51
288.5751637258751998
  0
ARC
  5
D28A
  8
0
 10
3513.5154040106808679
 20
169.885422961088409
 30
0.0
 40
0.020328526526427
 50
199.0898213169691928
 51
284.7691672949325721
  0
ARC
  5
D28B
  8
0
 10
3513.482287866454044
 20
169.9973937021480879
 30
0.0
 40
0.0204646088645833
 50
119.7465455559943024
 51
192.4929498528734939
  0
ARC
  5
D28C
  8
0
 10
3513.4918495445408553
 20
169.8948162683417991
 30
0.0
 40
0.0002089392879692
 50
209.1759134965950864
 51
264.6652473577601086
  0
ARC
  5
D28D
  8
0
 10
3513.4918350838079277
 20
169.8946614076855042
 30
0.0
 40
0.0000534049326761
 50
264.6652473544629061
 51
13.7115573132658994
  0
ARC
  5
D28E
  8
0
 10
3513.3610885049010903
 20
169.874195078643595
 30
0.0
 40
0.1323919429950872
 50
8.8985015234679832
 51
16.2228281752908217
  0
ARC
  5
D28F
  8
0
 10
3514.0821482210239992
 20
170.1266391973840086
 30
0.0
 40
0.6340902522882752
 50
192.1698081399528917
 51
197.9629924198517017
  0
ARC
  5
D290
  8
0
 10
3513.7752229925217762
 20
169.999659832333009
 30
0.0
 40
0.3040900647538721
 50
193.0329454938091089
 51
203.423938055454812
  0
ARC
  5
D291
  8
0
 10
3513.4678987656279787
 20
169.9772804880036858
 30
0.0
 40
0.0008508460430923
 50
152.4172074599318876
 51
190.9361855488592994
  0
ARC
  5
D292
  8
0
 10
3513.9249142260828194
 20
170.0771472472382868
 30
0.0
 40
0.4686502333608495
 50
192.3239555599803907
 51
197.0615975411766954
  0
ARC
  5
D293
  8
0
 10
3513.9846670247688962
 20
170.0817572883998992
 30
0.0
 40
0.527289246668177
 50
195.6353509587603128
 51
200.7766142694920006
  0
ARC
  5
D294
  8
0
 10
3513.1051454625971928
 20
169.827671779244298
 30
0.0
 40
0.3920606553683126
 50
12.2983984125107302
 51
22.3872191010957415
  0
ARC
  5
D295
  8
0
 10
3513.4656241105849404
 20
169.9761562927166096
 30
0.0
 40
0.0021984920380638
 50
22.3872191010972514
 51
40.7855584908460713
  0
ARC
  5
D296
  8
0
 10
3513.4671012113958568
 20
169.9774306423740029
 30
0.0
 40
0.0002476476429379
 50
40.7855584900812929
 51
79.9037803252565197
  0
ARC
  5
D297
  8
0
 10
3514.7145127121079895
 20
163.2290804075340134
 30
0.0
 40
0.0196944617000037
 50
180.0000000000098055
 51
269.973448393676108
  0
ARC
  5
D298
  8
0
 10
3370.0523670600659898
 20
163.2290804075078938
 30
0.0
 40
144.6424511903416033
 50
0.0000000000097707
 51
0.6844315025183354
  0
ARC
  5
D299
  8
0
 10
3491.3720743442618186
 20
164.0256032628317939
 30
0.0
 40
23.3310176673767984
 50
2.2876103276131818
 51
6.530912461745892
  0
ARC
  5
D29A
  8
0
 10
3508.4828701288079174
 20
165.8118505975336063
 30
0.0
 40
6.130493334063293
 50
8.134091286840551
 51
11.6377987748414498
  0
ARC
  5
D29B
  8
0
 10
3512.8037647040691809
 20
166.9217328447547004
 30
0.0
 40
1.6883376690418159
 50
4.3066938524495253
 51
24.6812925017059115
  0
ARC
  5
D29C
  8
0
 10
3502.2294140805620373
 20
163.843732313451909
 30
0.0
 40
12.6856470312769094
 50
17.3501875793191687
 51
20.299072611437861
  0
ARC
  5
D29D
  8
0
 10
3538.765968097412042
 20
177.3583417370876134
 30
0.0
 40
26.2702825212261288
 50
199.6133802987899912
 51
200.007458631167907
  0
ARC
  5
D29E
  8
0
 10
3513.7452230812227754
 20
168.2848464954940937
 30
0.0
 40
0.4529270546557821
 50
19.3291280773139995
 51
30.3881278629960292
  0
ARC
  5
D29F
  8
0
 10
3514.1198671803767866
 20
168.504544545450301
 30
0.0
 40
0.0186167575345494
 50
30.3881278629960292
 51
56.8528683852012975
  0
ARC
  5
D2A0
  8
0
 10
3514.1289212635028889
 20
168.5184085384697994
 30
0.0
 40
0.0020581729424088
 50
56.8528683852021928
 51
131.4039652697152007
  0
ARC
  5
D2A1
  8
0
 10
3514.1613563473260911
 20
168.5114421846162998
 30
0.0
 40
0.034851269383008
 50
165.8663916610358058
 51
195.4713582238730112
  0
ARC
  5
D2A2
  8
0
 10
3514.1029943913667921
 20
168.50893245129771
 30
0.0
 40
0.0256864485447553
 50
285.0457276561813273
 51
344.6789262207886964
  0
ARC
  5
D2A3
  8
0
 10
3531.9617428792807914
 20
103.6104533517872994
 30
0.0
 40
67.2851414168625155
 50
105.3859564757569984
 51
105.4001894294435999
  0
ARC
  5
D2A4
  8
0
 10
3514.1028869871829556
 20
168.4503562942597057
 30
0.0
 40
0.030784509550074
 50
107.6609056125968067
 51
197.5007526388903045
  0
ARC
  5
D2A5
  8
0
 10
3514.1285331233061697
 20
168.3806146960058925
 30
0.0
 40
0.0286186431294833
 50
240.3451613621737977
 51
285.0788734161446882
  0
ARC
  5
D2A6
  8
0
 10
3514.3243553932170471
 20
168.4972567399202887
 30
0.0
 40
0.2570377270844713
 50
192.6198424053984013
 51
210.759401554671399
  0
ARC
  5
D2A7
  8
0
 10
3514.1315100493188766
 20
168.3852475499159027
 30
0.0
 40
0.0341188727832617
 50
214.7520866689287118
 51
239.8501003450859059
  0
ARC
  5
D2A8
  8
0
 10
3514.6320459418329847
 20
166.5740029291455926
 30
0.0
 40
1.846848044560788
 50
104.6705963179501992
 51
105.581121183596693
  0
ARC
  5
D2A9
  8
0
 10
3514.1689731175310953
 20
168.3358560107174071
 30
0.0
 40
0.025218547423143
 50
55.2853528167741004
 51
100.6548528269426015
  0
ARC
  5
D2AA
  8
0
 10
3514.2267506839962152
 20
168.380195593038394
 30
0.0
 40
0.0494203211913284
 50
208.5377832929708859
 51
227.0745316379230019
  0
ARC
  5
D2AB
  8
0
 10
3514.1949755537989404
 20
168.3465882681445862
 30
0.0
 40
0.0031938990079161
 50
233.8873645541293058
 51
266.6445318974202792
  0
ARC
  5
D2AC
  8
0
 10
3514.1946492013421448
 20
168.3450369908742914
 30
0.0
 40
0.0016430713084668
 50
274.8673071341926857
 51
340.2227645810406784
  0
ARC
  5
D2AD
  8
0
 10
3513.8692683277058677
 20
168.3073288570801935
 30
0.0
 40
0.3290312545686953
 50
6.4833122499648743
 51
22.7866097424804686
  0
ARC
  5
D2AE
  8
0
 10
3513.9749080459728248
 20
168.3674882772959904
 30
0.0
 40
0.1231242080872031
 50
18.7326696996907494
 51
29.96118855440875
  0
ARC
  5
D2AF
  8
0
 10
3514.0764499757951853
 20
168.4260218626714902
 30
0.0
 40
0.0059194977344087
 50
29.9611885544200405
 51
51.0115215143903526
  0
ARC
  5
D2B0
  8
0
 10
3514.0796123547820571
 20
168.4299286815625862
 30
0.0
 40
0.0008931795287994
 50
51.0115215148257519
 51
95.5032357756496992
  0
ARC
  5
D2B1
  8
0
 10
3514.0800024377908812
 20
168.4301261368377993
 30
0.0
 40
0.0008394343262577
 50
124.5231803862079971
 51
177.4171217816985973
  0
ARC
  5
D2B2
  8
0
 10
3514.1737336757250887
 20
168.4433399946138081
 30
0.0
 40
0.0954832890964753
 50
187.9317285923249869
 51
203.4055180604337068
  0
ARC
  5
D2B3
  8
0
 10
3514.1733303073178831
 20
168.4374564395079972
 30
0.0
 40
0.0929237649848665
 50
200.1733691092917979
 51
212.5248539701995867
  0
ARC
  5
D2B4
  8
0
 10
3514.0974411890160809
 20
168.3894388299509899
 30
0.0
 40
0.0031358317014771
 50
218.3177349061805046
 51
238.8656537103233006
  0
ARC
  5
D2B5
  8
0
 10
3514.096066544830137
 20
168.3870920006862093
 30
0.0
 40
0.0004179129842353
 50
233.8161489473029917
 51
332.6605608768869047
  0
ARC
  5
D2B6
  8
0
 10
3514.0916254147000473
 20
168.3882813537335039
 30
0.0
 40
0.0050066737161359
 50
343.98502373180429
 51
10.5197959378795307
  0
ARC
  5
D2B7
  8
0
 10
3513.994655182068982
 20
168.3700416045467136
 30
0.0
 40
0.1036773985470538
 50
10.6462447996382803
 51
20.90160770857673
  0
ARC
  5
D2B8
  8
0
 10
3514.1215594896862058
 20
168.2653848170834863
 30
0.0
 40
0.112300922303786
 50
102.0381780839889956
 51
111.6719122473407992
  0
ARC
  5
D2B9
  8
0
 10
3514.0943580387438487
 20
168.3422834476239132
 30
0.0
 40
0.0309503027736038
 50
117.4562549295905995
 51
205.3951553950662117
  0
ARC
  5
D2BA
  8
0
 10
3514.4108435536732031
 20
168.4327057193403903
 30
0.0
 40
0.3597154799250752
 50
196.7544780473726007
 51
208.8402046253208084
  0
ARC
  5
D2BB
  8
0
 10
3514.1215533897297973
 20
168.2737103509251995
 30
0.0
 40
0.0296133083666489
 50
209.361699070904109
 51
281.0185652801314973
  0
ARC
  5
D2BC
  8
0
 10
3514.6501832425437897
 20
166.4274908522600924
 30
0.0
 40
1.890909656980529
 50
105.1770689457778047
 51
106.0556313471716976
  0
ARC
  5
D2BD
  8
0
 10
3514.1623738623061399
 20
168.2274036637315078
 30
0.0
 40
0.0260689449766878
 50
48.904209300152182
 51
106.1160595726578038
  0
ARC
  5
D2BE
  8
0
 10
3514.2122854570347954
 20
168.2629082995966883
 30
0.0
 40
0.036411045068409
 50
205.8201978594904062
 51
226.4715693300609871
  0
ARC
  5
D2BF
  8
0
 10
3514.1879191733200969
 20
168.2372224873275002
 30
0.0
 40
0.0010068619293146
 50
225.1150084620975065
 51
357.1523089081543958
  0
ARC
  5
D2C0
  8
0
 10
3513.7446862168189909
 20
168.1424583573142115
 30
0.0
 40
0.4542231542383563
 50
12.0355695335746198
 51
23.880718320851809
  0
ARC
  5
D2C1
  8
0
 10
3513.037182563440183
 20
167.8718877756055008
 30
0.0
 40
1.2113221864734001
 50
22.0350123273501985
 51
23.5645336290478902
  0
ARC
  5
D2C2
  8
0
 10
3514.0885393688117802
 20
168.2793604291838108
 30
0.0
 40
0.0006294790297621
 50
218.9341923611073071
 51
266.3637296821992777
  0
ARC
  5
D2C3
  8
0
 10
3514.0884020534508636
 20
168.2789841816035903
 30
0.0
 40
0.000270131845274
 50
291.1331402789444951
 51
351.9775574290109148
  0
ARC
  5
D2C4
  8
0
 10
3513.9941643346001001
 20
168.2603834598853041
 30
0.0
 40
0.096311058239177
 50
11.1127481026049502
 51
23.2404358315993491
  0
ARC
  5
D2C5
  8
0
 10
3513.8997818590628412
 20
168.2288513852176095
 30
0.0
 40
0.1956521374566587
 50
20.8181907041989511
 51
27.8684539451495006
  0
ARC
  5
D2C6
  8
0
 10
3514.0564533339338595
 20
168.3104887467627009
 30
0.0
 40
0.0190199827503126
 50
31.0804287410585509
 51
38.9008583697855101
  0
ARC
  5
D2C7
  8
0
 10
3514.0707896592762154
 20
168.322057057637096
 30
0.0
 40
0.0005983639078187
 50
38.9008583702746122
 51
89.4328841923748143
  0
ARC
  5
D2C8
  8
0
 10
3514.0709689960522155
 20
168.3223722463953891
 30
0.0
 40
0.000332030218629
 50
121.4856179372379046
 51
175.628822939599587
  0
ARC
  5
D2C9
  8
0
 10
3514.1883709217459
 20
168.3477348909493969
 30
0.0
 40
0.120428558323797
 50
192.1453900643020916
 51
204.4023284702018088
  0
ARC
  5
D2CA
  8
0
 10
3514.1755665530718034
 20
168.333798116665406
 30
0.0
 40
0.103275766822407
 50
200.2924335010586105
 51
212.0690109279101989
  0
ARC
  5
D2CB
  8
0
 10
3503.5747414536472206
 20
165.8453075622578012
 30
0.0
 40
11.0240897689626092
 50
8.7976534858551858
 51
12.2231014816710104
  0
ARC
  5
D2CC
  8
0
 10
3510.5926978888069243
 20
166.53431991061791
 30
0.0
 40
4.002607668015723
 50
8.2588252600230891
 51
14.4245790414254493
  0
ARC
  5
D2CD
  8
0
 10
3513.002562359914009
 20
166.9578640194600894
 30
0.0
 40
1.5586050748866871
 50
351.4799625284397848
 51
5.5747905769292956
  0
LINE
  5
D2CF
  8
0
 10
3515.6495501032081847
 20
163.1424628767339868
 30
0.0
 11
3515.6402326225661454
 21
162.9188844520114117
 31
0.0
  0
ARC
  5
D2D0
  8
0
 10
3515.2649456982699121
 20
162.5745974355081103
 30
0.0
 40
0.5092875663908707
 50
309.2346303464801736
 51
48.2865334483727366
  0
ARC
  5
D2D1
  8
0
 10
3515.573703560964077
 20
162.1945741721382888
 30
0.0
 40
0.0196845806156714
 50
178.7491113497758874
 51
312.7633974329900752
  0
LINE
  5
D2D2
  8
0
 10
3515.5540236714077764
 20
162.1950038942339916
 30
0.0
 11
3515.5703058323078949
 21
162.9412047603339886
 31
0.0
  0
ARC
  5
D2D3
  8
0
 10
3515.5899864124899068
 20
162.9407747798842081
 30
0.0
 40
0.019685276718318
 50
45.3176925765136787
 51
178.7483944273554926
  0
ARC
  5
D2D4
  8
0
 10
3516.7587937725070333
 20
161.4824316491367995
 30
0.0
 40
0.553403966794873
 50
77.9840896350877273
 51
103.6041670863207997
  0
ARC
  5
D2D5
  8
0
 10
3514.3229666211900621
 20
130.5695001604983077
 30
0.0
 40
0.4232018284695204
 50
228.5286727157408961
 51
269.5672879538433904
  0
ARC
  5
D2D6
  8
0
 10
3514.316574430007222
 20
130.5695001604983077
 30
0.0
 40
0.4232018284695204
 50
270.4327120457917886
 51
307.8130143536224068
  0
LINE
  5
D2D7
  8
0
 10
3513.0673662969638826
 20
148.1934401477982988
 30
0.0
 11
3513.8170272986180862
 21
148.1934401477982988
 31
0.0
  0
ENDSEC
  0
EOF
