  0
SECTION
  2
HEADER
  9
$ACADVER
  1
AC1009
  9
$INSBASE
 10
3959.039269419150969
 20
67.5056879542899537
 30
0.0
  9
$EXTMIN
 10
3956.814859970344969
 20
64.0411210251899519
 30
0.0
  9
$EXTMAX
 10
3961.263678867956969
 20
67.5103168954319415
 30
0.0
  9
$LIMMIN
 10
0.0
 20
0.0
  9
$LIMMAX
 10
11.6929133858000007
 20
8.2677165353999982
  9
$ORTHOMODE
 70
     0
  9
$REGENMODE
 70
     1
  9
$FILLMODE
 70
     1
  9
$QTEXTMODE
 70
     0
  9
$MIRRTEXT
 70
     0
  9
$DRAGMODE
 70
     2
  9
$LTSCALE
 40
0.6431102362
  9
$OSMODE
 70
  3839
  9
$ATTMODE
 70
     1
  9
$TEXTSIZE
 40
0.2
  9
$TRACEWID
 40
0.05
  9
$TEXTSTYLE
  7
STANDARD
  9
$CLAYER
  8
0
  9
$CELTYPE
  6
BYLAYER
  9
$CECOLOR
 62
   256
  9
$DIMSCALE
 40
1.0
  9
$DIMASZ
 40
0.1875
  9
$DIMEXO
 40
0.0625
  9
$DIMDLI
 40
0.4443307087
  9
$DIMRND
 40
0.0
  9
$DIMDLE
 40
0.0
  9
$DIMEXE
 40
0.125
  9
$DIMTP
 40
0.01
  9
$DIMTM
 40
0.01
  9
$DIMTXT
 40
2.0
  9
$DIMCEN
 40
0.1052362205
  9
$DIMTSZ
 40
0.0
  9
$DIMTOL
 70
     1
  9
$DIMLIM
 70
     0
  9
$DIMTIH
 70
     1
  9
$DIMTOH
 70
     1
  9
$DIMSE1
 70
     0
  9
$DIMSE2
 70
     0
  9
$DIMTAD
 70
     0
  9
$DIMZIN
 70
     0
  9
$DIMBLK
  1

  9
$DIMASO
 70
     1
  9
$DIMSHO
 70
     1
  9
$DIMPOST
  1
\X
  9
$DIMAPOST
  1

  9
$DIMALT
 70
     1
  9
$DIMALTD
 70
     2
  9
$DIMALTF
 40
25.3999999999999986
  9
$DIMLFAC
 40
1.0
  9
$DIMTOFL
 70
     0
  9
$DIMTVP
 40
0.0
  9
$DIMTIX
 70
     0
  9
$DIMSOXD
 70
     0
  9
$DIMSAH
 70
     0
  9
$DIMBLK1
  1

  9
$DIMBLK2
  1

  9
$DIMSTYLE
  2
STANDARD
  9
$DIMCLRD
 70
     0
  9
$DIMCLRE
 70
     0
  9
$DIMCLRT
 70
     0
  9
$DIMTFAC
 40
1.0
  9
$DIMGAP
 40
0.09
  9
$LUNITS
 70
     2
  9
$LUPREC
 70
     4
  9
$SKETCHINC
 40
0.1
  9
$FILLETRAD
 40
0.0
  9
$AUNITS
 70
     0
  9
$AUPREC
 70
     0
  9
$MENU
  1
.
  9
$ELEVATION
 40
0.0
  9
$PELEVATION
 40
0.0
  9
$THICKNESS
 40
0.0
  9
$LIMCHECK
 70
     0
  9
$BLIPMODE
 70
     0
  9
$CHAMFERA
 40
0.0
  9
$CHAMFERB
 40
0.0
  9
$SKPOLY
 70
     0
  9
$TDCREATE
 40
2458060.468368056230247
  9
$TDUPDATE
 40
2459131.6679282411932945
  9
$TDINDWG
 40
0.4282825231
  9
$TDUSRTIMER
 40
0.4282825231
  9
$USRTIMER
 70
     1
  9
$ANGBASE
 50
0.0
  9
$ANGDIR
 70
     0
  9
$PDMODE
 70
     0
  9
$PDSIZE
 40
0.3125
  9
$PLINEWID
 40
0.0
  9
$COORDS
 70
     1
  9
$SPLFRAME
 70
     0
  9
$SPLINETYPE
 70
     6
  9
$SPLINESEGS
 70
     8
  9
$ATTDIA
 70
     1
  9
$ATTREQ
 70
     1
  9
$HANDLING
 70
     1
  9
$HANDSEED
  5
7FF0
  9
$SURFTAB1
 70
     6
  9
$SURFTAB2
 70
     6
  9
$SURFTYPE
 70
     6
  9
$SURFU
 70
     6
  9
$SURFV
 70
     6
  9
$UCSNAME
  2

  9
$UCSORG
 10
0.0
 20
0.0
 30
0.0
  9
$UCSXDIR
 10
1.0
 20
0.0
 30
0.0
  9
$UCSYDIR
 10
0.0
 20
1.0
 30
0.0
  9
$PUCSNAME
  2

  9
$PUCSORG
 10
0.0
 20
0.0
 30
0.0
  9
$PUCSXDIR
 10
1.0
 20
0.0
 30
0.0
  9
$PUCSYDIR
 10
0.0
 20
1.0
 30
0.0
  9
$USERI1
 70
     0
  9
$USERI2
 70
     0
  9
$USERI3
 70
     0
  9
$USERI4
 70
     0
  9
$USERI5
 70
     0
  9
$USERR1
 40
0.0
  9
$USERR2
 40
0.0
  9
$USERR3
 40
0.0
  9
$USERR4
 40
0.0
  9
$USERR5
 40
0.0
  9
$WORLDVIEW
 70
     1
  9
$SHADEDGE
 70
     3
  9
$SHADEDIF
 70
    70
  9
$TILEMODE
 70
     1
  9
$MAXACTVP
 70
    64
  9
$PLIMCHECK
 70
     0
  9
$PEXTMIN
 10
1.0000000000000000E+20
 20
1.0000000000000000E+20
 30
1.0000000000000000E+20
  9
$PEXTMAX
 10
-1.0000000000000000E+20
 20
-1.0000000000000000E+20
 30
-1.0000000000000000E+20
  9
$PLIMMIN
 10
0.0
 20
0.0
  9
$PLIMMAX
 10
12.0
 20
9.0
  9
$UNITMODE
 70
     0
  9
$VISRETAIN
 70
     1
  9
$PLINEGEN
 70
     0
  9
$PSLTSCALE
 70
     1
  0
ENDSEC
  0
SECTION
  2
TABLES
  0
TABLE
  2
VPORT
 70
     1
  0
VPORT
  2
*ACTIVE
 70
     0
 10
0.0
 20
0.0
 11
1.0
 21
1.0
 12
0.0
 22
0.0
 13
0.0
 23
0.0
 14
1.0
 24
1.0
 15
0.0
 25
0.0
 16
0.0
 26
0.0
 36
22.3086681875447184
 17
3959.039306640625
 27
65.7757196659776753
 37
0.0
 40
5.6414991781711592
 41
3.1396160558464219
 42
50.0
 43
0.0
 44
0.0
 50
0.0
 51
0.0
 71
     0
 72
   100
 73
     1
 74
     1
 75
     0
 76
     0
 77
     0
 78
     0
  0
ENDTAB
  0
TABLE
  2
LTYPE
 70
     2
  0
LTYPE
  2
CONTINUOUS
 70
     0
  3
Solid line
 72
    65
 73
     0
 40
0.0
  0
LTYPE
  2
PHANTOM2
 70
     0
  3
___ _ _ ___ _ _ ___ _ _ ___ _ _
 72
    65
 73
     6
 40
1.25
 49
0.625
 49
-0.125
 49
0.125
 49
-0.125
 49
0.125
 49
-0.125
  0
ENDTAB
  0
TABLE
  2
LAYER
 70
     2
  0
LAYER
  2
0
 70
     0
 62
   255
  6
CONTINUOUS
  0
LAYER
  2
DEFPOINTS
 70
     0
 62
     7
  6
CONTINUOUS
  0
ENDTAB
  0
TABLE
  2
STYLE
 70
     1
  0
STYLE
  2
STANDARD
 70
     0
 40
0.0
 41
0.8
 50
0.0
 71
     0
 42
0.2
  3
txt
  4

  0
ENDTAB
  0
TABLE
  2
VIEW
 70
     0
  0
ENDTAB
  0
TABLE
  2
UCS
 70
     0
  0
ENDTAB
  0
TABLE
  2
APPID
 70
     9
  0
APPID
  2
ACAD
 70
     0
  0
APPID
  2
ACAD_MLEADERVER
 70
     0
  0
APPID
  2
ACAD_EXEMPT_FROM_CAD_STANDARDS
 70
     0
  0
APPID
  2
ACAD_NAV_VCDISPLAY
 70
     0
  0
APPID
  2
ACAECLAYERSTANDARD
 70
     0
  0
APPID
  2
ACCMTRANSPARENCY
 70
     0
  0
APPID
  2
ACAD_DSTYLE_DIMJAG
 70
     0
  0
APPID
  2
ACAD_DSTYLE_DIMTALN
 70
     0
  0
APPID
  2
ACDBATTR
 70
     0
  0
ENDTAB
  0
TABLE
  2
DIMSTYLE
 70
     1
  0
DIMSTYLE
  2
STANDARD
 70
     0
  3

  4

  5

  6

  7

 40
1.0
 41
0.1875
 42
0.0625
 43
0.38
 44
0.125
 45
0.0
 46
0.0
 47
0.01
 48
0.01
140
0.15625
141
0.09
142
0.0
143
25.3999999999999986
144
1.0
145
0.0
146
1.0
147
0.09
 71
     1
 72
     0
 73
     1
 74
     1
 75
     0
 76
     0
 77
     0
 78
     4
170
     0
171
     2
172
     0
173
     0
174
     0
175
     0
176
     0
177
     0
178
     0
  0
ENDTAB
  0
ENDSEC
  0
SECTION
  2
BLOCKS
  0
BLOCK
  8
0
  2
$MODEL_SPACE
 70
     0
 10
0.0
 20
0.0
 30
0.0
  3
$MODEL_SPACE
  1

  0
ENDBLK
  5
21
  8
0
  0
BLOCK
 67
     1
  8
0
  2
$PAPER_SPACE
 70
     0
 10
0.0
 20
0.0
 30
0.0
  3
$PAPER_SPACE
  1

  0
ENDBLK
  5
1D
 67
     1
  8
0
  0
BLOCK
  8
0
  2
_FILLED
 70
     0
 10
0.0
 20
0.0
 30
0.0
  3
_FILLED
  1

  0
SOLID
  5
7BB2
  8
0
  6
BYBLOCK
 62
     0
 10
0.0
 20
0.0
 30
0.0
 11
-1.0
 21
0.1666666667
 31
0.0
 12
-1.0
 22
-0.1666666667
 32
0.0
 13
-1.0
 23
-0.1666666667
 33
0.0
  0
ENDBLK
  5
7BB3
  8
0
  6
BYBLOCK
 62
     0
  0
ENDSEC
  0
SECTION
  2
ENTITIES
  0
ATTDEF
  5
3930
  8
DEFPOINTS
 10
3959.0396697763080738
 20
67.5093168954319083
 30
0.0
 40
0.001
  1
K-73100IN-4
  3

  2
MODELNUMBER
 70
     0
1001
ACDBATTR
1070
     0
1070
     1
  0
ATTDEF
  5
3931
  8
DEFPOINTS
 10
3959.0396697763080738
 20
67.5076502287652431
 30
0.0
 40
0.001
  1
COMPOSED
  3

  2
TRADENAME
 70
     0
1001
ACDBATTR
1070
     0
1070
     1
  0
ATTDEF
  5
3932
  8
DEFPOINTS
 10
3959.0396697763080738
 20
67.505983562098578
 30
0.0
 40
0.001
  1
VALVE TRIM
  3

  2
PRODUCT
 70
     0
1001
ACDBATTR
1070
     0
1070
     1
  0
LINE
  5
7D3F
  8
0
 10
3961.263678867956969
 20
67.5056879542899537
 30
0.0
 11
3956.814859970344969
 21
67.5056879542899537
 31
0.0
  0
LINE
  5
7D40
  8
0
 10
3960.003836348250843
 20
65.8442706315606614
 30
0.0
 11
3960.003836348250843
 21
67.0148552099971226
 31
0.0
  0
LINE
  5
7D41
  8
0
 10
3960.003836348250843
 20
65.8206485841899536
 30
0.0
 11
3960.003836348250843
 21
64.8206485841899536
 31
0.0
  0
LINE
  5
7D42
  8
0
 10
3960.003836348250843
 20
64.7300974030899567
 30
0.0
 11
3959.9980962059521516
 21
64.0723422366811519
 31
0.0
  0
ARC
  5
7D43
  8
0
 10
3959.9920253244799824
 20
65.8442706315606614
 30
0.0
 40
0.0118110237707097
 50
270.000000828109421
 51
359.9999996569927134
  0
ARC
  5
7D44
  8
0
 10
3959.9920253246509674
 20
65.8206485841899536
 30
0.0
 40
0.0118110236000018
 50
0.0
 51
90.0
  0
LINE
  5
7D45
  8
0
 10
3959.9920253246509674
 20
65.8324596077899571
 30
0.0
 11
3958.0865135136509707
 21
65.8324596077899571
 31
0.0
  0
LINE
  5
7D46
  8
0
 10
3961.263678867956969
 20
67.5056879542899537
 30
0.0
 11
3961.2302387424838344
 21
67.1234639033889664
 31
0.0
  0
ARC
  5
7D47
  8
0
 10
3961.2106267547760581
 20
67.1251797224959859
 30
0.0
 40
0.0196869016608846
 50
277.0613683713120849
 51
355.0000217054675886
  0
ARC
  5
7D48
  8
0
 10
3959.0548225832008029
 20
84.5286716580683617
 30
0.0
 40
17.5561923453835114
 50
273.0986786812283071
 51
277.0613683713120849
  0
ARC
  5
7D49
  8
0
 10
3959.9920253246509674
 20
64.8206485841899536
 30
0.0
 40
0.0118110235999964
 50
269.9999999999739089
 51
0.0
  0
LINE
  5
7D4A
  8
0
 10
3959.9920253246509674
 20
64.80883756058995
 30
0.0
 11
3958.0865135136509707
 21
64.80883756058995
 31
0.0
  0
LINE
  5
7D4B
  8
0
 10
3960.003836348250843
 20
64.7300974030899567
 30
0.0
 11
3958.0747024900510951
 21
64.7300974030899567
 31
0.0
  0
LINE
  5
7D4C
  8
0
 10
3959.9841513089509135
 20
64.80883756058995
 30
0.0
 11
3959.9841513089509135
 21
64.7989950408899489
 31
0.0
  0
LINE
  5
7D4D
  8
0
 10
3959.9841513089509135
 20
64.7989950408899489
 30
0.0
 11
3959.9236241477178737
 21
64.7300974030899567
 31
0.0
  0
LINE
  5
7D4E
  8
0
 10
3959.9841513089509135
 20
64.7989950408899489
 30
0.0
 11
3958.0943875293510246
 21
64.7989950408899489
 31
0.0
  0
ARC
  5
7D4F
  8
0
 10
3959.9901817150730494
 20
67.2372574337643556
 30
0.0
 40
0.2339804929080649
 50
273.3751836368331283
 51
285.8439416270064726
  0
LINE
  5
7D50
  8
0
 10
3959.9692447744969286
 20
64.0411210251899519
 30
0.0
 11
3958.109294063805919
 21
64.0411210251899519
 31
0.0
  0
ARC
  5
7D51
  8
0
 10
3959.9663785064990407
 20
64.0727111032026784
 30
0.0
 40
0.0317198442789521
 50
275.1844319838021988
 51
359.3336987700790814
  0
LINE
  5
7D52
  8
0
 10
3958.0747024900510951
 20
65.8442706315606614
 30
0.0
 11
3958.0747024900510951
 21
67.0148552099971369
 31
0.0
  0
LINE
  5
7D53
  8
0
 10
3958.0747024900510951
 20
65.8206485841899536
 30
0.0
 11
3958.0747024900510951
 21
64.8206485841899536
 31
0.0
  0
LINE
  5
7D54
  8
0
 10
3958.0747024900510951
 20
64.7300974030899567
 30
0.0
 11
3958.0804426323497864
 21
64.0723422366811519
 31
0.0
  0
ARC
  5
7D55
  8
0
 10
3958.0865135138219557
 20
65.8442706315606614
 30
0.0
 40
0.0118110237707097
 50
180.0000003430064908
 51
269.9999991718906927
  0
ARC
  5
7D56
  8
0
 10
3958.0865135136509707
 20
65.8206485841899536
 30
0.0
 40
0.0118110236000018
 50
90.0
 51
180.0
  0
LINE
  5
7D57
  8
0
 10
3956.814859970344969
 20
67.5056879542899537
 30
0.0
 11
3956.8483000958190132
 21
67.1234639033889664
 31
0.0
  0
ARC
  5
7D58
  8
0
 10
3956.86791208352588
 20
67.1251797224959859
 30
0.0
 40
0.0196869016608846
 50
184.9999782945324114
 51
262.9386316286879151
  0
ARC
  5
7D59
  8
0
 10
3959.0237162551011352
 20
84.5286716580683617
 30
0.0
 40
17.5561923453835114
 50
262.9386316286879151
 51
266.9013213187716929
  0
ARC
  5
7D5A
  8
0
 10
3958.0865135136509707
 20
64.8206485841899536
 30
0.0
 40
0.0118110235999964
 50
180.0
 51
270.0000000000259774
  0
LINE
  5
7D5B
  8
0
 10
3958.0943875293510246
 20
64.80883756058995
 30
0.0
 11
3958.0943875293510246
 21
64.7989950408899489
 31
0.0
  0
LINE
  5
7D5C
  8
0
 10
3958.0943875293510246
 20
64.7989950408899489
 30
0.0
 11
3958.1549146905840644
 21
64.7300974030899567
 31
0.0
  0
ARC
  5
7D5D
  8
0
 10
3958.0883571232288887
 20
67.2372574337643556
 30
0.0
 40
0.2339804929080649
 50
254.156058372993499
 51
266.6248163631668149
  0
ARC
  5
7D5E
  8
0
 10
3958.1121603318028974
 20
64.0727111032026784
 30
0.0
 40
0.0317198442789521
 50
180.6663012299208901
 51
264.8155680161976875
  0
ARC
  5
7D5F
  8
0
 10
3959.039269419150969
 20
48.5284722694992183
 30
0.0
 40
18.5115300173552804
 50
86.8574975022833513
 51
93.1425024977166345
  0
LINE
  5
7D61
  8
0
 10
3961.2130469122507748
 20
67.1056421449899574
 30
0.0
 11
3956.8654919260511633
 21
67.1056421449899574
 31
0.0
  0
ENDSEC
  0
EOF
