  0
SECTION
  2
HEADER
  9
$ACADVER
  1
AC1009
  9
$INSBASE
 10
3956.1276433830448696
 20
74.3931539840406231
 30
0.0
  9
$EXTMIN
 10
3952.6630764539409029
 20
71.1254374485348535
 30
0.0
  9
$EXTMAX
 10
3956.1276433830448696
 20
77.6608705195463926
 30
0.0
  9
$LIMMIN
 10
0.0
 20
0.0
  9
$LIMMAX
 10
11.6929133858000007
 20
8.2677165353999982
  9
$ORTHOMODE
 70
     0
  9
$REGENMODE
 70
     1
  9
$FILLMODE
 70
     1
  9
$QTEXTMODE
 70
     0
  9
$MIRRTEXT
 70
     0
  9
$DRAGMODE
 70
     2
  9
$LTSCALE
 40
0.6431102362
  9
$OSMODE
 70
  3839
  9
$ATTMODE
 70
     1
  9
$TEXTSIZE
 40
0.2
  9
$TRACEWID
 40
0.05
  9
$TEXTSTYLE
  7
STANDARD
  9
$CLAYER
  8
0
  9
$CELTYPE
  6
BYLAYER
  9
$CECOLOR
 62
   256
  9
$DIMSCALE
 40
1.0
  9
$DIMASZ
 40
0.1875
  9
$DIMEXO
 40
0.0625
  9
$DIMDLI
 40
0.4443307087
  9
$DIMRND
 40
0.0
  9
$DIMDLE
 40
0.0
  9
$DIMEXE
 40
0.125
  9
$DIMTP
 40
0.01
  9
$DIMTM
 40
0.01
  9
$DIMTXT
 40
2.0
  9
$DIMCEN
 40
0.1052362205
  9
$DIMTSZ
 40
0.0
  9
$DIMTOL
 70
     1
  9
$DIMLIM
 70
     0
  9
$DIMTIH
 70
     1
  9
$DIMTOH
 70
     1
  9
$DIMSE1
 70
     0
  9
$DIMSE2
 70
     0
  9
$DIMTAD
 70
     0
  9
$DIMZIN
 70
     0
  9
$DIMBLK
  1

  9
$DIMASO
 70
     1
  9
$DIMSHO
 70
     1
  9
$DIMPOST
  1
\X
  9
$DIMAPOST
  1

  9
$DIMALT
 70
     1
  9
$DIMALTD
 70
     2
  9
$DIMALTF
 40
25.3999999999999986
  9
$DIMLFAC
 40
1.0
  9
$DIMTOFL
 70
     0
  9
$DIMTVP
 40
0.0
  9
$DIMTIX
 70
     0
  9
$DIMSOXD
 70
     0
  9
$DIMSAH
 70
     0
  9
$DIMBLK1
  1

  9
$DIMBLK2
  1

  9
$DIMSTYLE
  2
STANDARD
  9
$DIMCLRD
 70
     0
  9
$DIMCLRE
 70
     0
  9
$DIMCLRT
 70
     0
  9
$DIMTFAC
 40
1.0
  9
$DIMGAP
 40
0.09
  9
$LUNITS
 70
     2
  9
$LUPREC
 70
     4
  9
$SKETCHINC
 40
0.1
  9
$FILLETRAD
 40
0.0
  9
$AUNITS
 70
     0
  9
$AUPREC
 70
     0
  9
$MENU
  1
.
  9
$ELEVATION
 40
0.0
  9
$PELEVATION
 40
0.0
  9
$THICKNESS
 40
0.0
  9
$LIMCHECK
 70
     0
  9
$BLIPMODE
 70
     0
  9
$CHAMFERA
 40
0.0
  9
$CHAMFERB
 40
0.0
  9
$SKPOLY
 70
     0
  9
$TDCREATE
 40
2458060.468368056230247
  9
$TDUPDATE
 40
2459131.6702546300366521
  9
$TDINDWG
 40
0.4283519676
  9
$TDUSRTIMER
 40
0.4283519676
  9
$USRTIMER
 70
     1
  9
$ANGBASE
 50
0.0
  9
$ANGDIR
 70
     0
  9
$PDMODE
 70
     0
  9
$PDSIZE
 40
0.3125
  9
$PLINEWID
 40
0.0
  9
$COORDS
 70
     1
  9
$SPLFRAME
 70
     0
  9
$SPLINETYPE
 70
     6
  9
$SPLINESEGS
 70
     8
  9
$ATTDIA
 70
     1
  9
$ATTREQ
 70
     1
  9
$HANDLING
 70
     1
  9
$HANDSEED
  5
808C
  9
$SURFTAB1
 70
     6
  9
$SURFTAB2
 70
     6
  9
$SURFTYPE
 70
     6
  9
$SURFU
 70
     6
  9
$SURFV
 70
     6
  9
$UCSNAME
  2

  9
$UCSORG
 10
0.0
 20
0.0
 30
0.0
  9
$UCSXDIR
 10
1.0
 20
0.0
 30
0.0
  9
$UCSYDIR
 10
0.0
 20
1.0
 30
0.0
  9
$PUCSNAME
  2

  9
$PUCSORG
 10
0.0
 20
0.0
 30
0.0
  9
$PUCSXDIR
 10
1.0
 20
0.0
 30
0.0
  9
$PUCSYDIR
 10
0.0
 20
1.0
 30
0.0
  9
$USERI1
 70
     0
  9
$USERI2
 70
     0
  9
$USERI3
 70
     0
  9
$USERI4
 70
     0
  9
$USERI5
 70
     0
  9
$USERR1
 40
0.0
  9
$USERR2
 40
0.0
  9
$USERR3
 40
0.0
  9
$USERR4
 40
0.0
  9
$USERR5
 40
0.0
  9
$WORLDVIEW
 70
     1
  9
$SHADEDGE
 70
     3
  9
$SHADEDIF
 70
    70
  9
$TILEMODE
 70
     1
  9
$MAXACTVP
 70
    64
  9
$PLIMCHECK
 70
     0
  9
$PEXTMIN
 10
1.0000000000000000E+20
 20
1.0000000000000000E+20
 30
1.0000000000000000E+20
  9
$PEXTMAX
 10
-1.0000000000000000E+20
 20
-1.0000000000000000E+20
 30
-1.0000000000000000E+20
  9
$PLIMMIN
 10
0.0
 20
0.0
  9
$PLIMMAX
 10
12.0
 20
9.0
  9
$UNITMODE
 70
     0
  9
$VISRETAIN
 70
     1
  9
$PLINEGEN
 70
     0
  9
$PSLTSCALE
 70
     1
  0
ENDSEC
  0
SECTION
  2
TABLES
  0
TABLE
  2
VPORT
 70
     1
  0
VPORT
  2
*ACTIVE
 70
     0
 10
0.0
 20
0.0
 11
1.0
 21
1.0
 12
0.0
 22
0.0
 13
0.0
 23
0.0
 14
1.0
 24
1.0
 15
0.0
 25
0.0
 16
0.0
 26
0.0
 36
29.2505430321550186
 17
3954.3953857421879547
 27
74.3931541442871094
 37
0.0
 40
7.396986368244705
 41
3.139616055846421
 42
50.0
 43
0.0
 44
0.0
 50
0.0
 51
0.0
 71
     0
 72
   100
 73
     1
 74
     1
 75
     0
 76
     0
 77
     0
 78
     0
  0
ENDTAB
  0
TABLE
  2
LTYPE
 70
     2
  0
LTYPE
  2
CONTINUOUS
 70
     0
  3
Solid line
 72
    65
 73
     0
 40
0.0
  0
LTYPE
  2
PHANTOM2
 70
     0
  3
___ _ _ ___ _ _ ___ _ _ ___ _ _
 72
    65
 73
     6
 40
1.25
 49
0.625
 49
-0.125
 49
0.125
 49
-0.125
 49
0.125
 49
-0.125
  0
ENDTAB
  0
TABLE
  2
LAYER
 70
     2
  0
LAYER
  2
0
 70
     0
 62
   255
  6
CONTINUOUS
  0
LAYER
  2
DEFPOINTS
 70
     0
 62
     7
  6
CONTINUOUS
  0
ENDTAB
  0
TABLE
  2
STYLE
 70
     1
  0
STYLE
  2
STANDARD
 70
     0
 40
0.0
 41
0.8
 50
0.0
 71
     0
 42
0.2
  3
txt
  4

  0
ENDTAB
  0
TABLE
  2
VIEW
 70
     0
  0
ENDTAB
  0
TABLE
  2
UCS
 70
     0
  0
ENDTAB
  0
TABLE
  2
APPID
 70
     9
  0
APPID
  2
ACAD
 70
     0
  0
APPID
  2
ACAD_MLEADERVER
 70
     0
  0
APPID
  2
ACAD_EXEMPT_FROM_CAD_STANDARDS
 70
     0
  0
APPID
  2
ACAD_NAV_VCDISPLAY
 70
     0
  0
APPID
  2
ACAECLAYERSTANDARD
 70
     0
  0
APPID
  2
ACCMTRANSPARENCY
 70
     0
  0
APPID
  2
ACAD_DSTYLE_DIMJAG
 70
     0
  0
APPID
  2
ACAD_DSTYLE_DIMTALN
 70
     0
  0
APPID
  2
ACDBATTR
 70
     0
  0
ENDTAB
  0
TABLE
  2
DIMSTYLE
 70
     1
  0
DIMSTYLE
  2
STANDARD
 70
     0
  3

  4

  5

  6

  7

 40
1.0
 41
0.1875
 42
0.0625
 43
0.38
 44
0.125
 45
0.0
 46
0.0
 47
0.01
 48
0.01
140
0.15625
141
0.09
142
0.0
143
25.3999999999999986
144
1.0
145
0.0
146
1.0
147
0.09
 71
     1
 72
     0
 73
     1
 74
     1
 75
     0
 76
     0
 77
     0
 78
     4
170
     0
171
     2
172
     0
173
     0
174
     0
175
     0
176
     0
177
     0
178
     0
  0
ENDTAB
  0
ENDSEC
  0
SECTION
  2
BLOCKS
  0
BLOCK
  8
0
  2
$MODEL_SPACE
 70
     0
 10
0.0
 20
0.0
 30
0.0
  3
$MODEL_SPACE
  1

  0
ENDBLK
  5
21
  8
0
  0
BLOCK
 67
     1
  8
0
  2
$PAPER_SPACE
 70
     0
 10
0.0
 20
0.0
 30
0.0
  3
$PAPER_SPACE
  1

  0
ENDBLK
  5
1D
 67
     1
  8
0
  0
BLOCK
  8
0
  2
_FILLED
 70
     0
 10
0.0
 20
0.0
 30
0.0
  3
_FILLED
  1

  0
SOLID
  5
7BB2
  8
0
  6
BYBLOCK
 62
     0
 10
0.0
 20
0.0
 30
0.0
 11
-1.0
 21
0.1666666667
 31
0.0
 12
-1.0
 22
-0.1666666667
 32
0.0
 13
-1.0
 23
-0.1666666667
 33
0.0
  0
ENDBLK
  5
7BB3
  8
0
  6
BYBLOCK
 62
     0
  0
ENDSEC
  0
SECTION
  2
ENTITIES
  0
ATTDEF
  5
3930
  8
DEFPOINTS
 10
3956.1166796064749178
 20
74.3921742265104768
 30
0.0
 40
0.001
  1
K-73100IN-4
  3

  2
MODELNUMBER
 70
     0
1001
ACDBATTR
1070
     0
1070
     1
  0
ATTDEF
  5
3931
  8
DEFPOINTS
 10
3956.1166796064749178
 20
74.3905075598438117
 30
0.0
 40
0.001
  1
COMPOSED
  3

  2
TRADENAME
 70
     0
1001
ACDBATTR
1070
     0
1070
     1
  0
ATTDEF
  5
3932
  8
DEFPOINTS
 10
3956.1166796064749178
 20
74.3888408931771465
 30
0.0
 40
0.001
  1
VALVE TRIM
  3

  2
PRODUCT
 70
     0
1001
ACDBATTR
1070
     0
1070
     1
  0
LINE
  5
7DC4
  8
0
 10
3956.1276433830448696
 20
71.1254374485348535
 30
0.0
 11
3956.1276433830448696
 21
77.6608705195463926
 31
0.0
  0
LINE
  5
7DC5
  8
0
 10
3954.4662260603158757
 20
74.4718941415406306
 30
0.0
 11
3955.5961586121611617
 21
74.4718941415406306
 31
0.0
  0
LINE
  5
7DC6
  8
0
 10
3954.4426040129451394
 20
74.4718941415406306
 30
0.0
 11
3953.4426040129451394
 21
74.4718941415406306
 31
0.0
  0
LINE
  5
7DC7
  8
0
 10
3953.3520528318449578
 20
74.4718941415406306
 30
0.0
 11
3953.0925037401161717
 21
74.4741591921190889
 31
0.0
  0
LINE
  5
7DC8
  8
0
 10
3952.9813055394301955
 20
72.4869406277142332
 30
0.0
 11
3952.6942976654331687
 21
72.4894453075142025
 31
0.0
  0
ARC
  5
7DC9
  8
0
 10
3954.4662260603158757
 20
74.4837051653113349
 30
0.0
 40
0.0118110237707097
 50
180.0000008281199939
 51
269.999999656984528
  0
ARC
  5
7DCA
  8
0
 10
3954.4426040129451394
 20
74.4837051651406341
 30
0.0
 40
0.0118110236000018
 50
270.0
 51
359.9999999999910187
  0
LINE
  5
7DCB
  8
0
 10
3954.4544150365459245
 20
74.4837051651406341
 30
0.0
 11
3954.4544150365459245
 21
76.3892169761406308
 31
0.0
  0
LINE
  5
7DCC
  8
0
 10
3956.1276433830448696
 20
71.1254374485348535
 30
0.0
 11
3955.745419332144138
 21
71.1588775740086845
 31
0.0
  0
ARC
  5
7DCD
  8
0
 10
3955.7494524766830182
 20
71.178422345139424
 30
0.0
 40
0.0199565611622462
 50
185.0972606147136901
 51
258.3404359317078161
  0
ARC
  5
7DCE
  8
0
 10
3995.1075624821428391
 20
74.4869989058730511
 30
0.0
 40
39.5168865885311007
 50
183.1074498641683022
 51
184.8053279585708992
  0
ARC
  5
7DCF
  8
0
 10
3953.4426040129451394
 20
74.4837051651406199
 30
0.0
 40
0.0118110235999964
 50
179.9999999999820943
 51
270.0
  0
LINE
  5
7DD0
  8
0
 10
3953.430792989344809
 20
74.4837051651406199
 30
0.0
 11
3953.430792989344809
 21
76.3892169761406308
 31
0.0
  0
LINE
  5
7DD1
  8
0
 10
3953.3520528318449578
 20
74.4718941415406306
 30
0.0
 11
3953.3520528318449578
 21
76.4010279997406343
 31
0.0
  0
LINE
  5
7DD2
  8
0
 10
3953.430792989344809
 20
74.4915791808406311
 30
0.0
 11
3953.4209504696450495
 21
74.4915791808406311
 31
0.0
  0
LINE
  5
7DD3
  8
0
 10
3953.4209504696450495
 20
74.4915791808406311
 30
0.0
 11
3953.3520528318449578
 21
74.552106342073472
 31
0.0
  0
LINE
  5
7DD4
  8
0
 10
3953.4209504696450495
 20
74.4915791808406311
 30
0.0
 11
3953.4209504696450495
 21
76.3813429604406338
 31
0.0
  0
ARC
  5
7DD5
  8
0
 10
3900.211894627690981
 20
70.6692226166110231
 30
0.0
 40
55.4622033108554575
 50
1.7312786258576951
 51
2.827028434856357
  0
LINE
  5
7DD6
  8
0
 10
3952.6630764539449956
 20
72.5182967389297488
 30
0.0
 11
3952.6630764539449956
 21
76.3664364259858246
 31
0.0
  0
ARC
  5
7DD7
  8
0
 10
3952.6946665319542262
 20
72.5211630069668729
 30
0.0
 40
0.0317198442789521
 50
185.1844319837962018
 51
269.3336987700718055
  0
LINE
  5
7DD8
  8
0
 10
3954.4662260603158757
 20
76.4010279997406343
 30
0.0
 11
3955.6490916347611346
 21
76.4010279997406343
 31
0.0
  0
LINE
  5
7DD9
  8
0
 10
3954.4426040129451394
 20
76.4010279997406343
 30
0.0
 11
3953.4426040129451394
 21
76.4010279997406343
 31
0.0
  0
LINE
  5
7DDA
  8
0
 10
3953.3520528318449578
 20
76.4010279997406343
 30
0.0
 11
3952.6942976654358972
 21
76.3952878574414314
 31
0.0
  0
ARC
  5
7DDB
  8
0
 10
3954.4662260603158757
 20
76.3892169759699158
 30
0.0
 40
0.0118110237707097
 50
90.0000003430154152
 51
179.9999991718800061
  0
ARC
  5
7DDC
  8
0
 10
3954.4426040129451394
 20
76.3892169761406308
 30
0.0
 40
0.0118110236000018
 50
0.0000000000081422
 51
90.0
  0
LINE
  5
7DDD
  8
0
 10
3956.1276433830448696
 20
77.6608705195463926
 30
0.0
 11
3955.745419332144138
 21
77.6274303939725883
 31
0.0
  0
ARC
  5
7DDE
  8
0
 10
3955.7471351512508591
 20
77.6078184062661478
 30
0.0
 40
0.0196869016608846
 50
94.9999782945340883
 51
172.9386316286872898
  0
ARC
  5
7DDF
  8
0
 10
4003.6713292505710342
 20
73.7895088220407445
 30
0.0
 40
48.0957314411439185
 50
175.4436165669659999
 51
176.8274259059919871
  0
ARC
  5
7DE0
  8
0
 10
3953.4426040129451394
 20
76.3892169761406308
 30
0.0
 40
0.0118110235999964
 50
90.0
 51
180.0000000000171099
  0
LINE
  5
7DE1
  8
0
 10
3953.430792989344809
 20
76.3813429604406338
 30
0.0
 11
3953.4209504696450495
 21
76.3813429604406338
 31
0.0
  0
LINE
  5
7DE2
  8
0
 10
3953.4209504696450495
 20
76.3813429604406338
 30
0.0
 11
3953.3520528318449578
 21
76.3208157992077929
 31
0.0
  0
ARC
  5
7DE3
  8
0
 10
3912.735530543997811
 20
76.6132293581060537
 30
0.0
 40
42.9140857400822071
 50
357.0740887815990163
 51
359.7838010354913081
  0
ARC
  5
7DE4
  8
0
 10
3952.6946665319578642
 20
76.3635701579887467
 30
0.0
 40
0.0317198442789521
 50
90.6663012299282229
 51
174.8155680162037129
  0
ARC
  5
7DE5
  8
0
 10
3993.1227901554439086
 20
74.3901510499301111
 30
0.0
 40
37.5291318544423973
 50
179.9503114822435919
 51
181.5047076604759013
  0
ARC
  5
7DE6
  8
0
 10
3952.9782948678380308
 20
72.5217498119815218
 30
0.0
 40
0.0349391392680486
 50
274.9432517782709056
 51
354.5567482160021768
  0
LINE
  5
7DE7
  8
0
 10
3953.0130764539449046
 20
72.5184354914248388
 30
0.0
 11
3953.0130764539449046
 21
75.3454902532032946
 31
0.0
  0
ARC
  5
7DE8
  8
0
 10
3953.0918166112128347
 20
74.3954220330364393
 30
0.0
 40
0.0787401572676564
 50
89.4999999091508442
 51
180.0000001424799052
  0
ARC
  5
7DE9
  8
0
 10
3947.7510049958950731
 20
74.426533930750125
 30
0.0
 40
5.3417110554912171
 50
0.5108405529501479
 51
9.9061056797688316
  0
LINE
  5
7DEA
  8
0
 10
3954.8678010676449048
 20
72.3951224879406254
 30
0.0
 11
3955.647237737739033
 21
72.3951224879406254
 31
0.0
  0
ARC
  5
7DEB
  8
0
 10
3954.2814775453398397
 20
72.4457441642642976
 30
0.0
 40
0.0395281630937268
 50
180.8547466931638894
 51
267.7791308869494742
  0
ARC
  5
7DEC
  8
0
 10
3954.3208934140761812
 20
73.2747606472863424
 30
0.0
 40
0.8694796938090014
 50
267.3006892007034025
 51
273.6558132608514029
  0
ARC
  5
7DED
  8
0
 10
3954.3755151039008524
 20
72.426878789763407
 30
0.0
 40
0.0198454160607804
 50
272.364275253013318
 51
359.4883563215815911
  0
LINE
  5
7DEE
  8
0
 10
3954.3953597287049888
 20
73.3281103298842964
 30
0.0
 11
3954.3953597287049888
 21
72.4267015751969581
 31
0.0
  0
LINE
  5
7DEF
  8
0
 10
3954.2419537806817971
 20
73.309657405776349
 30
0.0
 11
3954.2419537806817971
 21
72.4451544993049197
 31
0.0
  0
ARC
  5
7DF0
  8
0
 10
3954.4150449577177824
 20
72.464409889993405
 30
0.0
 40
0.0196850392724573
 50
91.1457625593566547
 51
179.2554778364344941
  0
LINE
  5
7DF1
  8
0
 10
3954.4146513357459298
 20
72.4840909934406312
 30
0.0
 11
3954.8481158239878823
 21
72.4927602810952578
 31
0.0
  0
LINE
  5
7DF2
  8
0
 10
3954.8678010676449048
 20
72.3951224879406254
 30
0.0
 11
3954.8678010676449048
 21
73.3596894171406291
 31
0.0
  0
LINE
  5
7DF3
  8
0
 10
3954.8678010676449048
 20
72.3951224879406254
 30
0.0
 11
3954.8481158239460456
 21
72.4148078258405832
 31
0.0
  0
LINE
  5
7DF4
  8
0
 10
3954.8481158239460456
 20
72.4148078258405832
 30
0.0
 11
3954.8481158239460456
 21
73.3400040792403871
 31
0.0
  0
ARC
  5
7DF5
  8
0
 10
3954.2814775453398397
 20
73.3090677408169569
 30
0.0
 40
0.039528163093732
 50
92.2208691130504405
 51
179.1452533068328137
  0
ARC
  5
7DF6
  8
0
 10
3954.3208934140761812
 20
72.4800512577949121
 30
0.0
 40
0.8694796938090014
 50
86.3441867391485829
 51
92.6993107992966401
  0
ARC
  5
7DF7
  8
0
 10
3954.3755151039008524
 20
73.3279331153178617
 30
0.0
 40
0.0198454160607755
 50
0.5116436784142837
 51
87.6357247469867104
  0
ARC
  5
7DF8
  8
0
 10
3954.4150449577177824
 20
73.2904020150878637
 30
0.0
 40
0.0196850392724573
 50
180.7445221635653922
 51
268.8542374406433737
  0
LINE
  5
7DF9
  8
0
 10
3954.4146513357459298
 20
73.2707209116406233
 30
0.0
 11
3954.8481158239878823
 21
73.2620516239859967
 31
0.0
  0
LINE
  5
7DFA
  8
0
 10
3954.8678010676449048
 20
73.3596894171406291
 30
0.0
 11
3954.8481158239460456
 21
73.3400040792403871
 31
0.0
  0
LINE
  5
7DFB
  8
0
 10
3954.8678010676449048
 20
73.3596894171406291
 30
0.0
 11
3955.6088023436450385
 21
73.3596894171406291
 31
0.0
  0
LINE
  5
7DFD
  8
0
 10
3955.7275975737461522
 20
77.6102385637406229
 30
0.0
 11
3955.7275975737461522
 21
71.2002543973713955
 31
0.0
  0
ENDSEC
  0
EOF
