  0
SECTION
  2
HEADER
  9
$ACADVER
  1
AC1009
  9
$INSBASE
 10
3953.806383165303032
 20
67.346186608846466
 30
0.0
  9
$EXTMIN
 10
3951.5819735342088279
 20
64.0784698910524355
 30
0.0
  9
$EXTMAX
 10
3956.0307927963967813
 20
70.6139033266404965
 30
0.0
  9
$LIMMIN
 10
0.0
 20
0.0
  9
$LIMMAX
 10
11.6929133858000007
 20
8.2677165353999982
  9
$ORTHOMODE
 70
     0
  9
$REGENMODE
 70
     1
  9
$FILLMODE
 70
     1
  9
$QTEXTMODE
 70
     0
  9
$MIRRTEXT
 70
     0
  9
$DRAGMODE
 70
     2
  9
$LTSCALE
 40
0.6431102362
  9
$OSMODE
 70
  3839
  9
$ATTMODE
 70
     1
  9
$TEXTSIZE
 40
0.2
  9
$TRACEWID
 40
0.05
  9
$TEXTSTYLE
  7
STANDARD
  9
$CLAYER
  8
0
  9
$CELTYPE
  6
BYLAYER
  9
$CECOLOR
 62
   256
  9
$DIMSCALE
 40
1.0
  9
$DIMASZ
 40
0.1875
  9
$DIMEXO
 40
0.0625
  9
$DIMDLI
 40
0.4443307087
  9
$DIMRND
 40
0.0
  9
$DIMDLE
 40
0.0
  9
$DIMEXE
 40
0.125
  9
$DIMTP
 40
0.01
  9
$DIMTM
 40
0.01
  9
$DIMTXT
 40
2.0
  9
$DIMCEN
 40
0.1052362205
  9
$DIMTSZ
 40
0.0
  9
$DIMTOL
 70
     1
  9
$DIMLIM
 70
     0
  9
$DIMTIH
 70
     1
  9
$DIMTOH
 70
     1
  9
$DIMSE1
 70
     0
  9
$DIMSE2
 70
     0
  9
$DIMTAD
 70
     0
  9
$DIMZIN
 70
     0
  9
$DIMBLK
  1

  9
$DIMASO
 70
     1
  9
$DIMSHO
 70
     1
  9
$DIMPOST
  1
\X
  9
$DIMAPOST
  1

  9
$DIMALT
 70
     1
  9
$DIMALTD
 70
     2
  9
$DIMALTF
 40
25.3999999999999986
  9
$DIMLFAC
 40
1.0
  9
$DIMTOFL
 70
     0
  9
$DIMTVP
 40
0.0
  9
$DIMTIX
 70
     0
  9
$DIMSOXD
 70
     0
  9
$DIMSAH
 70
     0
  9
$DIMBLK1
  1

  9
$DIMBLK2
  1

  9
$DIMSTYLE
  2
STANDARD
  9
$DIMCLRD
 70
     0
  9
$DIMCLRE
 70
     0
  9
$DIMCLRT
 70
     0
  9
$DIMTFAC
 40
1.0
  9
$DIMGAP
 40
0.09
  9
$LUNITS
 70
     2
  9
$LUPREC
 70
     4
  9
$SKETCHINC
 40
0.1
  9
$FILLETRAD
 40
0.0
  9
$AUNITS
 70
     0
  9
$AUPREC
 70
     0
  9
$MENU
  1
.
  9
$ELEVATION
 40
0.0
  9
$PELEVATION
 40
0.0
  9
$THICKNESS
 40
0.0
  9
$LIMCHECK
 70
     0
  9
$BLIPMODE
 70
     0
  9
$CHAMFERA
 40
0.0
  9
$CHAMFERB
 40
0.0
  9
$SKPOLY
 70
     0
  9
$TDCREATE
 40
2458060.468368056230247
  9
$TDUPDATE
 40
2459131.6524421297945082
  9
$TDINDWG
 40
0.429034838
  9
$TDUSRTIMER
 40
0.429034838
  9
$USRTIMER
 70
     1
  9
$ANGBASE
 50
0.0
  9
$ANGDIR
 70
     0
  9
$PDMODE
 70
     0
  9
$PDSIZE
 40
0.3125
  9
$PLINEWID
 40
0.0
  9
$COORDS
 70
     1
  9
$SPLFRAME
 70
     0
  9
$SPLINETYPE
 70
     6
  9
$SPLINESEGS
 70
     8
  9
$ATTDIA
 70
     1
  9
$ATTREQ
 70
     1
  9
$HANDLING
 70
     1
  9
$HANDSEED
  5
7E9A
  9
$SURFTAB1
 70
     6
  9
$SURFTAB2
 70
     6
  9
$SURFTYPE
 70
     6
  9
$SURFU
 70
     6
  9
$SURFV
 70
     6
  9
$UCSNAME
  2

  9
$UCSORG
 10
0.0
 20
0.0
 30
0.0
  9
$UCSXDIR
 10
1.0
 20
0.0
 30
0.0
  9
$UCSYDIR
 10
0.0
 20
1.0
 30
0.0
  9
$PUCSNAME
  2

  9
$PUCSORG
 10
0.0
 20
0.0
 30
0.0
  9
$PUCSXDIR
 10
1.0
 20
0.0
 30
0.0
  9
$PUCSYDIR
 10
0.0
 20
1.0
 30
0.0
  9
$USERI1
 70
     0
  9
$USERI2
 70
     0
  9
$USERI3
 70
     0
  9
$USERI4
 70
     0
  9
$USERI5
 70
     0
  9
$USERR1
 40
0.0
  9
$USERR2
 40
0.0
  9
$USERR3
 40
0.0
  9
$USERR4
 40
0.0
  9
$USERR5
 40
0.0
  9
$WORLDVIEW
 70
     1
  9
$SHADEDGE
 70
     3
  9
$SHADEDIF
 70
    70
  9
$TILEMODE
 70
     1
  9
$MAXACTVP
 70
    64
  9
$PLIMCHECK
 70
     0
  9
$PEXTMIN
 10
1.0000000000000000E+20
 20
1.0000000000000000E+20
 30
1.0000000000000000E+20
  9
$PEXTMAX
 10
-1.0000000000000000E+20
 20
-1.0000000000000000E+20
 30
-1.0000000000000000E+20
  9
$PLIMMIN
 10
0.0
 20
0.0
  9
$PLIMMAX
 10
12.0
 20
9.0
  9
$UNITMODE
 70
     0
  9
$VISRETAIN
 70
     1
  9
$PLINEGEN
 70
     0
  9
$PSLTSCALE
 70
     1
  0
ENDSEC
  0
SECTION
  2
TABLES
  0
TABLE
  2
VPORT
 70
     1
  0
VPORT
  2
*ACTIVE
 70
     0
 10
0.0
 20
0.0
 11
1.0
 21
1.0
 12
0.0
 22
0.0
 13
0.0
 23
0.0
 14
1.0
 24
1.0
 15
0.0
 25
0.0
 16
0.0
 26
0.0
 36
31.2629604314418401
 17
3953.806396484375
 27
67.3461875915527344
 37
0.0
 40
7.905893982485547
 41
3.1396160558464219
 42
50.0
 43
0.0
 44
0.0
 50
0.0
 51
0.0
 71
     0
 72
   100
 73
     1
 74
     1
 75
     0
 76
     0
 77
     0
 78
     0
  0
ENDTAB
  0
TABLE
  2
LTYPE
 70
     2
  0
LTYPE
  2
CONTINUOUS
 70
     0
  3
Solid line
 72
    65
 73
     0
 40
0.0
  0
LTYPE
  2
PHANTOM2
 70
     0
  3
___ _ _ ___ _ _ ___ _ _ ___ _ _
 72
    65
 73
     6
 40
1.25
 49
0.625
 49
-0.125
 49
0.125
 49
-0.125
 49
0.125
 49
-0.125
  0
ENDTAB
  0
TABLE
  2
LAYER
 70
     2
  0
LAYER
  2
0
 70
     0
 62
   255
  6
CONTINUOUS
  0
LAYER
  2
DEFPOINTS
 70
     0
 62
     7
  6
CONTINUOUS
  0
ENDTAB
  0
TABLE
  2
STYLE
 70
     1
  0
STYLE
  2
STANDARD
 70
     0
 40
0.0
 41
0.8
 50
0.0
 71
     0
 42
0.2
  3
txt
  4

  0
ENDTAB
  0
TABLE
  2
VIEW
 70
     0
  0
ENDTAB
  0
TABLE
  2
UCS
 70
     0
  0
ENDTAB
  0
TABLE
  2
APPID
 70
     9
  0
APPID
  2
ACAD
 70
     0
  0
APPID
  2
ACAD_MLEADERVER
 70
     0
  0
APPID
  2
ACAD_EXEMPT_FROM_CAD_STANDARDS
 70
     0
  0
APPID
  2
ACAD_NAV_VCDISPLAY
 70
     0
  0
APPID
  2
ACAECLAYERSTANDARD
 70
     0
  0
APPID
  2
ACCMTRANSPARENCY
 70
     0
  0
APPID
  2
ACAD_DSTYLE_DIMJAG
 70
     0
  0
APPID
  2
ACAD_DSTYLE_DIMTALN
 70
     0
  0
APPID
  2
ACDBATTR
 70
     0
  0
ENDTAB
  0
TABLE
  2
DIMSTYLE
 70
     1
  0
DIMSTYLE
  2
STANDARD
 70
     0
  3

  4

  5

  6

  7

 40
1.0
 41
0.1875
 42
0.0625
 43
0.38
 44
0.125
 45
0.0
 46
0.0
 47
0.01
 48
0.01
140
0.15625
141
0.09
142
0.0
143
25.3999999999999986
144
1.0
145
0.0
146
1.0
147
0.09
 71
     1
 72
     0
 73
     1
 74
     1
 75
     0
 76
     0
 77
     0
 78
     4
170
     0
171
     2
172
     0
173
     0
174
     0
175
     0
176
     0
177
     0
178
     0
  0
ENDTAB
  0
ENDSEC
  0
SECTION
  2
BLOCKS
  0
BLOCK
  8
0
  2
$MODEL_SPACE
 70
     0
 10
0.0
 20
0.0
 30
0.0
  3
$MODEL_SPACE
  1

  0
ENDBLK
  5
21
  8
0
  0
BLOCK
 67
     1
  8
0
  2
$PAPER_SPACE
 70
     0
 10
0.0
 20
0.0
 30
0.0
  3
$PAPER_SPACE
  1

  0
ENDBLK
  5
1D
 67
     1
  8
0
  0
BLOCK
  8
0
  2
_FILLED
 70
     0
 10
0.0
 20
0.0
 30
0.0
  3
_FILLED
  1

  0
SOLID
  5
7BB2
  8
0
  6
BYBLOCK
 62
     0
 10
0.0
 20
0.0
 30
0.0
 11
-1.0
 21
0.1666666667
 31
0.0
 12
-1.0
 22
-0.1666666667
 32
0.0
 13
-1.0
 23
-0.1666666667
 33
0.0
  0
ENDBLK
  5
7BB3
  8
0
  6
BYBLOCK
 62
     0
  0
ENDSEC
  0
SECTION
  2
ENTITIES
  0
ATTDEF
  5
3930
  8
DEFPOINTS
 10
3953.8065963576968898
 20
67.3448522484689391
 30
0.0
 40
0.001
  1
K-73100T-4
  3

  2
MODELNUMBER
 70
     0
1001
ACDBATTR
1070
     0
1070
     1
  0
ATTDEF
  5
3931
  8
DEFPOINTS
 10
3953.8065963576968898
 20
67.343185581802274
 30
0.0
 40
0.001
  1
COMPOSED
  3

  2
TRADENAME
 70
     0
1001
ACDBATTR
1070
     0
1070
     1
  0
ATTDEF
  5
3932
  8
DEFPOINTS
 10
3953.8065963576968898
 20
67.3415189151356088
 30
0.0
 40
0.001
  1
VALVE TRIM
  3

  2
PRODUCT
 70
     0
1001
ACDBATTR
1070
     0
1070
     1
  0
LINE
  5
7CAE
  8
0
 10
3955.8739115594089526
 20
70.6139031443522214
 30
0.0
 11
3951.7383768253312155
 21
70.6139031443522214
 31
0.0
  0
LINE
  5
7CAF
  8
0
 10
3956.030792614109032
 20
70.4570220894522237
 30
0.0
 11
3956.030792614109032
 21
64.2353511282407084
 31
0.0
  0
LINE
  5
7CB0
  8
0
 10
3954.770950094402906
 20
68.3894936954464612
 30
0.0
 11
3954.76771458966914
 21
65.6366090240253044
 31
0.0
  0
LINE
  5
7CB1
  8
0
 10
3955.8411196015467794
 20
70.5809564528098861
 30
0.0
 11
3951.7716467290588298
 21
70.5809564528098861
 31
0.0
  0
LINE
  5
7CB2
  8
0
 10
3955.9978452617019684
 20
70.424158796746454
 30
0.0
 11
3955.9978452617019684
 21
64.2682065022541735
 31
0.0
  0
ARC
  5
7CB3
  8
0
 10
3955.874150532340991
 20
70.4572610625847062
 30
0.0
 40
0.156642264055796
 50
359.9125896366346069
 51
90.0874102903320448
  0
ARC
  5
7CB4
  8
0
 10
3955.8410475891028
 20
70.424158796746454
 30
0.0
 40
0.1567976725999982
 50
359.9999999999992042
 51
89.9736857747966923
  0
LINE
  5
7CB5
  8
0
 10
3954.5709500944030879
 20
65.4399732525464657
 30
0.0
 11
3953.0418162362029761
 21
65.4399732525464657
 31
0.0
  0
ARC
  5
7CB6
  8
0
 10
3954.5646656241310666
 20
65.6430263742248741
 30
0.0
 40
0.2031503502087687
 50
271.7727317619247174
 51
358.1897729431693165
  0
LINE
  5
7CB7
  8
0
 10
3955.8739115594089526
 20
64.0784700733407107
 30
0.0
 11
3954.3369848074321453
 21
64.0784700733407107
 31
0.0
  0
LINE
  5
7CB8
  8
0
 10
3953.9846088984409107
 20
64.0784700733407107
 30
0.0
 11
3953.6281574321637891
 21
64.0784700733407107
 31
0.0
  0
LINE
  5
7CB9
  8
0
 10
3953.2757815231730092
 20
64.0784700733407107
 30
0.0
 11
3951.7383768253312155
 21
64.0784700733407107
 31
0.0
  0
LINE
  5
7CBA
  8
0
 10
3955.8411196015467794
 20
64.111416764883046
 30
0.0
 11
3951.7716467290588298
 21
64.111416764883046
 31
0.0
  0
ARC
  5
7CBB
  8
0
 10
3955.874150532340991
 20
64.2351121551082258
 30
0.0
 40
0.156642264055796
 50
269.9125897096679978
 51
0.0874103633653866
  0
ARC
  5
7CBC
  8
0
 10
3955.8410475891028
 20
64.2682144209464639
 30
0.0
 40
0.1567976725999982
 50
270.0263142252032935
 51
0.0000000000008142
  0
ARC
  5
7CBD
  8
0
 10
3953.806383165303032
 20
68.3894936954464612
 30
0.0
 40
0.9645669291
 50
0.0
 51
180.1346810363044995
  0
ARC
  5
7CBE
  8
0
 10
3954.3502885740358579
 20
64.1540980815841522
 30
0.0
 40
0.0767892299526079
 50
244.3062481257973104
 51
260.0231403830088084
  0
ARC
  5
7CBF
  8
0
 10
3954.1596654609920733
 20
60.9152676729913196
 30
0.0
 40
3.173536047347699
 50
87.1583560704272458
 51
92.7891094575568047
  0
ARC
  5
7CC0
  8
0
 10
3953.9714390408280451
 20
64.1554653844609248
 30
0.0
 40
0.0781135268953694
 50
279.7063682920597785
 51
295.6412174021697865
  0
LINE
  5
7CC1
  8
0
 10
3951.581973716497032
 20
70.4570220894522237
 30
0.0
 11
3951.581973716497032
 21
64.2353511282407084
 31
0.0
  0
LINE
  5
7CC2
  8
0
 10
3952.841816236203158
 20
68.3894936954464612
 30
0.0
 11
3952.8450517409360145
 21
65.6366090240253044
 31
0.0
  0
LINE
  5
7CC3
  8
0
 10
3951.6149210689031861
 20
70.424158796746454
 30
0.0
 11
3951.6149210689031861
 21
64.2682065022541735
 31
0.0
  0
ARC
  5
7CC4
  8
0
 10
3951.7386157982641635
 20
70.4572610625847062
 30
0.0
 40
0.156642264055796
 50
89.9125897096679552
 51
180.0874103633653078
  0
ARC
  5
7CC5
  8
0
 10
3951.7717187415028093
 20
70.424158796746454
 30
0.0
 40
0.1567976725999982
 50
90.0263142252032935
 51
180.0000000000007958
  0
ARC
  5
7CC6
  8
0
 10
3953.0481007064749974
 20
65.6430263742248741
 30
0.0
 40
0.2031503502087687
 50
181.8102270568305983
 51
268.2272682380752826
  0
ARC
  5
7CC7
  8
0
 10
3951.7386157982641635
 20
64.2351121551082258
 30
0.0
 40
0.156642264055796
 50
179.9125896366346069
 51
270.0874102903321159
  0
ARC
  5
7CC8
  8
0
 10
3951.7717187415028093
 20
64.2682144209464639
 30
0.0
 40
0.1567976725999982
 50
179.9999999999992042
 51
269.9736857747967065
  0
ARC
  5
7CC9
  8
0
 10
3953.2624777565688419
 20
64.1540980815841522
 30
0.0
 40
0.0767892299526079
 50
279.9768596169911916
 51
295.6937518742026896
  0
ARC
  5
7CCA
  8
0
 10
3953.4531008696139907
 20
60.9152676729913196
 30
0.0
 40
3.173536047347699
 50
87.2108905424432237
 51
92.8416439295727542
  0
ARC
  5
7CCB
  8
0
 10
3953.6413272897780189
 20
64.1554653844609248
 30
0.0
 40
0.0781135268953694
 50
244.3587825978302135
 51
260.2936317079402215
  0
ARC
  5
7CCC
  8
0
 10
3953.806383165303032
 20
65.8304385773464702
 30
0.0
 40
0.482283464600001
 50
234.0586157928198077
 51
305.9413842071801923
  0
ARC
  5
7CCD
  8
0
 10
3954.1825016836801296
 20
65.0718911058856122
 30
0.0
 40
0.4295103323219728
 50
120.9906309593854985
 51
133.0586976995047905
  0
ARC
  5
7CCE
  8
0
 10
3953.8065282726370242
 20
65.4964863382450346
 30
0.0
 40
0.1382533494023097
 50
271.9564104241752034
 51
306.753120198991212
  0
ARC
  5
7CCF
  8
0
 10
3953.8134367570391987
 20
65.8555368358151156
 30
0.0
 40
0.497228074360227
 50
236.7209076162293115
 51
269.7478025198906266
  0
ENDSEC
  0
EOF
