  0
SECTION
  2
HEADER
  9
$ACADVER
  1
AC1009
  9
$INSBASE
 10
3903.9461521878911299
 20
61.1838710934584071
 30
0.0
  9
$EXTMIN
 10
3900.4815852587908012
 20
57.191043179979502
 30
0.0
  9
$EXTMAX
 10
3903.957226494545921
 20
64.45158801296229
 30
0.0
  9
$LIMMIN
 10
0.0
 20
0.0
  9
$LIMMAX
 10
11.6929133858000007
 20
8.2677165353999982
  9
$ORTHOMODE
 70
     0
  9
$REGENMODE
 70
     1
  9
$FILLMODE
 70
     1
  9
$QTEXTMODE
 70
     0
  9
$MIRRTEXT
 70
     0
  9
$DRAGMODE
 70
     2
  9
$LTSCALE
 40
0.6431102362
  9
$OSMODE
 70
  4095
  9
$ATTMODE
 70
     1
  9
$TEXTSIZE
 40
0.2
  9
$TRACEWID
 40
0.05
  9
$TEXTSTYLE
  7
STANDARD
  9
$CLAYER
  8
0
  9
$CELTYPE
  6
BYLAYER
  9
$CECOLOR
 62
   256
  9
$DIMSCALE
 40
1.0
  9
$DIMASZ
 40
0.1875
  9
$DIMEXO
 40
0.0625
  9
$DIMDLI
 40
0.4443307087
  9
$DIMRND
 40
0.0
  9
$DIMDLE
 40
0.0
  9
$DIMEXE
 40
0.125
  9
$DIMTP
 40
0.01
  9
$DIMTM
 40
0.01
  9
$DIMTXT
 40
2.0
  9
$DIMCEN
 40
0.1052362205
  9
$DIMTSZ
 40
0.0
  9
$DIMTOL
 70
     1
  9
$DIMLIM
 70
     0
  9
$DIMTIH
 70
     1
  9
$DIMTOH
 70
     1
  9
$DIMSE1
 70
     0
  9
$DIMSE2
 70
     0
  9
$DIMTAD
 70
     0
  9
$DIMZIN
 70
     0
  9
$DIMBLK
  1

  9
$DIMASO
 70
     1
  9
$DIMSHO
 70
     1
  9
$DIMPOST
  1
\X
  9
$DIMAPOST
  1

  9
$DIMALT
 70
     1
  9
$DIMALTD
 70
     2
  9
$DIMALTF
 40
25.3999999999999986
  9
$DIMLFAC
 40
1.0
  9
$DIMTOFL
 70
     0
  9
$DIMTVP
 40
0.0
  9
$DIMTIX
 70
     0
  9
$DIMSOXD
 70
     0
  9
$DIMSAH
 70
     0
  9
$DIMBLK1
  1

  9
$DIMBLK2
  1

  9
$DIMSTYLE
  2
STANDARD
  9
$DIMCLRD
 70
     0
  9
$DIMCLRE
 70
     0
  9
$DIMCLRT
 70
     0
  9
$DIMTFAC
 40
1.0
  9
$DIMGAP
 40
0.09
  9
$LUNITS
 70
     2
  9
$LUPREC
 70
     4
  9
$SKETCHINC
 40
0.1
  9
$FILLETRAD
 40
0.0
  9
$AUNITS
 70
     0
  9
$AUPREC
 70
     0
  9
$MENU
  1
.
  9
$ELEVATION
 40
0.0
  9
$PELEVATION
 40
0.0
  9
$THICKNESS
 40
0.0
  9
$LIMCHECK
 70
     0
  9
$BLIPMODE
 70
     0
  9
$CHAMFERA
 40
0.0
  9
$CHAMFERB
 40
0.0
  9
$SKPOLY
 70
     0
  9
$TDCREATE
 40
2458060.468368056230247
  9
$TDUPDATE
 40
2459934.5940046291798353
  9
$TDINDWG
 40
0.4109445602
  9
$TDUSRTIMER
 40
0.4109445602
  9
$USRTIMER
 70
     1
  9
$ANGBASE
 50
0.0
  9
$ANGDIR
 70
     0
  9
$PDMODE
 70
     0
  9
$PDSIZE
 40
0.3125
  9
$PLINEWID
 40
0.0
  9
$COORDS
 70
     1
  9
$SPLFRAME
 70
     0
  9
$SPLINETYPE
 70
     6
  9
$SPLINESEGS
 70
     8
  9
$ATTDIA
 70
     1
  9
$ATTREQ
 70
     1
  9
$HANDLING
 70
     1
  9
$HANDSEED
  5
7764
  9
$SURFTAB1
 70
     6
  9
$SURFTAB2
 70
     6
  9
$SURFTYPE
 70
     6
  9
$SURFU
 70
     6
  9
$SURFV
 70
     6
  9
$UCSNAME
  2

  9
$UCSORG
 10
0.0
 20
0.0
 30
0.0
  9
$UCSXDIR
 10
1.0
 20
0.0
 30
0.0
  9
$UCSYDIR
 10
0.0
 20
1.0
 30
0.0
  9
$PUCSNAME
  2

  9
$PUCSORG
 10
0.0
 20
0.0
 30
0.0
  9
$PUCSXDIR
 10
1.0
 20
0.0
 30
0.0
  9
$PUCSYDIR
 10
0.0
 20
1.0
 30
0.0
  9
$USERI1
 70
     0
  9
$USERI2
 70
     0
  9
$USERI3
 70
     0
  9
$USERI4
 70
     0
  9
$USERI5
 70
     0
  9
$USERR1
 40
0.0
  9
$USERR2
 40
0.0
  9
$USERR3
 40
0.0
  9
$USERR4
 40
0.0
  9
$USERR5
 40
0.0
  9
$WORLDVIEW
 70
     1
  9
$SHADEDGE
 70
     3
  9
$SHADEDIF
 70
    70
  9
$TILEMODE
 70
     1
  9
$MAXACTVP
 70
    64
  9
$PLIMCHECK
 70
     0
  9
$PEXTMIN
 10
1.0000000000000000E+20
 20
1.0000000000000000E+20
 30
1.0000000000000000E+20
  9
$PEXTMAX
 10
-1.0000000000000000E+20
 20
-1.0000000000000000E+20
 30
-1.0000000000000000E+20
  9
$PLIMMIN
 10
0.0
 20
0.0
  9
$PLIMMAX
 10
12.0
 20
9.0
  9
$UNITMODE
 70
     0
  9
$VISRETAIN
 70
     1
  9
$PLINEGEN
 70
     0
  9
$PSLTSCALE
 70
     1
  0
ENDSEC
  0
SECTION
  2
TABLES
  0
TABLE
  2
VPORT
 70
     1
  0
VPORT
  2
*ACTIVE
 70
     0
 10
0.0
 20
0.0
 11
1.0
 21
1.0
 12
109.8614957204186027
 22
-59.3593408366345727
 13
0.0
 23
0.0
 14
1.0
 24
1.0
 15
0.0
 25
0.0
 16
0.0
 26
0.0
 36
5.1040778033513332
 17
3792.35791015625
 27
120.1806564331053977
 37
0.0
 40
7.3212179095815344
 41
2.1297071129707108
 42
50.0
 43
0.0
 44
0.0
 50
0.0
 51
0.0
 71
     0
 72
   100
 73
     1
 74
     1
 75
     0
 76
     0
 77
     0
 78
     0
  0
ENDTAB
  0
TABLE
  2
LTYPE
 70
     2
  0
LTYPE
  2
CONTINUOUS
 70
     0
  3
Solid line
 72
    65
 73
     0
 40
0.0
  0
LTYPE
  2
PHANTOM2
 70
     0
  3
___ _ _ ___ _ _ ___ _ _ ___ _ _
 72
    65
 73
     6
 40
1.25
 49
0.625
 49
-0.125
 49
0.125
 49
-0.125
 49
0.125
 49
-0.125
  0
ENDTAB
  0
TABLE
  2
LAYER
 70
     2
  0
LAYER
  2
0
 70
     0
 62
   255
  6
CONTINUOUS
  0
LAYER
  2
DEFPOINTS
 70
     0
 62
     7
  6
CONTINUOUS
  0
ENDTAB
  0
TABLE
  2
STYLE
 70
     1
  0
STYLE
  2
STANDARD
 70
     0
 40
0.0
 41
0.8
 50
0.0
 71
     0
 42
0.2
  3
txt
  4

  0
ENDTAB
  0
TABLE
  2
VIEW
 70
     0
  0
ENDTAB
  0
TABLE
  2
UCS
 70
     0
  0
ENDTAB
  0
TABLE
  2
APPID
 70
    10
  0
APPID
  2
ACAD
 70
     0
  0
APPID
  2
ACAD_MLEADERVER
 70
     0
  0
APPID
  2
ACAD_EXEMPT_FROM_CAD_STANDARDS
 70
     0
  0
APPID
  2
ACAD_NAV_VCDISPLAY
 70
     0
  0
APPID
  2
ACAECLAYERSTANDARD
 70
     0
  0
APPID
  2
ACCMTRANSPARENCY
 70
     0
  0
APPID
  2
ACAD_DSTYLE_DIMJAG
 70
     0
  0
APPID
  2
ACAD_DSTYLE_DIMTALN
 70
     0
  0
APPID
  2
ACDBATTR
 70
     0
  0
APPID
  2
DCO15
 70
     0
  0
ENDTAB
  0
TABLE
  2
DIMSTYLE
 70
     1
  0
DIMSTYLE
  2
STANDARD
 70
     0
  3

  4

  5

  6

  7

 40
1.0
 41
0.1875
 42
0.0625
 43
0.38
 44
0.125
 45
0.0
 46
0.0
 47
0.01
 48
0.01
140
0.15625
141
0.09
142
0.0
143
25.3999999999999986
144
1.0
145
0.0
146
1.0
147
0.09
 71
     1
 72
     0
 73
     1
 74
     1
 75
     0
 76
     0
 77
     0
 78
     4
170
     0
171
     2
172
     0
173
     0
174
     0
175
     0
176
     0
177
     0
178
     0
  0
ENDTAB
  0
ENDSEC
  0
SECTION
  2
BLOCKS
  0
BLOCK
  8
0
  2
$MODEL_SPACE
 70
     0
 10
0.0
 20
0.0
 30
0.0
  3
$MODEL_SPACE
  1

  0
ENDBLK
  5
21
  8
0
  0
BLOCK
 67
     1
  8
0
  2
$PAPER_SPACE
 70
     0
 10
0.0
 20
0.0
 30
0.0
  3
$PAPER_SPACE
  1

  0
ENDBLK
  5
1D
 67
     1
  8
0
  0
ENDSEC
  0
SECTION
  2
ENTITIES
  0
ATTDEF
  5
3930
  8
DEFPOINTS
 10
3903.9465598278779908
 20
61.1883329496539972
 30
0.0
 40
0.001
  1
K-73108T-B4
  3

  2
MODELNUMBER
 70
     0
1001
ACDBATTR
1070
     0
1070
     1
  0
ATTDEF
  5
3931
  8
DEFPOINTS
 10
3903.9465598278779908
 20
61.186666282987332
 30
0.0
 40
0.001
  1
MODULO
  3

  2
TRADENAME
 70
     0
1001
ACDBATTR
1070
     0
1070
     1
  0
ATTDEF
  5
3932
  8
DEFPOINTS
 10
3903.9465598278779908
 20
61.1849996163206669
 30
0.0
 40
0.001
  1
VALVE TRIM
  3

  2
PRODUCT
 70
     0
1001
ACDBATTR
1070
     0
1070
     1
  0
LINE
  5
7583
  8
0
 10
3903.9461521878911299
 20
64.45158801296229
 30
0.0
 11
3903.9461521878911299
 21
57.9161541739545385
 31
0.0
  0
LINE
  5
7584
  8
0
 10
3903.9461521878911299
 20
57.9161541739545385
 30
0.0
 11
3903.5696921271919564
 21
57.9490903532429016
 31
0.0
  0
LINE
  5
7585
  8
0
 10
3903.5696924829908312
 20
64.418651480151965
 30
0.0
 11
3903.9461521878911299
 21
64.45158801296229
 31
0.0
  0
ARC
  5
7586
  8
0
 10
3903.5681882725161813
 20
64.3985229976529041
 30
0.0
 40
0.0201846094059168
 50
85.7262048947721809
 51
174.7374855044726871
  0
ARC
  5
7587
  8
0
 10
3943.008272095409211
 20
61.1142896009855789
 30
0.0
 40
39.5967728854753602
 50
175.2396228162519947
 51
177.0068419774322876
  0
ARC
  5
7588
  8
0
 10
3838.4148608774289642
 20
65.2345620851909871
 30
0.0
 40
65.0830347044052786
 50
357.4457579844266206
 51
358.1926437052741221
  0
ARC
  5
7589
  8
0
 10
3929.3524427131319499
 20
61.2952779964831791
 30
0.0
 40
25.940018740756301
 50
177.7048008042968092
 51
180.0721405408442877
  0
ARC
  5
758A
  8
0
 10
3905.555703404183987
 20
61.2180345297310424
 30
0.0
 40
2.1437225097424468
 50
178.8083428194339888
 51
183.018997895137602
  0
ARC
  5
758B
  8
0
 10
3866.9289966301730601
 20
59.1870113534642499
 30
0.0
 40
36.536343849663119
 50
0.1422767507550855
 51
3.0093515434876781
  0
ARC
  5
758C
  8
0
 10
3935.1568249467331952
 20
60.6975620786451699
 30
0.0
 40
31.7264315326556101
 50
182.7488974577615863
 51
184.9366537707726934
  0
ARC
  5
758D
  8
0
 10
3903.5682259096561211
 20
57.9692684356032402
 30
0.0
 40
0.0202312827473478
 50
185.3948044024992043
 51
274.1560286318778026
  0
ARC
  5
758E
  8
0
 10
3900.7991055360248538
 20
57.2235303131011079
 30
0.0
 40
0.032494864634271
 50
271.2498880365358787
 51
358.2508105488053047
  0
ARC
  5
758F
  8
0
 10
3900.5130813217460855
 20
57.2250431075116524
 30
0.0
 40
0.0314960629542238
 50
179.9999999657200078
 51
269.5000000772387239
  0
ARC
  5
7590
  8
0
 10
3901.26111281980684
 20
61.0933199068400583
 30
0.0
 40
0.0118110291904341
 50
90.0000097780636281
 51
180.0445777162630918
  0
ARC
  5
7591
  8
0
 10
3902.2611128177209139
 20
61.0933199122597799
 30
0.0
 40
0.0118110237707114
 50
0.0000008281240249
 51
89.9999996569845564
  0
ARC
  5
7592
  8
0
 10
3902.2847348650238928
 20
61.0933199124601884
 30
0.0
 40
0.0118110235327764
 50
89.9999996739203709
 51
180.0000001440488973
  0
ARC
  5
7593
  8
0
 10
3902.2611128177209139
 20
59.1878081016012203
 30
0.0
 40
0.0118110237707132
 50
270.0000003430154152
 51
0.000003052697401
  0
ARC
  5
7594
  8
0
 10
3902.284734865162136
 20
59.1878081016012132
 30
0.0
 40
0.0118110237707079
 50
180.0000008281220119
 51
269.999999656984528
  0
ARC
  5
7595
  8
0
 10
3900.9103254113520052
 20
59.0995249810550192
 30
0.0
 40
0.078740145575485
 50
89.9999964058807933
 51
180.0000086769528878
  0
ARC
  5
7596
  8
0
 10
3901.261112817790945
 20
59.1878081014304982
 30
0.0
 40
0.0118110236
 50
181.5583152423128013
 51
270.0
  0
ARC
  5
7597
  8
0
 10
3900.5130813217911054
 20
61.0678959299305006
 30
0.0
 40
0.0314960629999988
 50
90.4999999999915588
 51
180.0000000000015916
  0
LINE
  5
7598
  8
0
 10
3900.4815852587908012
 20
61.0678959299305006
 30
0.0
 11
3900.4815852587908012
 21
57.2250431075304888
 31
0.0
  0
LINE
  5
7599
  8
0
 10
3900.512806470292162
 20
57.19354824380396
 30
0.0
 11
3900.7998143442760011
 21
57.191043179979502
 31
0.0
  0
LINE
  5
759A
  8
0
 10
3900.831585258791165
 20
59.6724121343305001
 30
0.0
 11
3900.831585258791165
 21
57.2225384277265121
 31
0.0
  0
LINE
  5
759B
  8
0
 10
3900.9103254162910162
 20
59.1782651266305066
 30
0.0
 11
3901.1705616366912182
 21
59.1759970778305018
 31
0.0
  0
LINE
  5
759C
  8
0
 10
3901.1705616366912182
 20
59.1759970778305018
 30
0.0
 11
3901.1705616323902177
 21
61.1051309359929675
 31
0.0
  0
LINE
  5
759D
  8
0
 10
3901.1705616323902177
 20
61.1051309359929675
 30
0.0
 11
3900.512806470292162
 21
61.0993907936570295
 31
0.0
  0
LINE
  5
759E
  8
0
 10
3902.2847348650911954
 20
61.1051309359929675
 30
0.0
 11
3903.4149561100580286
 21
61.105130936028857
 31
0.0
  0
LINE
  5
759F
  8
0
 10
3901.261112817790945
 20
61.1051309359929675
 30
0.0
 11
3902.2611128177209139
 21
61.1051309359929675
 31
0.0
  0
LINE
  5
75A0
  8
0
 10
3902.272923841490865
 20
61.093319912430502
 30
0.0
 11
3902.272923841490865
 21
59.1878081022304983
 31
0.0
  0
LINE
  5
75A1
  8
0
 10
3902.2847348650911954
 20
59.1759970778305018
 30
0.0
 11
3903.4669007160841829
 21
59.1759970777304929
 31
0.0
  0
LINE
  5
75A2
  8
0
 10
3902.261112817790945
 20
59.1759970778305018
 30
0.0
 11
3901.261112817790945
 21
59.1759970778305018
 31
0.0
  0
LINE
  5
75A3
  8
0
 10
3901.2493017941910693
 20
61.0933107175303789
 30
0.0
 11
3901.2493061623267749
 21
59.1874869079808903
 31
0.0
  0
LINE
  5
75A4
  8
0
 10
3901.2394605194108408
 20
59.1989543236303817
 30
0.0
 11
3901.2493017941910693
 21
59.1989686728305031
 31
0.0
  0
LINE
  5
75A5
  8
0
 10
3901.2178057311912198
 20
59.2134973569847034
 30
0.0
 11
3901.2178057311912198
 21
59.2168000211304886
 31
0.0
  0
LINE
  5
75A6
  8
0
 10
3901.2178057311912198
 20
59.2168000211304886
 30
0.0
 11
3901.2394605194108408
 21
59.1989543236303817
 31
0.0
  0
ARC
  5
75A7
  8
0
 10
3901.8539069342259609
 20
59.9645799758317395
 30
0.0
 40
0.9842509033961668
 50
226.0301636948597093
 51
229.7383224704230997
  0
LINE
  5
75A8
  8
0
 10
3901.1704872844002239
 20
61.0248470025034706
 30
0.0
 11
3901.2394564953920053
 21
61.0854436758342985
 31
0.0
  0
LINE
  5
75A9
  8
0
 10
3901.2394564953920053
 20
61.0854436758342985
 30
0.0
 11
3901.2493017941910693
 21
61.0854436758342985
 31
0.0
  0
LINE
  5
75AA
  8
0
 10
3900.4815852587908012
 20
60.1405640069304965
 30
0.0
 11
3900.7998143714921753
 21
60.1405640079770478
 31
0.0
  0
ARC
  5
75AB
  8
0
 10
3885.547668402608906
 20
58.6839813152512519
 30
0.0
 40
15.3215400595644695
 50
4.5085826065650076
 51
5.455213062089272
  0
ARC
  5
75AC
  8
0
 10
3897.7811846537788369
 20
59.6423696605390532
 30
0.0
 40
3.0505485410484861
 50
0.5642705751529374
 51
4.6256854682930388
  0
LINE
  5
75AD
  8
0
 10
3901.2394564953920053
 20
61.0854436758342914
 30
0.0
 11
3901.2394562840918297
 21
59.1989578139545713
 31
0.0
  0
ARC
  5
75AE
  8
0
 10
3932.8089375540707806
 20
59.709338954152301
 30
0.0
 40
29.346883639646709
 50
180.8426718125043919
 51
181.0413344507317959
  0
LINE
  5
75B0
  8
0
 10
3901.8759795347191357
 20
63.1779651977107903
 30
0.0
 11
3902.3374882073640038
 21
63.1779651977107903
 31
0.0
  0
LINE
  5
75B1
  8
0
 10
3901.8761250187480982
 20
62.2212722842482009
 30
0.0
 11
3902.3373427439400984
 21
62.2212722842482009
 31
0.0
  0
ARC
  5
75B2
  8
0
 10
3901.8761241357601648
 20
63.1504070402778268
 30
0.0
 40
0.0275581574464566
 50
89.9982073474881332
 51
175.7863721747847023
  0
ARC
  5
75B3
  8
0
 10
3907.9947625876711754
 20
62.6996191249084234
 30
0.0
 40
6.1627799341910121
 50
175.7863721747847023
 51
184.2136278252152977
  0
ARC
  5
75B4
  8
0
 10
3901.8761252443191552
 20
62.2488315740396416
 30
0.0
 40
0.0275592897923603
 50
184.2142142355716032
 51
269.9995314638065906
  0
ARC
  5
75B5
  8
0
 10
3902.3373445211050239
 20
63.1504079688686204
 30
0.0
 40
0.0275572288994764
 50
1.997131877773648
 51
90.0036946879737485
  0
LINE
  5
75B6
  8
0
 10
3902.3648850109930208
 20
63.1513683236622327
 30
0.0
 11
3902.3648850109889281
 21
62.2478699261520418
 31
0.0
  0
ARC
  5
75B7
  8
0
 10
3902.3373420699799681
 20
62.2488320235503707
 30
0.0
 40
0.0275597393104123
 50
270.0014011391139093
 51
357.999425091581827
  0
LINE
  5
75B8
  8
0
 10
3902.4775277324920353
 20
62.2113103657388606
 30
0.0
 11
3903.428398831926188
 21
62.2078982588309728
 31
0.0
  0
ARC
  5
75B9
  8
0
 10
3902.4776482508909794
 20
62.2309950362084123
 30
0.0
 40
0.0196850394000017
 50
180.0000000000052864
 51
269.649213839689196
  0
LINE
  5
75BA
  8
0
 10
3902.4579632114910055
 20
62.2309950362084123
 30
0.0
 11
3902.4579632115910499
 21
63.1682432135084184
 31
0.0
  0
ARC
  5
75BB
  8
0
 10
3902.477648251095161
 20
63.1682432135063081
 30
0.0
 40
0.0196850395033419
 50
90.3507867211574336
 51
179.9999999938860071
  0
LINE
  5
75BC
  8
0
 10
3902.4775277324920353
 20
63.1879278840779719
 30
0.0
 11
3903.4660125771279127
 21
63.1913392231280326
 31
0.0
  0
LINE
  5
75BD
  8
0
 10
3902.4579632115910499
 20
62.3031147909084169
 30
0.0
 11
3902.3857075533369425
 21
62.3027364577086473
 31
0.0
  0
ARC
  5
75BE
  8
0
 10
3902.3858106234920342
 20
62.2830516881522769
 30
0.0
 40
0.0196850393940267
 50
90.3000000003251273
 51
178.0000000328687122
  0
LINE
  5
75BF
  8
0
 10
3902.3661375756910275
 20
62.283738686108407
 30
0.0
 11
3902.3648857436851358
 21
62.2478909071146873
 31
0.0
  0
LINE
  5
75C0
  8
0
 10
3902.3661375756910275
 20
62.283738686108407
 30
0.0
 11
3902.3661375756910275
 21
63.1154995635726621
 31
0.0
  0
LINE
  5
75C1
  8
0
 10
3902.3661375756910275
 20
63.1154995635726621
 30
0.0
 11
3902.3648850109930208
 21
63.1513683236622114
 31
0.0
  0
ARC
  5
75C2
  8
0
 10
3902.3858106235438754
 20
63.1161865617231967
 30
0.0
 40
0.0196850394529451
 50
182.000000527372805
 51
269.6999998471982849
  0
LINE
  5
75C3
  8
0
 10
3902.3857075533369425
 20
63.0965017921081781
 30
0.0
 11
3902.4579632115828645
 21
63.0961234587161783
 31
0.0
  0
ARC
  5
75C4
  8
0
 10
3902.0236387716181525
 20
63.0462473715826235
 30
0.0
 40
0.0472422040814231
 50
95.478872297157011
 51
142.5450074920881889
  0
ARC
  5
75C5
  8
0
 10
3902.1917002388190667
 20
62.9174988934634101
 30
0.0
 40
0.2589515033001064
 50
142.5450074920885015
 51
152.8527993968772023
  0
ARC
  5
75C6
  8
0
 10
3902.4091135973471864
 20
62.832505404633352
 30
0.0
 40
0.4917598779569506
 50
155.6001012403986863
 51
167.0568472281094046
  0
ARC
  5
75C7
  8
0
 10
3841.1611056597898823
 20
77.6166862760652521
 30
0.0
 40
62.5153367481729418
 50
346.3689735487258758
 51
346.4244719382256221
  0
ARC
  5
75C8
  8
0
 10
3902.6976902075389262
 20
62.7007602939757902
 30
0.0
 40
0.8032174497372686
 50
166.8277936397163046
 51
193.1722063602832122
  0
ARC
  5
75C9
  8
0
 10
3903.6988509310149311
 20
62.9015576504685825
 30
0.0
 40
1.824086458505159
 50
192.1472597039987136
 51
194.1190854475455012
  0
ARC
  5
75CA
  8
0
 10
3902.3959325982441442
 20
62.5625984057548408
 30
0.0
 40
0.4779672008819906
 50
192.8137639288258072
 51
205.0770774368754132
  0
ARC
  5
75CB
  8
0
 10
3902.1130995992048156
 20
62.431621227978809
 30
0.0
 40
0.1662861494448118
 50
205.5057336825003063
 51
220.0136182678548948
  0
ARC
  5
75CC
  8
0
 10
3902.034007309118806
 20
62.3652946035593274
 30
0.0
 40
0.0630640418319261
 50
220.0635296678212001
 51
242.4641667737438127
  0
ARC
  5
75CD
  8
0
 10
3902.0194424969618012
 20
62.3388683356105417
 30
0.0
 40
0.0329053353244719
 50
243.6796153698658998
 51
269.4527142189471078
  0
LINE
  5
75CE
  8
0
 10
3902.019128191991058
 20
62.3059645014084111
 30
0.0
 11
3902.1960108938919802
 21
62.3059645014084182
 31
0.0
  0
ARC
  5
75CF
  8
0
 10
3902.1915003173639889
 20
63.0462473715826235
 30
0.0
 40
0.0472422040814231
 50
37.4549925079117827
 51
84.521127702842989
  0
ARC
  5
75D0
  8
0
 10
3902.0234388501639842
 20
62.9174988934634101
 30
0.0
 40
0.2589515033001064
 50
27.1472006031227693
 51
37.4549925079117827
  0
ARC
  5
75D1
  8
0
 10
3901.8060254916358645
 20
62.832505404633352
 30
0.0
 40
0.4917598779569506
 50
12.9431527718905794
 51
24.3998987596012995
  0
ARC
  5
75D2
  8
0
 10
3963.0540334291931686
 20
77.6166862760652521
 30
0.0
 40
62.5153367481729418
 50
193.5755280617744063
 51
193.6310264512740957
  0
ARC
  5
75D3
  8
0
 10
3901.5174488814432152
 20
62.7007602939757902
 30
0.0
 40
0.8032174497372686
 50
346.8277936397166741
 51
13.1722063602836794
  0
ARC
  5
75D4
  8
0
 10
3900.5162881579672103
 20
62.9015576504685825
 30
0.0
 40
1.824086458505159
 50
345.8809145524544988
 51
347.8527402960012864
  0
ARC
  5
75D5
  8
0
 10
3901.8192064907389067
 20
62.5625984057548408
 30
0.0
 40
0.4779672008819906
 50
334.9229225631245868
 51
347.1862360711738233
  0
ARC
  5
75D6
  8
0
 10
3902.1020394897777805
 20
62.431621227978809
 30
0.0
 40
0.1662861494448118
 50
319.9863817321451052
 51
334.4942663174996937
  0
ARC
  5
75D7
  8
0
 10
3902.1811317798637901
 20
62.3652946035593274
 30
0.0
 40
0.0630640418319261
 50
297.5358332262562158
 51
319.9364703321783736
  0
ARC
  5
75D8
  8
0
 10
3902.1956965922217933
 20
62.3388683350542507
 30
0.0
 40
0.0329053347366662
 50
270.5472800425453102
 51
296.3203847457365896
  0
LINE
  5
75D9
  8
0
 10
3902.0191281475918004
 20
63.0932737484084072
 30
0.0
 11
3902.1960108302910157
 21
63.0932737484084072
 31
0.0
  0
LINE
  5
75DA
  8
0
 10
3901.9471445591912016
 20
63.0010651428674606
 30
0.0
 11
3901.9471445591912016
 21
62.3981540652553406
 31
0.0
  0
LINE
  5
75DB
  8
0
 10
3902.2679944622909716
 20
63.0010653278635502
 30
0.0
 11
3902.2679944622909716
 21
62.398153881039967
 31
0.0
  0
LINE
  5
75DC
  8
0
 10
3903.5517177269111926
 20
64.4101908845383093
 30
0.0
 11
3903.5517177269111926
 21
57.9575729362944685
 31
0.0
  0
ENDSEC
  0
EOF
