  0
SECTION
  2
HEADER
  9
$ACADVER
  1
AC1009
  9
$INSBASE
 10
767.84245059293346
 20
116.7609612376058976
 30
0.0
  9
$EXTMIN
 10
760.9041536462021895
 20
85.6705982873762082
 30
-0.0000000000000058
  9
$EXTMAX
 10
779.1531078360053471
 20
148.5050691502891027
 30
0.0000000000000104
  9
$LIMMIN
 10
0.0
 20
0.0
  9
$LIMMAX
 10
11.6929133858000007
 20
8.2677165353999982
  9
$ORTHOMODE
 70
     0
  9
$REGENMODE
 70
     1
  9
$FILLMODE
 70
     1
  9
$QTEXTMODE
 70
     0
  9
$MIRRTEXT
 70
     0
  9
$DRAGMODE
 70
     2
  9
$LTSCALE
 40
0.6431102362
  9
$OSMODE
 70
  4095
  9
$ATTMODE
 70
     1
  9
$TEXTSIZE
 40
0.2
  9
$TRACEWID
 40
0.05
  9
$TEXTSTYLE
  7
STANDARD
  9
$CLAYER
  8
0
  9
$CELTYPE
  6
BYLAYER
  9
$CECOLOR
 62
   256
  9
$DIMSCALE
 40
1.0
  9
$DIMASZ
 40
0.1875
  9
$DIMEXO
 40
0.0625
  9
$DIMDLI
 40
0.4443307087
  9
$DIMRND
 40
0.0
  9
$DIMDLE
 40
0.0
  9
$DIMEXE
 40
0.125
  9
$DIMTP
 40
0.01
  9
$DIMTM
 40
0.01
  9
$DIMTXT
 40
1.0
  9
$DIMCEN
 40
0.1052362205
  9
$DIMTSZ
 40
0.0
  9
$DIMTOL
 70
     1
  9
$DIMLIM
 70
     0
  9
$DIMTIH
 70
     0
  9
$DIMTOH
 70
     1
  9
$DIMSE1
 70
     0
  9
$DIMSE2
 70
     0
  9
$DIMTAD
 70
     0
  9
$DIMZIN
 70
     0
  9
$DIMBLK
  1

  9
$DIMASO
 70
     1
  9
$DIMSHO
 70
     1
  9
$DIMPOST
  1
\X
  9
$DIMAPOST
  1

  9
$DIMALT
 70
     1
  9
$DIMALTD
 70
     2
  9
$DIMALTF
 40
25.3999999999999986
  9
$DIMLFAC
 40
1.0
  9
$DIMTOFL
 70
     0
  9
$DIMTVP
 40
0.0
  9
$DIMTIX
 70
     0
  9
$DIMSOXD
 70
     0
  9
$DIMSAH
 70
     0
  9
$DIMBLK1
  1

  9
$DIMBLK2
  1

  9
$DIMSTYLE
  2
STANDARD
  9
$DIMCLRD
 70
     0
  9
$DIMCLRE
 70
     0
  9
$DIMCLRT
 70
     0
  9
$DIMTFAC
 40
1.0
  9
$DIMGAP
 40
0.09
  9
$LUNITS
 70
     2
  9
$LUPREC
 70
     4
  9
$SKETCHINC
 40
0.1
  9
$FILLETRAD
 40
0.02
  9
$AUNITS
 70
     0
  9
$AUPREC
 70
     0
  9
$MENU
  1
.
  9
$ELEVATION
 40
0.0
  9
$PELEVATION
 40
0.0
  9
$THICKNESS
 40
0.0
  9
$LIMCHECK
 70
     0
  9
$BLIPMODE
 70
     0
  9
$CHAMFERA
 40
0.0
  9
$CHAMFERB
 40
0.0
  9
$SKPOLY
 70
     0
  9
$TDCREATE
 40
2458172.5207638889551163
  9
$TDUPDATE
 40
2460158.7280208338052034
  9
$TDINDWG
 40
0.386945162
  9
$TDUSRTIMER
 40
0.386945162
  9
$USRTIMER
 70
     1
  9
$ANGBASE
 50
0.0
  9
$ANGDIR
 70
     0
  9
$PDMODE
 70
     0
  9
$PDSIZE
 40
0.3125
  9
$PLINEWID
 40
0.0
  9
$COORDS
 70
     1
  9
$SPLFRAME
 70
     0
  9
$SPLINETYPE
 70
     6
  9
$SPLINESEGS
 70
     8
  9
$ATTDIA
 70
     1
  9
$ATTREQ
 70
     1
  9
$HANDLING
 70
     1
  9
$HANDSEED
  5
CFE3
  9
$SURFTAB1
 70
     6
  9
$SURFTAB2
 70
     6
  9
$SURFTYPE
 70
     6
  9
$SURFU
 70
     6
  9
$SURFV
 70
     6
  9
$UCSNAME
  2

  9
$UCSORG
 10
0.0
 20
0.0
 30
0.0
  9
$UCSXDIR
 10
1.0
 20
0.0
 30
0.0
  9
$UCSYDIR
 10
0.0
 20
1.0
 30
0.0
  9
$PUCSNAME
  2

  9
$PUCSORG
 10
0.0
 20
0.0
 30
0.0
  9
$PUCSXDIR
 10
1.0
 20
0.0
 30
0.0
  9
$PUCSYDIR
 10
0.0
 20
1.0
 30
0.0
  9
$USERI1
 70
     0
  9
$USERI2
 70
     0
  9
$USERI3
 70
     0
  9
$USERI4
 70
     0
  9
$USERI5
 70
     0
  9
$USERR1
 40
0.0
  9
$USERR2
 40
0.0
  9
$USERR3
 40
0.0
  9
$USERR4
 40
0.0
  9
$USERR5
 40
0.0
  9
$WORLDVIEW
 70
     1
  9
$SHADEDGE
 70
     3
  9
$SHADEDIF
 70
    70
  9
$TILEMODE
 70
     1
  9
$MAXACTVP
 70
    64
  9
$PLIMCHECK
 70
     0
  9
$PEXTMIN
 10
1.0000000000000000E+20
 20
1.0000000000000000E+20
 30
1.0000000000000000E+20
  9
$PEXTMAX
 10
-1.0000000000000000E+20
 20
-1.0000000000000000E+20
 30
-1.0000000000000000E+20
  9
$PLIMMIN
 10
0.0
 20
0.0
  9
$PLIMMAX
 10
12.0
 20
9.0
  9
$UNITMODE
 70
     0
  9
$VISRETAIN
 70
     1
  9
$PLINEGEN
 70
     0
  9
$PSLTSCALE
 70
     1
  0
ENDSEC
  0
SECTION
  2
TABLES
  0
TABLE
  2
VPORT
 70
     1
  0
VPORT
  2
*ACTIVE
 70
     0
 10
0.0
 20
0.0
 11
1.0
 21
1.0
 12
303.2864290332736914
 22
27.9546865989028994
 13
0.0
 23
0.0
 14
1.0
 24
1.0
 15
0.0
 25
0.0
 16
0.0
 26
0.0
 36
24.1179433675886514
 17
466.74220170783002
 27
89.133147119929788
 37
0.0
 40
63.3171940705665719
 41
1.4307692307692299
 42
50.0
 43
0.0
 44
0.0
 50
0.0
 51
0.0
 71
     0
 72
   100
 73
     1
 74
     1
 75
     0
 76
     0
 77
     0
 78
     0
  0
ENDTAB
  0
TABLE
  2
LTYPE
 70
     2
  0
LTYPE
  2
CONTINUOUS
 70
     0
  3
Solid line
 72
    65
 73
     0
 40
0.0
  0
LTYPE
  2
PHANTOM2
 70
     0
  3
___ _ _ ___ _ _ ___ _ _ ___ _ _
 72
    65
 73
     6
 40
1.25
 49
0.625
 49
-0.125
 49
0.125
 49
-0.125
 49
0.125
 49
-0.125
  0
ENDTAB
  0
TABLE
  2
LAYER
 70
     2
  0
LAYER
  2
0
 70
     0
 62
   255
  6
CONTINUOUS
  0
LAYER
  2
DEFPOINTS
 70
     0
 62
     7
  6
CONTINUOUS
  0
ENDTAB
  0
TABLE
  2
STYLE
 70
     1
  0
STYLE
  2
STANDARD
 70
     0
 40
0.0
 41
0.8
 50
0.0
 71
     0
 42
0.2
  3
txt
  4

  0
ENDTAB
  0
TABLE
  2
VIEW
 70
     0
  0
ENDTAB
  0
TABLE
  2
UCS
 70
     0
  0
ENDTAB
  0
TABLE
  2
APPID
 70
    11
  0
APPID
  2
ACAD
 70
     0
  0
APPID
  2
ACAD_MLEADERVER
 70
     0
  0
APPID
  2
ACAD_EXEMPT_FROM_CAD_STANDARDS
 70
     0
  0
APPID
  2
ACAD_DSTYLE_DIMJAG
 70
     0
  0
APPID
  2
ACAD_DSTYLE_DIMTALN
 70
     0
  0
APPID
  2
ACAD_NAV_VCDISPLAY
 70
     0
  0
APPID
  2
ACAECLAYERSTANDARD
 70
     0
  0
APPID
  2
ACCMTRANSPARENCY
 70
     0
  0
APPID
  2
DCO15
 70
     0
  0
APPID
  2
ACDBATTR
 70
     0
  0
APPID
  2
ACADANNOTATIVE
 70
     0
  0
ENDTAB
  0
TABLE
  2
DIMSTYLE
 70
     1
  0
DIMSTYLE
  2
STANDARD
 70
     0
  3

  4

  5

  6

  7

 40
1.0
 41
0.1875
 42
0.0625
 43
0.38
 44
0.125
 45
0.0
 46
0.0
 47
0.01
 48
0.01
140
0.15625
141
0.09
142
0.0
143
25.3999999999999986
144
1.0
145
0.0
146
1.0
147
0.09
 71
     1
 72
     0
 73
     1
 74
     1
 75
     0
 76
     0
 77
     0
 78
     4
170
     0
171
     2
172
     0
173
     0
174
     0
175
     0
176
     0
177
     0
178
     0
  0
ENDTAB
  0
ENDSEC
  0
SECTION
  2
BLOCKS
  0
BLOCK
  8
0
  2
$MODEL_SPACE
 70
     0
 10
0.0
 20
0.0
 30
0.0
  3
$MODEL_SPACE
  1

  0
ENDBLK
  5
21
  8
0
  0
BLOCK
 67
     1
  8
0
  2
$PAPER_SPACE
 70
     0
 10
0.0
 20
0.0
 30
0.0
  3
$PAPER_SPACE
  1

  0
ENDBLK
  5
1D
 67
     1
  8
0
  0
ENDSEC
  0
SECTION
  2
ENTITIES
  0
ATTDEF
  5
829
  8
DEFPOINTS
 10
767.8386358584325535
 20
116.7648245573445962
 30
0.0
 40
0.001
  1
K-73111T-7
  3

  2
MODELNUMBER
 70
     0
1001
ACDBATTR
1070
     0
1070
     1
  0
ATTDEF
  5
82A
  8
DEFPOINTS
 10
767.8386358584325535
 20
116.7631578906779026
 30
0.0
 40
0.001
  1
COMPOSED
  3

  2
TRADENAME
 70
     0
1001
ACDBATTR
1070
     0
1070
     1
  0
ATTDEF
  5
82B
  8
DEFPOINTS
 10
767.8386358584325535
 20
116.7614912240112943
 30
0.0
 40
0.001
  1
SHOWER COLUMN
  3

  2
PRODUCT
 70
     0
1001
ACDBATTR
1070
     0
1070
     1
  0
LINE
  5
CAFF
  8
0
 10
767.213265156668399
 20
122.808492309978206
 30
0.0
 11
769.4250978371344445
 21
122.808492309978206
 31
0.0
  0
CIRCLE
  5
CB00
  8
0
 10
769.4032597057772591
 20
127.8993304172669951
 30
0.0
 40
0.0231353608729705
  0
CIRCLE
  5
CB01
  8
0
 10
769.4048847792937522
 20
127.9064670910776016
 30
0.0
 40
0.0639680105945846
  0
ARC
  5
CB02
  8
0
 10
769.3961166815435035
 20
127.9241937713241981
 30
0.0
 40
0.0856240085314119
 50
112.4598994475335019
 51
177.6344372385673012
  0
ARC
  5
CB03
  8
0
 10
769.4012274995410507
 20
127.9118306986165976
 30
0.0
 40
0.0990018270149436
 50
7.5787842478601091
 51
112.4598994475335019
  0
ARC
  5
CB04
  8
0
 10
769.4151830276446162
 20
127.921536377783795
 30
0.0
 40
0.0842481571479408
 50
293.9629661520223181
 51
2.279974459158836
  0
ARC
  5
CB05
  8
0
 10
769.4074356750480774
 20
127.9355810867592993
 30
0.0
 40
0.1002383202146726
 50
213.6302240875129996
 51
294.7491580058244836
  0
ARC
  5
CB06
  8
0
 10
769.3946882691354858
 20
127.9256769844239017
 30
0.0
 40
0.0841476262908067
 50
178.6033924129517914
 51
212.8222882004108953
  0
CIRCLE
  5
CB07
  8
0
 10
768.9339935966480652
 20
128.0085171982267127
 30
0.0
 40
0.0231353608729705
  0
CIRCLE
  5
CB08
  8
0
 10
768.935618670164672
 20
128.0156538720372907
 30
0.0
 40
0.0639680105945846
  0
ARC
  5
CB09
  8
0
 10
768.9268505724144234
 20
128.0333805522840009
 30
0.0
 40
0.0856240085314119
 50
112.4598994475335019
 51
177.6344372385673012
  0
ARC
  5
CB0A
  8
0
 10
768.9319613904117432
 20
128.021017479576301
 30
0.0
 40
0.0990018270149436
 50
7.5787842478601091
 51
112.4598994475335019
  0
ARC
  5
CB0B
  8
0
 10
768.9459169185155361
 20
128.0307231587435126
 30
0.0
 40
0.0842481571479408
 50
293.9629661520223181
 51
2.279974459158836
  0
ARC
  5
CB0C
  8
0
 10
768.9381695659187699
 20
128.0447678677190879
 30
0.0
 40
0.1002383202146726
 50
213.6302240875129996
 51
294.7491580058244836
  0
ARC
  5
CB0D
  8
0
 10
768.9254221600061783
 20
128.0348637653837045
 30
0.0
 40
0.0841476262908067
 50
178.6033924129517914
 51
212.8222882004108953
  0
CIRCLE
  5
CB0E
  8
0
 10
770.2652821254811215
 20
128.1828855999902999
 30
0.0
 40
0.0231353608729705
  0
CIRCLE
  5
CB0F
  8
0
 10
770.2669071989975009
 20
128.1900222738009063
 30
0.0
 40
0.0639680105945846
  0
ARC
  5
CB10
  8
0
 10
770.2581391012472523
 20
128.2077489540475028
 30
0.0
 40
0.0856240085314119
 50
112.4598994475335019
 51
177.6344372385673012
  0
ARC
  5
CB11
  8
0
 10
770.2632499192446858
 20
128.1953858813398881
 30
0.0
 40
0.0990018270149436
 50
7.5787842478601091
 51
112.4598994475335019
  0
ARC
  5
CB12
  8
0
 10
770.2772054473482513
 20
128.2050915605070998
 30
0.0
 40
0.0842481571479408
 50
293.9629661520223181
 51
2.279974459158836
  0
ARC
  5
CB13
  8
0
 10
770.2694580947518261
 20
128.2191362694825898
 30
0.0
 40
0.1002383202146726
 50
213.6302240875129996
 51
294.7491580058244836
  0
ARC
  5
CB14
  8
0
 10
770.2567106888392345
 20
128.2092321671472064
 30
0.0
 40
0.0841476262908067
 50
178.6033924129517914
 51
212.8222882004108953
  0
CIRCLE
  5
CB15
  8
0
 10
769.7802349732512539
 20
128.2320754361253989
 30
0.0
 40
0.0231353608729705
  0
CIRCLE
  5
CB16
  8
0
 10
769.781860046767747
 20
128.2392121099360054
 30
0.0
 40
0.0639680105945846
  0
ARC
  5
CB17
  8
0
 10
769.7730919490174983
 20
128.2569387901826872
 30
0.0
 40
0.0856240085314119
 50
112.4598994475335019
 51
177.6344372385673012
  0
ARC
  5
CB18
  8
0
 10
769.7782027670149319
 20
128.2445757174749872
 30
0.0
 40
0.0990018270149436
 50
7.5787842478601091
 51
112.4598994475335019
  0
ARC
  5
CB19
  8
0
 10
769.7921582951184973
 20
128.2542813966421988
 30
0.0
 40
0.0842481571479408
 50
293.9629661520223181
 51
2.279974459158836
  0
ARC
  5
CB1A
  8
0
 10
769.7844109425218448
 20
128.2683261056178026
 30
0.0
 40
0.1002383202146726
 50
213.6302240875129996
 51
294.7491580058244836
  0
ARC
  5
CB1B
  8
0
 10
769.7716635366092532
 20
128.2584220032823907
 30
0.0
 40
0.0841476262908067
 50
178.6033924129517914
 51
212.8222882004108953
  0
CIRCLE
  5
CB1C
  8
0
 10
769.3096783523667455
 20
128.3342032837099111
 30
0.0
 40
0.0231353608729705
  0
CIRCLE
  5
CB1D
  8
0
 10
769.3113034258833522
 20
128.3413399575204892
 30
0.0
 40
0.0639680105945846
  0
ARC
  5
CB1E
  8
0
 10
769.3025353281329899
 20
128.3590666377671141
 30
0.0
 40
0.0856240085314119
 50
112.4598994475335019
 51
177.6344372385673012
  0
ARC
  5
CB1F
  8
0
 10
769.3076461461305371
 20
128.3467035650594994
 30
0.0
 40
0.0990018270149436
 50
7.5787842478601091
 51
112.4598994475335019
  0
ARC
  5
CB20
  8
0
 10
769.3216016742342163
 20
128.3564092442267111
 30
0.0
 40
0.0842481571479408
 50
293.9629661520223181
 51
2.279974459158836
  0
ARC
  5
CB21
  8
0
 10
769.3138543216375638
 20
128.3704539532022011
 30
0.0
 40
0.1002383202146726
 50
213.6302240875129996
 51
294.7491580058244836
  0
ARC
  5
CB22
  8
0
 10
769.3011069157248585
 20
128.3605498508667893
 30
0.0
 40
0.0841476262908067
 50
178.6033924129517914
 51
212.8222882004108953
  0
CIRCLE
  5
CB23
  8
0
 10
770.1094009847678308
 20
128.5411080945445121
 30
0.0
 40
0.0231353608729705
  0
CIRCLE
  5
CB24
  8
0
 10
770.1110260582843239
 20
128.5482447683550902
 30
0.0
 40
0.0639680105945846
  0
ARC
  5
CB25
  8
0
 10
770.1022579605339615
 20
128.5659714486018004
 30
0.0
 40
0.0856240085314119
 50
112.4598994475335019
 51
177.6344372385673012
  0
ARC
  5
CB26
  8
0
 10
770.107368778531395
 20
128.5536083758941004
 30
0.0
 40
0.0990018270149436
 50
7.5787842478601091
 51
112.4598994475335019
  0
ARC
  5
CB27
  8
0
 10
770.1213243066350742
 20
128.563314055061312
 30
0.0
 40
0.0842481571479408
 50
293.9629661520223181
 51
2.279974459158836
  0
ARC
  5
CB28
  8
0
 10
770.1135769540385354
 20
128.5773587640368021
 30
0.0
 40
0.1002383202146726
 50
213.6302240875129996
 51
294.7491580058244836
  0
ARC
  5
CB29
  8
0
 10
770.1008295481259438
 20
128.5674546617013903
 30
0.0
 40
0.0841476262908067
 50
178.6033924129517914
 51
212.8222882004108953
  0
CIRCLE
  5
CB2A
  8
0
 10
769.7039587431712562
 20
128.6769612027489131
 30
0.0
 40
0.0231353608729705
  0
CIRCLE
  5
CB2B
  8
0
 10
769.7055838166877493
 20
128.6840978765594912
 30
0.0
 40
0.0639680105945846
  0
ARC
  5
CB2C
  8
0
 10
769.6968157189375006
 20
128.7018245568060877
 30
0.0
 40
0.0856240085314119
 50
112.4598994475335019
 51
177.6344372385673012
  0
ARC
  5
CB2D
  8
0
 10
769.7019265369349341
 20
128.6894614840983877
 30
0.0
 40
0.0990018270149436
 50
7.5787842478601091
 51
112.4598994475335019
  0
ARC
  5
CB2E
  8
0
 10
769.7158820650386133
 20
128.6991671632655994
 30
0.0
 40
0.0842481571479408
 50
293.9629661520223181
 51
2.279974459158836
  0
ARC
  5
CB2F
  8
0
 10
769.7081347124418471
 20
128.7132118722412031
 30
0.0
 40
0.1002383202146726
 50
213.6302240875129996
 51
294.7491580058244836
  0
ARC
  5
CB30
  8
0
 10
769.6953873065292555
 20
128.7033077699057912
 30
0.0
 40
0.0841476262908067
 50
178.6033924129517914
 51
212.8222882004108953
  0
CIRCLE
  5
CB31
  8
0
 10
768.6291775011163736
 20
128.3290831085286072
 30
0.0
 40
0.0231353608729705
  0
CIRCLE
  5
CB32
  8
0
 10
768.630802574632753
 20
128.3362197823392137
 30
0.0
 40
0.0639680105945846
  0
ARC
  5
CB33
  8
0
 10
768.622034476882618
 20
128.3539464625858102
 30
0.0
 40
0.0856240085314119
 50
112.4598994475335019
 51
177.6344372385673012
  0
ARC
  5
CB34
  8
0
 10
768.6271452948800516
 20
128.3415833898781955
 30
0.0
 40
0.0990018270149436
 50
7.5787842478601091
 51
112.4598994475335019
  0
ARC
  5
CB35
  8
0
 10
768.6411008229837307
 20
128.3512890690454071
 30
0.0
 40
0.0842481571479408
 50
293.9629661520223181
 51
2.279974459158836
  0
ARC
  5
CB36
  8
0
 10
768.6333534703869645
 20
128.3653337780208972
 30
0.0
 40
0.1002383202146726
 50
213.6302240875129996
 51
294.7491580058244836
  0
ARC
  5
CB37
  8
0
 10
768.6206060644743729
 20
128.355429675685599
 30
0.0
 40
0.0841476262908067
 50
178.6033924129517914
 51
212.8222882004108953
  0
CIRCLE
  5
CB38
  8
0
 10
769.0197619903810846
 20
128.6522838764250025
 30
0.0
 40
0.0231353608729705
  0
CIRCLE
  5
CB39
  8
0
 10
769.021387063897464
 20
128.659420550235609
 30
0.0
 40
0.0639680105945846
  0
ARC
  5
CB3A
  8
0
 10
769.012618966147329
 20
128.6771472304822908
 30
0.0
 40
0.0856240085314119
 50
112.4598994475335019
 51
177.6344372385673012
  0
ARC
  5
CB3B
  8
0
 10
769.0177297841446489
 20
128.6647841577745908
 30
0.0
 40
0.0990018270149436
 50
7.5787842478601091
 51
112.4598994475335019
  0
ARC
  5
CB3C
  8
0
 10
769.031685312248328
 20
128.6744898369418024
 30
0.0
 40
0.0842481571479408
 50
293.9629661520223181
 51
2.279974459158836
  0
ARC
  5
CB3D
  8
0
 10
769.0239379596516756
 20
128.6885345459172925
 30
0.0
 40
0.1002383202146726
 50
213.6302240875129996
 51
294.7491580058244836
  0
ARC
  5
CB3E
  8
0
 10
769.0111905537391976
 20
128.6786304435819943
 30
0.0
 40
0.0841476262908067
 50
178.6033924129517914
 51
212.8222882004108953
  0
CIRCLE
  5
CB3F
  8
0
 10
768.5457433135791234
 20
128.8205026363249033
 30
0.0
 40
0.0231353608729705
  0
CIRCLE
  5
CB40
  8
0
 10
768.5473683870956165
 20
128.8276393101355097
 30
0.0
 40
0.0639680105945846
  0
ARC
  5
CB41
  8
0
 10
768.5386002893452542
 20
128.8453659903821062
 30
0.0
 40
0.0856240085314119
 50
112.4598994475335019
 51
177.6344372385673012
  0
ARC
  5
CB42
  8
0
 10
768.5437111073428014
 20
128.8330029176744063
 30
0.0
 40
0.0990018270149436
 50
7.5787842478601091
 51
112.4598994475335019
  0
ARC
  5
CB43
  8
0
 10
768.5576666354463669
 20
128.8427085968417032
 30
0.0
 40
0.0842481571479408
 50
293.9629661520223181
 51
2.279974459158836
  0
ARC
  5
CB44
  8
0
 10
768.5499192828498281
 20
128.8567533058171932
 30
0.0
 40
0.1002383202146726
 50
213.6302240875129996
 51
294.7491580058244836
  0
ARC
  5
CB45
  8
0
 10
768.5371718769372364
 20
128.8468492034818098
 30
0.0
 40
0.0841476262908067
 50
178.6033924129517914
 51
212.8222882004108953
  0
CIRCLE
  5
CB46
  8
0
 10
768.9461052486631161
 20
129.0980660344004036
 30
0.0
 40
0.0231353608729705
  0
CIRCLE
  5
CB47
  8
0
 10
768.9477303221796092
 20
129.1052027082110101
 30
0.0
 40
0.0639680105945846
  0
ARC
  5
CB48
  8
0
 10
768.9389622244292468
 20
129.1229293884576919
 30
0.0
 40
0.0856240085314119
 50
112.4598994475335019
 51
177.6344372385673012
  0
ARC
  5
CB49
  8
0
 10
768.944073042426794
 20
129.1105663157499919
 30
0.0
 40
0.0990018270149436
 50
7.5787842478601091
 51
112.4598994475335019
  0
ARC
  5
CB4A
  8
0
 10
768.9580285705304732
 20
129.1202719949172035
 30
0.0
 40
0.0842481571479408
 50
293.9629661520223181
 51
2.279974459158836
  0
ARC
  5
CB4B
  8
0
 10
768.9502812179338207
 20
129.1343167038926936
 30
0.0
 40
0.1002383202146726
 50
213.6302240875129996
 51
294.7491580058244836
  0
ARC
  5
CB4C
  8
0
 10
768.9375338120212291
 20
129.1244126015573954
 30
0.0
 40
0.0841476262908067
 50
178.6033924129517914
 51
212.8222882004108953
  0
CIRCLE
  5
CB4D
  8
0
 10
769.4199219257868663
 20
128.9727304602508013
 30
0.0
 40
0.0231353608729705
  0
CIRCLE
  5
CB4E
  8
0
 10
769.4215469993033594
 20
128.9798671340614078
 30
0.0
 40
0.0639680105945846
  0
ARC
  5
CB4F
  8
0
 10
769.4127789015532244
 20
128.9975938143080043
 30
0.0
 40
0.0856240085314119
 50
112.4598994475335019
 51
177.6344372385673012
  0
ARC
  5
CB50
  8
0
 10
769.4178897195506579
 20
128.9852307416003043
 30
0.0
 40
0.0990018270149436
 50
7.5787842478601091
 51
112.4598994475335019
  0
ARC
  5
CB51
  8
0
 10
769.4318452476543371
 20
128.9949364207676012
 30
0.0
 40
0.0842481571479408
 50
293.9629661520223181
 51
2.279974459158836
  0
ARC
  5
CB52
  8
0
 10
769.4240978950576846
 20
129.0089811297430913
 30
0.0
 40
0.1002383202146726
 50
213.6302240875129996
 51
294.7491580058244836
  0
ARC
  5
CB53
  8
0
 10
769.411350489145093
 20
128.9990770274077079
 30
0.0
 40
0.0841476262908067
 50
178.6033924129517914
 51
212.8222882004108953
  0
CIRCLE
  5
CB54
  8
0
 10
769.2913315924478184
 20
129.3661844787949065
 30
0.0
 40
0.0231353608729705
  0
CIRCLE
  5
CB55
  8
0
 10
769.2929566659643115
 20
129.3733211526055982
 30
0.0
 40
0.0639680105945846
  0
ARC
  5
CB56
  8
0
 10
769.2841885682139491
 20
129.3910478328521947
 30
0.0
 40
0.0856240085314119
 50
112.4598994475335019
 51
177.6344372385673012
  0
ARC
  5
CB57
  8
0
 10
769.2892993862113826
 20
129.3786847601444947
 30
0.0
 40
0.0990018270149436
 50
7.5787842478601091
 51
112.4598994475335019
  0
ARC
  5
CB58
  8
0
 10
769.3032549143150618
 20
129.3883904393117064
 30
0.0
 40
0.0842481571479408
 50
293.9629661520223181
 51
2.279974459158836
  0
ARC
  5
CB59
  8
0
 10
769.295507561718523
 20
129.4024351482873101
 30
0.0
 40
0.1002383202146726
 50
213.6302240875129996
 51
294.7491580058244836
  0
ARC
  5
CB5A
  8
0
 10
769.2827601558059314
 20
129.3925310459518982
 30
0.0
 40
0.0841476262908067
 50
178.6033924129517914
 51
212.8222882004108953
  0
CIRCLE
  5
CB5B
  8
0
 10
768.5357911970919531
 20
129.3206032925637885
 30
0.0
 40
0.0231353608729705
  0
CIRCLE
  5
CB5C
  8
0
 10
768.5374162706084462
 20
129.327739966374395
 30
0.0
 40
0.0639680105945846
  0
ARC
  5
CB5D
  8
0
 10
768.5286481728580839
 20
129.3454666466209915
 30
0.0
 40
0.0856240085314119
 50
112.4598994475335019
 51
177.6344372385673012
  0
ARC
  5
CB5E
  8
0
 10
768.5337589908556311
 20
129.3331035739134052
 30
0.0
 40
0.0990018270149436
 50
7.5787842478601091
 51
112.4598994475335019
  0
ARC
  5
CB5F
  8
0
 10
768.5477145189593102
 20
129.3428092530805884
 30
0.0
 40
0.0842481571479408
 50
293.9629661520223181
 51
2.279974459158836
  0
ARC
  5
CB60
  8
0
 10
768.539967166362544
 20
129.3568539620561069
 30
0.0
 40
0.1002383202146726
 50
213.6302240875129996
 51
294.7491580058244836
  0
ARC
  5
CB61
  8
0
 10
768.5272197604500661
 20
129.346949859720695
 30
0.0
 40
0.0841476262908067
 50
178.6033924129517914
 51
212.8222882004108953
  0
CIRCLE
  5
CB62
  8
0
 10
768.9187781966412558
 20
129.5503318804771027
 30
0.0
 40
0.0231353608729705
  0
CIRCLE
  5
CB63
  8
0
 10
768.9204032701577489
 20
129.5574685542877091
 30
0.0
 40
0.0639680105945846
  0
ARC
  5
CB64
  8
0
 10
768.9116351724075002
 20
129.5751952345343909
 30
0.0
 40
0.0856240085314119
 50
112.4598994475335019
 51
177.6344372385673012
  0
ARC
  5
CB65
  8
0
 10
768.9167459904050475
 20
129.5628321618266909
 30
0.0
 40
0.0990018270149436
 50
7.5787842478601091
 51
112.4598994475335019
  0
ARC
  5
CB66
  8
0
 10
768.9307015185086129
 20
129.5725378409939026
 30
0.0
 40
0.0842481571479408
 50
293.9629661520223181
 51
2.279974459158836
  0
ARC
  5
CB67
  8
0
 10
768.9229541659120741
 20
129.5865825499695063
 30
0.0
 40
0.1002383202146726
 50
213.6302240875129996
 51
294.7491580058244836
  0
ARC
  5
CB68
  8
0
 10
768.9102067599994825
 20
129.5766784476340945
 30
0.0
 40
0.0841476262908067
 50
178.6033924129517914
 51
212.8222882004108953
  0
CIRCLE
  5
CB69
  8
0
 10
769.2605534448925937
 20
129.7812337039565875
 30
0.0
 40
0.0231353608729705
  0
CIRCLE
  5
CB6A
  8
0
 10
769.2621785184090868
 20
129.788370377767194
 30
0.0
 40
0.0639680105945846
  0
ARC
  5
CB6B
  8
0
 10
769.2534104206588381
 20
129.8060970580137905
 30
0.0
 40
0.0856240085314119
 50
112.4598994475335019
 51
177.6344372385673012
  0
ARC
  5
CB6C
  8
0
 10
769.2585212386561579
 20
129.7937339853062042
 30
0.0
 40
0.0990018270149436
 50
7.5787842478601091
 51
112.4598994475335019
  0
ARC
  5
CB6D
  8
0
 10
769.2724767667598371
 20
129.8034396644733874
 30
0.0
 40
0.0842481571479408
 50
293.9629661520223181
 51
2.279974459158836
  0
ARC
  5
CB6E
  8
0
 10
769.2647294141631846
 20
129.8174843734489059
 30
0.0
 40
0.1002383202146726
 50
213.6302240875129996
 51
294.7491580058244836
  0
ARC
  5
CB6F
  8
0
 10
769.2519820082507067
 20
129.8075802711134941
 30
0.0
 40
0.0841476262908067
 50
178.6033924129517914
 51
212.8222882004108953
  0
CIRCLE
  5
CB70
  8
0
 10
768.548006529982672
 20
129.8147605397533937
 30
0.0
 40
0.0231353608729705
  0
CIRCLE
  5
CB71
  8
0
 10
768.5496316034992788
 20
129.8218972135640001
 30
0.0
 40
0.0639680105945846
  0
ARC
  5
CB72
  8
0
 10
768.5408635057490301
 20
129.8396238938105967
 30
0.0
 40
0.0856240085314119
 50
112.4598994475335019
 51
177.6344372385673012
  0
ARC
  5
CB73
  8
0
 10
768.5459743237464636
 20
129.8272608211030104
 30
0.0
 40
0.0990018270149436
 50
7.5787842478601091
 51
112.4598994475335019
  0
ARC
  5
CB74
  8
0
 10
768.5599298518500291
 20
129.8369665002701936
 30
0.0
 40
0.0842481571479408
 50
293.9629661520223181
 51
2.279974459158836
  0
ARC
  5
CB75
  8
0
 10
768.5521824992534903
 20
129.8510112092457973
 30
0.0
 40
0.1002383202146726
 50
213.6302240875129996
 51
294.7491580058244836
  0
ARC
  5
CB76
  8
0
 10
768.5394350933408987
 20
129.8411071069104139
 30
0.0
 40
0.0841476262908067
 50
178.6033924129517914
 51
212.8222882004108953
  0
CIRCLE
  5
CB77
  8
0
 10
770.084726196578913
 20
131.7599167036505037
 30
0.0
 40
0.024881955890729
  0
CIRCLE
  5
CB78
  8
0
 10
770.0832042257288776
 20
131.7649022758508011
 30
0.0
 40
0.0685304788790694
  0
ARC
  5
CB79
  8
0
 10
770.0830089887647318
 20
131.7734583066932998
 30
0.0
 40
0.068886925685224
 50
355.3572237852574176
 51
187.2571457361117098
  0
CIRCLE
  5
CB7A
  8
0
 10
770.0851649313294729
 20
131.7760575191101111
 30
0.0
 40
0.0947674677291647
  0
CIRCLE
  5
CB7B
  8
0
 10
769.5706334876493884
 20
131.7347265959832043
 30
0.0
 40
0.024881955890729
  0
CIRCLE
  5
CB7C
  8
0
 10
769.5691115167994667
 20
131.739712168183587
 30
0.0
 40
0.0685304788790694
  0
ARC
  5
CB7D
  8
0
 10
769.5689162798354346
 20
131.7482681990261142
 30
0.0
 40
0.068886925685224
 50
355.3572237852574176
 51
187.2571457361117098
  0
CIRCLE
  5
CB7E
  8
0
 10
769.5710722224000619
 20
131.750867411442897
 30
0.0
 40
0.0947674677291647
  0
CIRCLE
  5
CB7F
  8
0
 10
769.0619913164159698
 20
131.6629168392385907
 30
0.0
 40
0.024881955890729
  0
CIRCLE
  5
CB80
  8
0
 10
769.0604693455659344
 20
131.6679024114390018
 30
0.0
 40
0.0685304788790694
  0
ARC
  5
CB81
  8
0
 10
769.0602741086017886
 20
131.6764584422815005
 30
0.0
 40
0.068886925685224
 50
355.3572237852574176
 51
187.2571457361117098
  0
CIRCLE
  5
CB82
  8
0
 10
769.0624300511666434
 20
131.6790576546983118
 30
0.0
 40
0.0947674677291647
  0
CIRCLE
  5
CB83
  8
0
 10
769.422809945687618
 20
131.2670073771614057
 30
0.0
 40
0.024881955890729
  0
CIRCLE
  5
CB84
  8
0
 10
769.4212879748374689
 20
131.2719929493617883
 30
0.0
 40
0.0685304788790694
  0
ARC
  5
CB85
  8
0
 10
769.4210927378735505
 20
131.2805489802042871
 30
0.0
 40
0.068886925685224
 50
355.3572237852574176
 51
187.2571457361117098
  0
CIRCLE
  5
CB86
  8
0
 10
769.4232486804381779
 20
131.2831481926210984
 30
0.0
 40
0.0947674677291647
  0
CIRCLE
  5
CB87
  8
0
 10
769.8732134894790988
 20
131.3561456127420115
 30
0.0
 40
0.024881955890729
  0
CIRCLE
  5
CB88
  8
0
 10
769.8716915186289498
 20
131.3611311849423089
 30
0.0
 40
0.0685304788790694
  0
ARC
  5
CB89
  8
0
 10
769.8714962816649177
 20
131.3696872157848077
 30
0.0
 40
0.068886925685224
 50
355.3572237852574176
 51
187.2571457361117098
  0
CIRCLE
  5
CB8A
  8
0
 10
769.8736522242296587
 20
131.3722864282015905
 30
0.0
 40
0.0947674677291647
  0
CIRCLE
  5
CB8B
  8
0
 10
770.3488353030600138
 20
131.3929989923213952
 30
0.0
 40
0.024881955890729
  0
CIRCLE
  5
CB8C
  8
0
 10
770.3473133322098647
 20
131.3979845645218063
 30
0.0
 40
0.0685304788790694
  0
ARC
  5
CB8D
  8
0
 10
770.3471180952458326
 20
131.4065405953643051
 30
0.0
 40
0.068886925685224
 50
355.3572237852574176
 51
187.2571457361117098
  0
CIRCLE
  5
CB8E
  8
0
 10
770.3492740378106873
 20
131.4091398077810879
 30
0.0
 40
0.0947674677291647
  0
CIRCLE
  5
CB8F
  8
0
 10
770.1721963050877093
 20
131.0163228194857084
 30
0.0
 40
0.024881955890729
  0
CIRCLE
  5
CB90
  8
0
 10
770.1706743342375603
 20
131.021308391686091
 30
0.0
 40
0.0685304788790694
  0
ARC
  5
CB91
  8
0
 10
770.1704790972735282
 20
131.0298644225285898
 30
0.0
 40
0.068886925685224
 50
355.3572237852574176
 51
187.2571457361117098
  0
CIRCLE
  5
CB92
  8
0
 10
770.1726350398382692
 20
131.0324636349454011
 30
0.0
 40
0.0947674677291647
  0
CIRCLE
  5
CB93
  8
0
 10
769.7626251307524399
 20
130.8823292013894957
 30
0.0
 40
0.024881955890729
  0
CIRCLE
  5
CB94
  8
0
 10
769.7611031599024045
 20
130.8873147735899067
 30
0.0
 40
0.0685304788790694
  0
ARC
  5
CB95
  8
0
 10
769.7609079229382587
 20
130.8958708044324055
 30
0.0
 40
0.068886925685224
 50
355.3572237852574176
 51
187.2571457361117098
  0
CIRCLE
  5
CB96
  8
0
 10
769.7630638655031134
 20
130.8984700168491031
 30
0.0
 40
0.0947674677291647
  0
CIRCLE
  5
CB97
  8
0
 10
769.4555672362379255
 20
130.5912701995243026
 30
0.0
 40
0.024881955890729
  0
CIRCLE
  5
CB98
  8
0
 10
769.4540452653877765
 20
130.5962557717247137
 30
0.0
 40
0.0685304788790694
  0
ARC
  5
CB99
  8
0
 10
769.4538500284237443
 20
130.6048118025672125
 30
0.0
 40
0.068886925685224
 50
355.3572237852574176
 51
187.2571457361117098
  0
CIRCLE
  5
CB9A
  8
0
 10
769.4560059709884854
 20
130.60741101498391
 30
0.0
 40
0.0947674677291647
  0
CIRCLE
  5
CB9B
  8
0
 10
769.0771318053532468
 20
130.947316640843809
 30
0.0
 40
0.024881955890729
  0
CIRCLE
  5
CB9C
  8
0
 10
769.0756098345032115
 20
130.9523022130441916
 30
0.0
 40
0.0685304788790694
  0
ARC
  5
CB9D
  8
0
 10
769.075414597538952
 20
130.9608582438866904
 30
0.0
 40
0.068886925685224
 50
355.3572237852574176
 51
187.2571457361117098
  0
CIRCLE
  5
CB9E
  8
0
 10
769.0775705401039204
 20
130.9634574563035017
 30
0.0
 40
0.0947674677291647
  0
CIRCLE
  5
CB9F
  8
0
 10
768.9809975629879091
 20
130.4944076539163973
 30
0.0
 40
0.024881955890729
  0
CIRCLE
  5
CBA0
  8
0
 10
768.97947559213776
 20
130.4993932261168084
 30
0.0
 40
0.0685304788790694
  0
ARC
  5
CBA1
  8
0
 10
768.9792803551737279
 20
130.5079492569591935
 30
0.0
 40
0.068886925685224
 50
355.3572237852574176
 51
187.2571457361117098
  0
CIRCLE
  5
CBA2
  8
0
 10
768.9814362977385827
 20
130.5105484693760047
 30
0.0
 40
0.0947674677291647
  0
CIRCLE
  5
CBA3
  8
0
 10
768.605947355040712
 20
130.8146373113744119
 30
0.0
 40
0.024881955890729
  0
CIRCLE
  5
CBA4
  8
0
 10
768.6044253841906766
 20
130.8196228835747945
 30
0.0
 40
0.0685304788790694
  0
ARC
  5
CBA5
  8
0
 10
768.6042301472265308
 20
130.8281789144172933
 30
0.0
 40
0.068886925685224
 50
355.3572237852574176
 51
187.2571457361117098
  0
CIRCLE
  5
CBA6
  8
0
 10
768.6063860897912718
 20
130.8307781268341046
 30
0.0
 40
0.0947674677291647
  0
CIRCLE
  5
CBA7
  8
0
 10
768.6872431494031161
 20
131.31421296506619
 30
0.0
 40
0.024881955890729
  0
CIRCLE
  5
CBA8
  8
0
 10
768.6857211785530808
 20
131.3191985372664874
 30
0.0
 40
0.0685304788790694
  0
ARC
  5
CBA9
  8
0
 10
768.6855259415890487
 20
131.3277545681090999
 30
0.0
 40
0.068886925685224
 50
355.3572237852574176
 51
187.2571457361117098
  0
CIRCLE
  5
CBAA
  8
0
 10
768.6876818841537897
 20
131.3303537805257974
 30
0.0
 40
0.0947674677291647
  0
CIRCLE
  5
CBAB
  8
0
 10
769.3075564651236391
 20
130.1935586191013954
 30
0.0
 40
0.024881955890729
  0
CIRCLE
  5
CBAC
  8
0
 10
769.3060344942736037
 20
130.1985441913016928
 30
0.0
 40
0.0685304788790694
  0
ARC
  5
CBAD
  8
0
 10
769.3058392573094579
 20
130.2071002221441915
 30
0.0
 40
0.068886925685224
 50
355.3572237852574176
 51
187.2571457361117098
  0
CIRCLE
  5
CBAE
  8
0
 10
769.307995199874199
 20
130.2096994345610028
 30
0.0
 40
0.0947674677291647
  0
CIRCLE
  5
CBAF
  8
0
 10
768.9202347960135739
 20
130.0404880413290982
 30
0.0
 40
0.024881955890729
  0
CIRCLE
  5
CBB0
  8
0
 10
768.9187128251635386
 20
130.0454736135295093
 30
0.0
 40
0.0685304788790694
  0
ARC
  5
CBB1
  8
0
 10
768.9185175881993928
 20
130.0540296443720081
 30
0.0
 40
0.068886925685224
 50
355.3572237852574176
 51
187.2571457361117098
  0
CIRCLE
  5
CBB2
  8
0
 10
768.9206735307642475
 20
130.0566288567887909
 30
0.0
 40
0.0947674677291647
  0
CIRCLE
  5
CBB3
  8
0
 10
768.561785433562477
 20
130.3129709831358127
 30
0.0
 40
0.024881955890729
  0
CIRCLE
  5
CBB4
  8
0
 10
768.5602634627125553
 20
130.3179565553361954
 30
0.0
 40
0.0685304788790694
  0
ARC
  5
CBB5
  8
0
 10
768.5600682257485232
 20
130.3265125861786089
 30
0.0
 40
0.068886925685224
 50
355.3572237852574176
 51
187.2571457361117098
  0
CIRCLE
  5
CBB6
  8
0
 10
768.5622241683131506
 20
130.3291117985953917
 30
0.0
 40
0.0947674677291647
  0
CIRCLE
  5
CBB7
  8
0
 10
770.061845813688592
 20
130.3785580648496136
 30
0.0
 40
0.0712347942688798
  0
CIRCLE
  5
CBB8
  8
0
 10
770.0638427696410417
 20
130.3843205776090031
 30
0.0
 40
0.1287741863770954
  0
CIRCLE
  5
CBB9
  8
0
 10
770.0634141257895635
 20
130.3955528823479142
 30
0.0
 40
0.1688836336931854
  0
CIRCLE
  5
CBBA
  8
0
 10
769.7660075911117019
 20
129.9060698607171958
 30
0.0
 40
0.0712347942688798
  0
CIRCLE
  5
CBBB
  8
0
 10
769.7680045470641517
 20
129.9118323734766136
 30
0.0
 40
0.1287741863770954
  0
CIRCLE
  5
CBBC
  8
0
 10
769.7675759032126734
 20
129.9230646782154963
 30
0.0
 40
0.1688836336931854
  0
CIRCLE
  5
CBBD
  8
0
 10
769.8543755507187143
 20
129.3683818737140996
 30
0.0
 40
0.0712347942688798
  0
CIRCLE
  5
CBBE
  8
0
 10
769.8563725066710504
 20
129.3741443864736027
 30
0.0
 40
0.1287741863770954
  0
CIRCLE
  5
CBBF
  8
0
 10
769.8559438628194584
 20
129.3853766912125138
 30
0.0
 40
0.1688836336931854
  0
CIRCLE
  5
CBC0
  8
0
 10
770.2792677019791654
 20
129.0141256690143905
 30
0.0
 40
0.0712347942688798
  0
CIRCLE
  5
CBC1
  8
0
 10
770.2812646579316151
 20
129.0198881817738936
 30
0.0
 40
0.1287741863770954
  0
CIRCLE
  5
CBC2
  8
0
 10
770.2808360140801369
 20
129.0311204865126911
 30
0.0
 40
0.1688836336931854
  0
CIRCLE
  5
CBC3
  8
0
 10
769.9551171567867414
 20
129.0921676061707046
 30
0.0
 40
0.0566230140189084
  0
CIRCLE
  5
CBC4
  8
0
 10
769.9540168100320443
 20
129.0935092227672101
 30
0.0
 40
0.0225530929022718
  0
CIRCLE
  5
CBC5
  8
0
 10
769.6426464472834823
 20
129.6329818450049061
 30
0.0
 40
0.0566230140189084
  0
CIRCLE
  5
CBC6
  8
0
 10
769.6415461005288989
 20
129.6343234616014115
 30
0.0
 40
0.0225530929022718
  0
CIRCLE
  5
CBC7
  8
0
 10
769.7715271825080663
 20
130.245863504297489
 30
0.0
 40
0.0566230140189084
  0
CIRCLE
  5
CBC8
  8
0
 10
769.7704268357533692
 20
130.2472051208939945
 30
0.0
 40
0.0225530929022718
  0
CIRCLE
  5
CBC9
  8
0
 10
770.2748683798143929
 20
130.6462681627720031
 30
0.0
 40
0.0566230140189084
  0
CIRCLE
  5
CBCA
  8
0
 10
770.2737680330598096
 20
130.6476097793685938
 30
0.0
 40
0.0225530929022718
  0
CIRCLE
  5
CBCB
  8
0
 10
770.2718169584020416
 20
129.4151750414123114
 30
0.0
 40
0.0433212358218895
  0
CIRCLE
  5
CBCC
  8
0
 10
770.2719490175619512
 20
129.4210841631953883
 30
0.0
 40
0.0756263202459176
  0
ARC
  5
CBCD
  8
0
 10
770.2715233159993886
 20
129.4252111051131067
 30
0.0
 40
0.1218367252264427
 50
51.2110686504755392
 51
113.3856831371758034
  0
ARC
  5
CBCE
  8
0
 10
770.2674732557742345
 20
129.4345766620546101
 30
0.0
 40
0.1116329688273702
 50
113.3856831371758034
 51
229.3220401157344099
  0
ARC
  5
CBCF
  8
0
 10
770.2727802928857272
 20
129.440751464897204
 30
0.0
 40
0.1197750099135546
 50
229.3220401157344099
 51
302.8197584128660083
  0
ARC
  5
CBD0
  8
0
 10
770.277244326531104
 20
129.4338298837562036
 30
0.0
 40
0.1115387557966256
 50
302.8197584128660083
 51
50.7282151726045925
  0
CIRCLE
  5
CBD1
  8
0
 10
770.1140563876264196
 20
129.6827347052102084
 30
0.0
 40
0.0433212358218895
  0
CIRCLE
  5
CBD2
  8
0
 10
770.1141884467863292
 20
129.6886438269932
 30
0.0
 40
0.0756263202459176
  0
ARC
  5
CBD3
  8
0
 10
770.1137627452237666
 20
129.6927707689110036
 30
0.0
 40
0.1218367252264427
 50
51.2110686504755392
 51
113.3856831371758034
  0
ARC
  5
CBD4
  8
0
 10
770.1097126849986125
 20
129.7021363258525071
 30
0.0
 40
0.1116329688273702
 50
113.3856831371758034
 51
229.3220401157344099
  0
ARC
  5
CBD5
  8
0
 10
770.1150197221099916
 20
129.7083111286951009
 30
0.0
 40
0.1197750099135546
 50
229.3220401157344099
 51
302.8197584128660083
  0
ARC
  5
CBD6
  8
0
 10
770.1194837557553683
 20
129.7013895475541005
 30
0.0
 40
0.1115387557966256
 50
302.8197584128660083
 51
50.7282151726045925
  0
CIRCLE
  5
CBD7
  8
0
 10
770.1783043855010646
 20
129.9895269793356078
 30
0.0
 40
0.0433212358218895
  0
CIRCLE
  5
CBD8
  8
0
 10
770.1784364446608606
 20
129.9954361011187132
 30
0.0
 40
0.0756263202459176
  0
ARC
  5
CBD9
  8
0
 10
770.1780107430986391
 20
129.9995630430364884
 30
0.0
 40
0.1218367252264427
 50
51.2110686504755392
 51
113.3856831371758034
  0
ARC
  5
CBDA
  8
0
 10
770.1739606828731439
 20
130.0089285999779065
 30
0.0
 40
0.1116329688273702
 50
113.3856831371758034
 51
229.3220401157344099
  0
ARC
  5
CBDB
  8
0
 10
770.1792677199847503
 20
130.0151034028206141
 30
0.0
 40
0.1197750099135546
 50
229.3220401157344099
 51
302.8197584128660083
  0
ARC
  5
CBDC
  8
0
 10
770.1837317536301271
 20
130.0081818216795
 30
0.0
 40
0.1115387557966256
 50
302.8197584128660083
 51
50.7282151726045925
  0
CIRCLE
  5
CBDD
  8
0
 10
770.4304577835177952
 20
130.1906954626300035
 30
0.0
 40
0.0433212358218895
  0
CIRCLE
  5
CBDE
  8
0
 10
770.4305898426777048
 20
130.1966045844131088
 30
0.0
 40
0.0756263202459176
  0
ARC
  5
CBDF
  8
0
 10
770.4301641411152559
 20
130.2007315263307987
 30
0.0
 40
0.1218367252264427
 50
51.2110686504755392
 51
113.3856831371758034
  0
ARC
  5
CBE0
  8
0
 10
770.4261140808899881
 20
130.2100970832721885
 30
0.0
 40
0.1116329688273702
 50
113.3856831371758034
 51
229.3220401157344099
  0
ARC
  5
CBE1
  8
0
 10
770.4314211180014809
 20
130.216271886114896
 30
0.0
 40
0.1197750099135546
 50
229.3220401157344099
 51
302.8197584128660083
  0
ARC
  5
CBE2
  8
0
 10
770.4358851516467439
 20
130.2093503049738956
 30
0.0
 40
0.1115387557966256
 50
302.8197584128660083
 51
50.7282151726045925
  0
ARC
  5
CBE3
  8
0
 10
770.2728719619217372
 20
129.4919736697837891
 30
0.0
 40
0.0473291553072511
 50
238.6842016857515887
 51
299.741722100151776
  0
ARC
  5
CBE4
  8
0
 10
770.1201846357065506
 20
129.7603421836720941
 30
0.0
 40
0.0472542816726996
 50
236.1937624780420037
 51
294.7762915155714154
  0
ARC
  5
CBE5
  8
0
 10
770.1813187120927751
 20
130.0655498345196861
 30
0.0
 40
0.0472026059374833
 50
236.4706800201036003
 51
298.9881127527759759
  0
ARC
  5
CBE6
  8
0
 10
770.4300255261140364
 20
130.2648223953567879
 30
0.0
 40
0.0472248876198776
 50
236.9839859486050955
 51
303.6842258138714783
  0
ARC
  5
CBE7
  8
0
 10
770.3481549151562149
 20
131.4613765722789083
 30
0.0
 40
0.0474133674007052
 50
257.0584225226608055
 51
284.0817777831799731
  0
ARC
  5
CBE8
  8
0
 10
769.8725331015753
 20
131.4245231926994961
 30
0.0
 40
0.0474133674007052
 50
257.0584225226608055
 51
284.0817777831799731
  0
ARC
  5
CBE9
  8
0
 10
770.0840458086751141
 20
131.8282942836079883
 30
0.0
 40
0.0474133674007052
 50
257.0584225226608055
 51
284.0817777831799731
  0
ARC
  5
CBEA
  8
0
 10
769.5699530997458169
 20
131.8031041759406889
 30
0.0
 40
0.0474133674007052
 50
257.0584225226608055
 51
284.0817777831799731
  0
ARC
  5
CBEB
  8
0
 10
770.0317901889956147
 20
127.5452952647485034
 30
0.0
 40
0.2637288488219623
 50
86.6641324008747063
 51
273.3341521785973214
  0
ARC
  5
CBEC
  8
0
 10
770.062869727049133
 20
127.5452947994918986
 30
0.0
 40
0.2637521338289942
 50
266.5784287510916215
 51
93.4198558283780045
  0
CIRCLE
  5
CBED
  8
0
 10
771.6399855241082832
 20
127.8993304172669951
 30
0.0
 40
0.0231353608729705
  0
CIRCLE
  5
CBEE
  8
0
 10
771.6383604505916765
 20
127.9064670910776016
 30
0.0
 40
0.0639680105945846
  0
ARC
  5
CBEF
  8
0
 10
771.6471285483420388
 20
127.9241937713241981
 30
0.0
 40
0.0856240085314119
 50
2.3655627614326371
 51
67.5401005524664555
  0
ARC
  5
CBF0
  8
0
 10
771.6420177303444916
 20
127.9118306986165976
 30
0.0
 40
0.0990018270149436
 50
67.5401005524664555
 51
172.4212157521398865
  0
ARC
  5
CBF1
  8
0
 10
771.6280622022410398
 20
127.921536377783795
 30
0.0
 40
0.0842481571479408
 50
177.7200255408411067
 51
246.0370338479775967
  0
ARC
  5
CBF2
  8
0
 10
771.6358095548374649
 20
127.9355810867592993
 30
0.0
 40
0.1002383202146726
 50
245.2508419941754028
 51
326.3697759124863182
  0
ARC
  5
CBF3
  8
0
 10
771.6485569607501702
 20
127.9256769844239017
 30
0.0
 40
0.0841476262908067
 50
327.1777117995882804
 51
1.3966075870481709
  0
CIRCLE
  5
CBF4
  8
0
 10
772.0977687685095816
 20
128.0085171982267127
 30
0.0
 40
0.0231353608729705
  0
CIRCLE
  5
CBF5
  8
0
 10
772.0961436949932022
 20
128.0156538720372907
 30
0.0
 40
0.0639680105945846
  0
ARC
  5
CBF6
  8
0
 10
772.1049117927434509
 20
128.0333805522840009
 30
0.0
 40
0.0856240085314119
 50
2.3655627614326371
 51
67.5401005524664555
  0
ARC
  5
CBF7
  8
0
 10
772.0998009747460173
 20
128.021017479576301
 30
0.0
 40
0.0990018270149436
 50
67.5401005524664555
 51
172.4212157521398865
  0
ARC
  5
CBF8
  8
0
 10
772.0858454466423382
 20
128.0307231587435126
 30
0.0
 40
0.0842481571479408
 50
177.7200255408411067
 51
246.0370338479775967
  0
ARC
  5
CBF9
  8
0
 10
772.0935927992389907
 20
128.0447678677190879
 30
0.0
 40
0.1002383202146726
 50
245.2508419941754028
 51
326.3697759124863182
  0
ARC
  5
CBFA
  8
0
 10
772.1063402051514686
 20
128.0348637653837045
 30
0.0
 40
0.0841476262908067
 50
327.1777117995882804
 51
1.3966075870481709
  0
CIRCLE
  5
CBFB
  8
0
 10
770.8125045864754838
 20
128.1828855999902999
 30
0.0
 40
0.0231353608729705
  0
CIRCLE
  5
CBFC
  8
0
 10
770.8108795129588771
 20
128.1900222738009063
 30
0.0
 40
0.0639680105945846
  0
ARC
  5
CBFD
  8
0
 10
770.8196476107092394
 20
128.2077489540475028
 30
0.0
 40
0.0856240085314119
 50
2.3655627614326371
 51
67.5401005524664555
  0
ARC
  5
CBFE
  8
0
 10
770.8145367927118059
 20
128.1953858813398881
 30
0.0
 40
0.0990018270149436
 50
67.5401005524664555
 51
172.4212157521398865
  0
ARC
  5
CBFF
  8
0
 10
770.8005812646082404
 20
128.2050915605070998
 30
0.0
 40
0.0842481571479408
 50
177.7200255408411067
 51
246.0370338479775967
  0
ARC
  5
CC00
  8
0
 10
770.8083286172047792
 20
128.2191362694825898
 30
0.0
 40
0.1002383202146726
 50
245.2508419941754028
 51
326.3697759124863182
  0
ARC
  5
CC01
  8
0
 10
770.8210760231173708
 20
128.2092321671472064
 30
0.0
 40
0.0841476262908067
 50
327.1777117995882804
 51
1.3966075870481709
  0
CIRCLE
  5
CC02
  8
0
 10
771.2975517387053515
 20
128.2320754361253989
 30
0.0
 40
0.0231353608729705
  0
CIRCLE
  5
CC03
  8
0
 10
771.2959266651887447
 20
128.2392121099360054
 30
0.0
 40
0.0639680105945846
  0
ARC
  5
CC04
  8
0
 10
771.304694762939107
 20
128.2569387901826872
 30
0.0
 40
0.0856240085314119
 50
2.3655627614326371
 51
67.5401005524664555
  0
ARC
  5
CC05
  8
0
 10
771.2995839449415598
 20
128.2445757174749872
 30
0.0
 40
0.0990018270149436
 50
67.5401005524664555
 51
172.4212157521398865
  0
ARC
  5
CC06
  8
0
 10
771.285628416838108
 20
128.2542813966421988
 30
0.0
 40
0.0842481571479408
 50
177.7200255408411067
 51
246.0370338479775967
  0
ARC
  5
CC07
  8
0
 10
771.2933757694346468
 20
128.2683261056178026
 30
0.0
 40
0.1002383202146726
 50
245.2508419941754028
 51
326.3697759124863182
  0
ARC
  5
CC08
  8
0
 10
771.3061231753472384
 20
128.2584220032823907
 30
0.0
 40
0.0841476262908067
 50
327.1777117995882804
 51
1.3966075870481709
  0
CIRCLE
  5
CC09
  8
0
 10
771.7681083595897462
 20
128.3342032837099111
 30
0.0
 40
0.0231353608729705
  0
CIRCLE
  5
CC0A
  8
0
 10
771.7664832860732531
 20
128.3413399575204892
 30
0.0
 40
0.0639680105945846
  0
ARC
  5
CC0B
  8
0
 10
771.7752513838235018
 20
128.3590666377671141
 30
0.0
 40
0.0856240085314119
 50
2.3655627614326371
 51
67.5401005524664555
  0
ARC
  5
CC0C
  8
0
 10
771.7701405658259546
 20
128.3467035650594994
 30
0.0
 40
0.0990018270149436
 50
67.5401005524664555
 51
172.4212157521398865
  0
ARC
  5
CC0D
  8
0
 10
771.7561850377222754
 20
128.3564092442267111
 30
0.0
 40
0.0842481571479408
 50
177.7200255408411067
 51
246.0370338479775967
  0
ARC
  5
CC0E
  8
0
 10
771.7639323903190416
 20
128.3704539532022011
 30
0.0
 40
0.1002383202146726
 50
245.2508419941754028
 51
326.3697759124863182
  0
ARC
  5
CC0F
  8
0
 10
771.7766797962316332
 20
128.3605498508667893
 30
0.0
 40
0.0841476262908067
 50
327.1777117995882804
 51
1.3966075870481709
  0
CIRCLE
  5
CC10
  8
0
 10
770.9683857271887746
 20
128.5411080945445121
 30
0.0
 40
0.0231353608729705
  0
CIRCLE
  5
CC11
  8
0
 10
770.9667606536721678
 20
128.5482447683550902
 30
0.0
 40
0.0639680105945846
  0
ARC
  5
CC12
  8
0
 10
770.9755287514225301
 20
128.5659714486018004
 30
0.0
 40
0.0856240085314119
 50
2.3655627614326371
 51
67.5401005524664555
  0
ARC
  5
CC13
  8
0
 10
770.9704179334249829
 20
128.5536083758941004
 30
0.0
 40
0.0990018270149436
 50
67.5401005524664555
 51
172.4212157521398865
  0
ARC
  5
CC14
  8
0
 10
770.9564624053215312
 20
128.563314055061312
 30
0.0
 40
0.0842481571479408
 50
177.7200255408411067
 51
246.0370338479775967
  0
ARC
  5
CC15
  8
0
 10
770.9642097579179563
 20
128.5773587640368021
 30
0.0
 40
0.1002383202146726
 50
245.2508419941754028
 51
326.3697759124863182
  0
ARC
  5
CC16
  8
0
 10
770.9769571638306616
 20
128.5674546617013903
 30
0.0
 40
0.0841476262908067
 50
327.1777117995882804
 51
1.3966075870481709
  0
CIRCLE
  5
CC17
  8
0
 10
771.3738279687853492
 20
128.6769612027489131
 30
0.0
 40
0.0231353608729705
  0
CIRCLE
  5
CC18
  8
0
 10
771.3722028952688561
 20
128.6840978765594912
 30
0.0
 40
0.0639680105945846
  0
ARC
  5
CC19
  8
0
 10
771.3809709930191048
 20
128.7018245568060877
 30
0.0
 40
0.0856240085314119
 50
2.3655627614326371
 51
67.5401005524664555
  0
ARC
  5
CC1A
  8
0
 10
771.3758601750216712
 20
128.6894614840983877
 30
0.0
 40
0.0990018270149436
 50
67.5401005524664555
 51
172.4212157521398865
  0
ARC
  5
CC1B
  8
0
 10
771.3619046469179921
 20
128.6991671632655994
 30
0.0
 40
0.0842481571479408
 50
177.7200255408411067
 51
246.0370338479775967
  0
ARC
  5
CC1C
  8
0
 10
771.3696519995146446
 20
128.7132118722412031
 30
0.0
 40
0.1002383202146726
 50
245.2508419941754028
 51
326.3697759124863182
  0
ARC
  5
CC1D
  8
0
 10
771.3823994054272362
 20
128.7033077699057912
 30
0.0
 40
0.0841476262908067
 50
327.1777117995882804
 51
1.3966075870481709
  0
CIRCLE
  5
CC1E
  8
0
 10
772.4189347337774052
 20
128.3290831085286072
 30
0.0
 40
0.0231353608729705
  0
CIRCLE
  5
CC1F
  8
0
 10
772.4173096602607984
 20
128.3362197823392137
 30
0.0
 40
0.0639680105945846
  0
ARC
  5
CC20
  8
0
 10
772.4260777580110471
 20
128.3539464625858102
 30
0.0
 40
0.0856240085314119
 50
2.3655627614326371
 51
67.5401005524664555
  0
ARC
  5
CC21
  8
0
 10
772.4209669400137273
 20
128.3415833898781955
 30
0.0
 40
0.0990018270149436
 50
67.5401005524664555
 51
172.4212157521398865
  0
ARC
  5
CC22
  8
0
 10
772.4070114119100481
 20
128.3512890690454071
 30
0.0
 40
0.0842481571479408
 50
177.7200255408411067
 51
246.0370338479775967
  0
ARC
  5
CC23
  8
0
 10
772.4147587645067006
 20
128.3653337780208972
 30
0.0
 40
0.1002383202146726
 50
245.2508419941754028
 51
326.3697759124863182
  0
ARC
  5
CC24
  8
0
 10
772.4275061704192922
 20
128.355429675685599
 30
0.0
 40
0.0841476262908067
 50
327.1777117995882804
 51
1.3966075870481709
  0
CIRCLE
  5
CC25
  8
0
 10
772.0580247215755207
 20
128.6522838764250025
 30
0.0
 40
0.0231353608729705
  0
CIRCLE
  5
CC26
  8
0
 10
772.0563996480590276
 20
128.659420550235609
 30
0.0
 40
0.0639680105945846
  0
ARC
  5
CC27
  8
0
 10
772.0651677458092763
 20
128.6771472304822908
 30
0.0
 40
0.0856240085314119
 50
2.3655627614326371
 51
67.5401005524664555
  0
ARC
  5
CC28
  8
0
 10
772.0600569278118428
 20
128.6647841577745908
 30
0.0
 40
0.0990018270149436
 50
67.5401005524664555
 51
172.4212157521398865
  0
ARC
  5
CC29
  8
0
 10
772.0461013997081636
 20
128.6744898369418024
 30
0.0
 40
0.0842481571479408
 50
177.7200255408411067
 51
246.0370338479775967
  0
ARC
  5
CC2A
  8
0
 10
772.0538487523048161
 20
128.6885345459172925
 30
0.0
 40
0.1002383202146726
 50
245.2508419941754028
 51
326.3697759124863182
  0
ARC
  5
CC2B
  8
0
 10
772.0665961582174077
 20
128.6786304435819943
 30
0.0
 40
0.0841476262908067
 50
327.1777117995882804
 51
1.3966075870481709
  0
CIRCLE
  5
CC2C
  8
0
 10
772.5190604476485987
 20
128.8205026363249033
 30
0.0
 40
0.0231353608729705
  0
CIRCLE
  5
CC2D
  8
0
 10
772.5174353741321056
 20
128.8276393101355097
 30
0.0
 40
0.0639680105945846
  0
ARC
  5
CC2E
  8
0
 10
772.5262034718823543
 20
128.8453659903821062
 30
0.0
 40
0.0856240085314119
 50
2.3655627614326371
 51
67.5401005524664555
  0
ARC
  5
CC2F
  8
0
 10
772.5210926538849208
 20
128.8330029176744063
 30
0.0
 40
0.0990018270149436
 50
67.5401005524664555
 51
172.4212157521398865
  0
ARC
  5
CC30
  8
0
 10
772.5071371257813553
 20
128.8427085968417032
 30
0.0
 40
0.0842481571479408
 50
177.7200255408411067
 51
246.0370338479775967
  0
ARC
  5
CC31
  8
0
 10
772.5148844783777804
 20
128.8567533058171932
 30
0.0
 40
0.1002383202146726
 50
245.2508419941754028
 51
326.3697759124863182
  0
ARC
  5
CC32
  8
0
 10
772.527631884290372
 20
128.8468492034818098
 30
0.0
 40
0.0841476262908067
 50
327.1777117995882804
 51
1.3966075870481709
  0
CIRCLE
  5
CC33
  8
0
 10
772.1566079813192118
 20
129.0980660344004036
 30
0.0
 40
0.0231353608729705
  0
CIRCLE
  5
CC34
  8
0
 10
772.1549829078027187
 20
129.1052027082110101
 30
0.0
 40
0.0639680105945846
  0
ARC
  5
CC35
  8
0
 10
772.1637510055528537
 20
129.1229293884576919
 30
0.0
 40
0.0856240085314119
 50
2.3655627614326371
 51
67.5401005524664555
  0
ARC
  5
CC36
  8
0
 10
772.1586401875555339
 20
129.1105663157499919
 30
0.0
 40
0.0990018270149436
 50
67.5401005524664555
 51
172.4212157521398865
  0
ARC
  5
CC37
  8
0
 10
772.1446846594518547
 20
129.1202719949172035
 30
0.0
 40
0.0842481571479408
 50
177.7200255408411067
 51
246.0370338479775967
  0
ARC
  5
CC38
  8
0
 10
772.1524320120485072
 20
129.1343167038926936
 30
0.0
 40
0.1002383202146726
 50
245.2508419941754028
 51
326.3697759124863182
  0
ARC
  5
CC39
  8
0
 10
772.1651794179610988
 20
129.1244126015573954
 30
0.0
 40
0.0841476262908067
 50
327.1777117995882804
 51
1.3966075870481709
  0
CIRCLE
  5
CC3A
  8
0
 10
771.6808742903767779
 20
128.9727304602508013
 30
0.0
 40
0.0231353608729705
  0
CIRCLE
  5
CC3B
  8
0
 10
771.6792492168601711
 20
128.9798671340614078
 30
0.0
 40
0.0639680105945846
  0
ARC
  5
CC3C
  8
0
 10
771.6880173146105335
 20
128.9975938143080043
 30
0.0
 40
0.0856240085314119
 50
2.3655627614326371
 51
67.5401005524664555
  0
ARC
  5
CC3D
  8
0
 10
771.6829064966129863
 20
128.9852307416003043
 30
0.0
 40
0.0990018270149436
 50
67.5401005524664555
 51
172.4212157521398865
  0
ARC
  5
CC3E
  8
0
 10
771.6689509685094208
 20
128.9949364207676012
 30
0.0
 40
0.0842481571479408
 50
177.7200255408411067
 51
246.0370338479775967
  0
ARC
  5
CC3F
  8
0
 10
771.6766983211059596
 20
129.0089811297430913
 30
0.0
 40
0.1002383202146726
 50
245.2508419941754028
 51
326.3697759124863182
  0
ARC
  5
CC40
  8
0
 10
771.6894457270185512
 20
128.9990770274077079
 30
0.0
 40
0.0841476262908067
 50
327.1777117995882804
 51
1.3966075870481709
  0
CIRCLE
  5
CC41
  8
0
 10
771.8315308354091258
 20
129.3661844787949065
 30
0.0
 40
0.0231353608729705
  0
CIRCLE
  5
CC42
  8
0
 10
771.8299057618926327
 20
129.3733211526055982
 30
0.0
 40
0.0639680105945846
  0
ARC
  5
CC43
  8
0
 10
771.8386738596428813
 20
129.3910478328521947
 30
0.0
 40
0.0856240085314119
 50
2.3655627614326371
 51
67.5401005524664555
  0
ARC
  5
CC44
  8
0
 10
771.8335630416454478
 20
129.3786847601444947
 30
0.0
 40
0.0990018270149436
 50
67.5401005524664555
 51
172.4212157521398865
  0
ARC
  5
CC45
  8
0
 10
771.8196075135417686
 20
129.3883904393117064
 30
0.0
 40
0.0842481571479408
 50
177.7200255408411067
 51
246.0370338479775967
  0
ARC
  5
CC46
  8
0
 10
771.8273548661384211
 20
129.4024351482873101
 30
0.0
 40
0.1002383202146726
 50
245.2508419941754028
 51
326.3697759124863182
  0
ARC
  5
CC47
  8
0
 10
771.840102272050899
 20
129.3925310459518982
 30
0.0
 40
0.0841476262908067
 50
327.1777117995882804
 51
1.3966075870481709
  0
CIRCLE
  5
CC48
  8
0
 10
772.5549378938723066
 20
129.3206032925637885
 30
0.0
 40
0.0231353608729705
  0
CIRCLE
  5
CC49
  8
0
 10
772.5533128203559272
 20
129.327739966374395
 30
0.0
 40
0.0639680105945846
  0
ARC
  5
CC4A
  8
0
 10
772.5620809181060622
 20
129.3454666466209915
 30
0.0
 40
0.0856240085314119
 50
2.3655627614326371
 51
67.5401005524664555
  0
ARC
  5
CC4B
  8
0
 10
772.5569701001087424
 20
129.3331035739134052
 30
0.0
 40
0.0990018270149436
 50
67.5401005524664555
 51
172.4212157521398865
  0
ARC
  5
CC4C
  8
0
 10
772.5430145720049495
 20
129.3428092530805884
 30
0.0
 40
0.0842481571479408
 50
177.7200255408411067
 51
246.0370338479775967
  0
ARC
  5
CC4D
  8
0
 10
772.5507619246017157
 20
129.3568539620561069
 30
0.0
 40
0.1002383202146726
 50
245.2508419941754028
 51
326.3697759124863182
  0
ARC
  5
CC4E
  8
0
 10
772.5635093305143073
 20
129.346949859720695
 30
0.0
 40
0.0841476262908067
 50
327.1777117995882804
 51
1.3966075870481709
  0
CIRCLE
  5
CC4F
  8
0
 10
772.1987949600056709
 20
129.5503318804771027
 30
0.0
 40
0.0231353608729705
  0
CIRCLE
  5
CC50
  8
0
 10
772.1971698864891778
 20
129.5574685542877091
 30
0.0
 40
0.0639680105945846
  0
ARC
  5
CC51
  8
0
 10
772.2059379842395401
 20
129.5751952345343909
 30
0.0
 40
0.0856240085314119
 50
2.3655627614326371
 51
67.5401005524664555
  0
ARC
  5
CC52
  8
0
 10
772.2008271662421066
 20
129.5628321618266909
 30
0.0
 40
0.0990018270149436
 50
67.5401005524664555
 51
172.4212157521398865
  0
ARC
  5
CC53
  8
0
 10
772.1868716381385411
 20
129.5725378409939026
 30
0.0
 40
0.0842481571479408
 50
177.7200255408411067
 51
246.0370338479775967
  0
ARC
  5
CC54
  8
0
 10
772.1946189907350799
 20
129.5865825499695063
 30
0.0
 40
0.1002383202146726
 50
245.2508419941754028
 51
326.3697759124863182
  0
ARC
  5
CC55
  8
0
 10
772.2073663966476715
 20
129.5766784476340945
 30
0.0
 40
0.0841476262908067
 50
327.1777117995882804
 51
1.3966075870481709
  0
CIRCLE
  5
CC56
  8
0
 10
771.8793346921584089
 20
129.7812337039565875
 30
0.0
 40
0.0231353608729705
  0
CIRCLE
  5
CC57
  8
0
 10
771.8777096186419158
 20
129.788370377767194
 30
0.0
 40
0.0639680105945846
  0
ARC
  5
CC58
  8
0
 10
771.8864777163920508
 20
129.8060970580137905
 30
0.0
 40
0.0856240085314119
 50
2.3655627614326371
 51
67.5401005524664555
  0
ARC
  5
CC59
  8
0
 10
771.8813668983947309
 20
129.7937339853062042
 30
0.0
 40
0.0990018270149436
 50
67.5401005524664555
 51
172.4212157521398865
  0
ARC
  5
CC5A
  8
0
 10
771.8674113702911654
 20
129.8034396644733874
 30
0.0
 40
0.0842481571479408
 50
177.7200255408411067
 51
246.0370338479775967
  0
ARC
  5
CC5B
  8
0
 10
771.8751587228877042
 20
129.8174843734489059
 30
0.0
 40
0.1002383202146726
 50
245.2508419941754028
 51
326.3697759124863182
  0
ARC
  5
CC5C
  8
0
 10
771.8879061288002958
 20
129.8075802711134941
 30
0.0
 40
0.0841476262908067
 50
327.1777117995882804
 51
1.3966075870481709
  0
CIRCLE
  5
CC5D
  8
0
 10
772.5800282584667684
 20
129.8147605397533937
 30
0.0
 40
0.0231353608729705
  0
CIRCLE
  5
CC5E
  8
0
 10
772.5784031849501616
 20
129.8218972135640001
 30
0.0
 40
0.0639680105945846
  0
ARC
  5
CC5F
  8
0
 10
772.587171282700524
 20
129.8396238938105967
 30
0.0
 40
0.0856240085314119
 50
2.3655627614326371
 51
67.5401005524664555
  0
ARC
  5
CC60
  8
0
 10
772.5820604647029768
 20
129.8272608211030104
 30
0.0
 40
0.0990018270149436
 50
67.5401005524664555
 51
172.4212157521398865
  0
ARC
  5
CC61
  8
0
 10
772.568104936599525
 20
129.8369665002701936
 30
0.0
 40
0.0842481571479408
 50
177.7200255408411067
 51
246.0370338479775967
  0
ARC
  5
CC62
  8
0
 10
772.5758522891959501
 20
129.8510112092457973
 30
0.0
 40
0.1002383202146726
 50
245.2508419941754028
 51
326.3697759124863182
  0
ARC
  5
CC63
  8
0
 10
772.5885996951086554
 20
129.8411071069104139
 30
0.0
 40
0.0841476262908067
 50
327.1777117995882804
 51
1.3966075870481709
  0
CIRCLE
  5
CC64
  8
0
 10
771.1212201760432663
 20
131.7599167036505037
 30
0.0
 40
0.024881955890729
  0
CIRCLE
  5
CC65
  8
0
 10
771.1227421468934153
 20
131.7649022758508011
 30
0.0
 40
0.0685304788790694
  0
ARC
  5
CC66
  8
0
 10
771.1229373838574475
 20
131.7734583066932998
 30
0.0
 40
0.068886925685224
 50
352.7428542638866134
 51
184.6427762147424971
  0
CIRCLE
  5
CC67
  8
0
 10
771.1207814412927064
 20
131.7760575191101111
 30
0.0
 40
0.0947674677291647
  0
CIRCLE
  5
CC68
  8
0
 10
771.6358615590021373
 20
131.7347265959832043
 30
0.0
 40
0.024881955890729
  0
CIRCLE
  5
CC69
  8
0
 10
771.6373835298520589
 20
131.739712168183587
 30
0.0
 40
0.0685304788790694
  0
ARC
  5
CC6A
  8
0
 10
771.6375787668162047
 20
131.7482681990261142
 30
0.0
 40
0.068886925685224
 50
352.7428542638866134
 51
184.6427762147424971
  0
CIRCLE
  5
CC6B
  8
0
 10
771.63542282425135
 20
131.750867411442897
 30
0.0
 40
0.0947674677291647
  0
CIRCLE
  5
CC6C
  8
0
 10
772.1373931394674628
 20
131.6629168392385907
 30
0.0
 40
0.024881955890729
  0
CIRCLE
  5
CC6D
  8
0
 10
772.1389151103176118
 20
131.6679024114390018
 30
0.0
 40
0.0685304788790694
  0
ARC
  5
CC6E
  8
0
 10
772.139110347281644
 20
131.6764584422815005
 30
0.0
 40
0.068886925685224
 50
352.7428542638866134
 51
184.6427762147424971
  0
CIRCLE
  5
CC6F
  8
0
 10
772.1369544047169029
 20
131.6790576546983118
 30
0.0
 40
0.0947674677291647
  0
CIRCLE
  5
CC70
  8
0
 10
771.7827096938905242
 20
131.2670073771614057
 30
0.0
 40
0.024881955890729
  0
CIRCLE
  5
CC71
  8
0
 10
771.7842316647405596
 20
131.2719929493617883
 30
0.0
 40
0.0685304788790694
  0
ARC
  5
CC72
  8
0
 10
771.7844269017047054
 20
131.2805489802042871
 30
0.0
 40
0.068886925685224
 50
352.7428542638866134
 51
184.6427762147424971
  0
CIRCLE
  5
CC73
  8
0
 10
771.7822709591398507
 20
131.2831481926210984
 30
0.0
 40
0.0947674677291647
  0
CIRCLE
  5
CC74
  8
0
 10
771.3297385833636781
 20
131.3561456127420115
 30
0.0
 40
0.024881955890729
  0
CIRCLE
  5
CC75
  8
0
 10
771.3312605542138272
 20
131.3611311849423089
 30
0.0
 40
0.0685304788790694
  0
ARC
  5
CC76
  8
0
 10
771.331455791177973
 20
131.3696872157848077
 30
0.0
 40
0.068886925685224
 50
352.7428542638866134
 51
184.6427762147424971
  0
CIRCLE
  5
CC77
  8
0
 10
771.3292998486131182
 20
131.3722864282015905
 30
0.0
 40
0.0947674677291647
  0
CIRCLE
  5
CC78
  8
0
 10
770.8515938493410431
 20
131.3929989923213952
 30
0.0
 40
0.024881955890729
  0
CIRCLE
  5
CC79
  8
0
 10
770.8531158201909648
 20
131.3979845645218063
 30
0.0
 40
0.0685304788790694
  0
ARC
  5
CC7A
  8
0
 10
770.8533110571551106
 20
131.4065405953643051
 30
0.0
 40
0.068886925685224
 50
352.7428542638866134
 51
184.6427762147424971
  0
CIRCLE
  5
CC7B
  8
0
 10
770.8511551145902558
 20
131.4091398077810879
 30
0.0
 40
0.0947674677291647
  0
CIRCLE
  5
CC7C
  8
0
 10
771.0262960814726512
 20
131.0163228194857084
 30
0.0
 40
0.024881955890729
  0
CIRCLE
  5
CC7D
  8
0
 10
771.0278180523226865
 20
131.021308391686091
 30
0.0
 40
0.0685304788790694
  0
ARC
  5
CC7E
  8
0
 10
771.0280132892868323
 20
131.0298644225285898
 30
0.0
 40
0.068886925685224
 50
352.7428542638866134
 51
184.6427762147424971
  0
CIRCLE
  5
CC7F
  8
0
 10
771.0258573467218639
 20
131.0324636349454011
 30
0.0
 40
0.0947674677291647
  0
CIRCLE
  5
CC80
  8
0
 10
771.4315922926474514
 20
130.8823292013894957
 30
0.0
 40
0.024881955890729
  0
CIRCLE
  5
CC81
  8
0
 10
771.4331142634976004
 20
130.8873147735899067
 30
0.0
 40
0.0685304788790694
  0
ARC
  5
CC82
  8
0
 10
771.4333095004616325
 20
130.8958708044324055
 30
0.0
 40
0.068886925685224
 50
352.7428542638866134
 51
184.6427762147424971
  0
CIRCLE
  5
CC83
  8
0
 10
771.4311535578968915
 20
130.8984700168491031
 30
0.0
 40
0.0947674677291647
  0
CIRCLE
  5
CC84
  8
0
 10
771.727334306155285
 20
130.5912701995243026
 30
0.0
 40
0.024881955890729
  0
CIRCLE
  5
CC85
  8
0
 10
771.7288562770054341
 20
130.5962557717247137
 30
0.0
 40
0.0685304788790694
  0
ARC
  5
CC86
  8
0
 10
771.7290515139694662
 20
130.6048118025672125
 30
0.0
 40
0.068886925685224
 50
352.7428542638866134
 51
184.6427762147424971
  0
CIRCLE
  5
CC87
  8
0
 10
771.7268955714047252
 20
130.60741101498391
 30
0.0
 40
0.0947674677291647
  0
CIRCLE
  5
CC88
  8
0
 10
772.1035950096165834
 20
130.947316640843809
 30
0.0
 40
0.024881955890729
  0
CIRCLE
  5
CC89
  8
0
 10
772.1051169804667325
 20
130.9523022130441916
 30
0.0
 40
0.0685304788790694
  0
ARC
  5
CC8A
  8
0
 10
772.1053122174308783
 20
130.9608582438866904
 30
0.0
 40
0.068886925685224
 50
352.7428542638866134
 51
184.6427762147424971
  0
CIRCLE
  5
CC8B
  8
0
 10
772.1031562748660235
 20
130.9634574563035017
 30
0.0
 40
0.0947674677291647
  0
CIRCLE
  5
CC8C
  8
0
 10
772.1895713215513979
 20
130.4944076539163973
 30
0.0
 40
0.024881955890729
  0
CIRCLE
  5
CC8D
  8
0
 10
772.1910932924014332
 20
130.4993932261168084
 30
0.0
 40
0.0685304788790694
  0
ARC
  5
CC8E
  8
0
 10
772.1912885293654654
 20
130.5079492569591935
 30
0.0
 40
0.068886925685224
 50
352.7428542638866134
 51
184.6427762147424971
  0
CIRCLE
  5
CC8F
  8
0
 10
772.1891325868007243
 20
130.5105484693760047
 30
0.0
 40
0.0947674677291647
  0
CIRCLE
  5
CC90
  8
0
 10
772.5566673518469543
 20
130.8146373113744119
 30
0.0
 40
0.024881955890729
  0
CIRCLE
  5
CC91
  8
0
 10
772.5581893226971033
 20
130.8196228835747945
 30
0.0
 40
0.0685304788790694
  0
ARC
  5
CC92
  8
0
 10
772.5583845596612491
 20
130.8281789144172933
 30
0.0
 40
0.068886925685224
 50
352.7428542638866134
 51
184.6427762147424971
  0
CIRCLE
  5
CC93
  8
0
 10
772.5562286170963944
 20
130.8307781268341046
 30
0.0
 40
0.0947674677291647
  0
CIRCLE
  5
CC94
  8
0
 10
772.4978071111669351
 20
131.31421296506619
 30
0.0
 40
0.024881955890729
  0
CIRCLE
  5
CC95
  8
0
 10
772.4993290820169705
 20
131.3191985372664874
 30
0.0
 40
0.0685304788790694
  0
ARC
  5
CC96
  8
0
 10
772.4995243189810026
 20
131.3277545681090999
 30
0.0
 40
0.068886925685224
 50
352.7428542638866134
 51
184.6427762147424971
  0
CIRCLE
  5
CC97
  8
0
 10
772.4973683764161478
 20
131.3303537805257974
 30
0.0
 40
0.0947674677291647
  0
CIRCLE
  5
CC98
  8
0
 10
771.8558544220397835
 20
130.1935586191013954
 30
0.0
 40
0.024881955890729
  0
CIRCLE
  5
CC99
  8
0
 10
771.8573763928898188
 20
130.1985441913016928
 30
0.0
 40
0.0685304788790694
  0
ARC
  5
CC9A
  8
0
 10
771.8575716298538509
 20
130.2071002221441915
 30
0.0
 40
0.068886925685224
 50
352.7428542638866134
 51
184.6427762147424971
  0
CIRCLE
  5
CC9B
  8
0
 10
771.8554156872891099
 20
130.2096994345610028
 30
0.0
 40
0.0947674677291647
  0
CIRCLE
  5
CC9C
  8
0
 10
772.2233725934109998
 20
130.0404880413290982
 30
0.0
 40
0.024881955890729
  0
CIRCLE
  5
CC9D
  8
0
 10
772.2248945642610352
 20
130.0454736135295093
 30
0.0
 40
0.0685304788790694
  0
ARC
  5
CC9E
  8
0
 10
772.2250898012250673
 20
130.0540296443720081
 30
0.0
 40
0.068886925685224
 50
352.7428542638866134
 51
184.6427762147424971
  0
CIRCLE
  5
CC9F
  8
0
 10
772.2229338586603262
 20
130.0566288567887909
 30
0.0
 40
0.0947674677291647
  0
CIRCLE
  5
CCA0
  8
0
 10
772.5819612876935025
 20
130.3129709831358127
 30
0.0
 40
0.024881955890729
  0
CIRCLE
  5
CCA1
  8
0
 10
772.5834832585435379
 20
130.3179565553361954
 30
0.0
 40
0.0685304788790694
  0
ARC
  5
CCA2
  8
0
 10
772.58367849550757
 20
130.3265125861786089
 30
0.0
 40
0.068886925685224
 50
352.7428542638866134
 51
184.6427762147424971
  0
CIRCLE
  5
CCA3
  8
0
 10
772.581522552942829
 20
130.3291117985953917
 30
0.0
 40
0.0947674677291647
  0
CIRCLE
  5
CCA4
  8
0
 10
771.116028131013195
 20
130.3785580648496136
 30
0.0
 40
0.0712347942688798
  0
CIRCLE
  5
CCA5
  8
0
 10
771.1140311750607452
 20
130.3843205776090031
 30
0.0
 40
0.1287741863770954
  0
CIRCLE
  5
CCA6
  8
0
 10
771.1144598189122235
 20
130.3955528823479142
 30
0.0
 40
0.1688836336931854
  0
CIRCLE
  5
CCA7
  8
0
 10
771.3904914626696154
 20
129.9060698607171958
 30
0.0
 40
0.0712347942688798
  0
CIRCLE
  5
CCA8
  8
0
 10
771.3884945067171657
 20
129.9118323734766136
 30
0.0
 40
0.1287741863770954
  0
CIRCLE
  5
CCA9
  8
0
 10
771.3889231505686439
 20
129.9230646782154963
 30
0.0
 40
0.1688836336931854
  0
CIRCLE
  5
CCAA
  8
0
 10
771.2767827264116249
 20
129.3683818737140996
 30
0.0
 40
0.0712347942688798
  0
CIRCLE
  5
CCAB
  8
0
 10
771.2747857704591752
 20
129.3741443864736027
 30
0.0
 40
0.1287741863770954
  0
CIRCLE
  5
CCAC
  8
0
 10
771.2752144143107671
 20
129.3853766912125138
 30
0.0
 40
0.1688836336931854
  0
CIRCLE
  5
CCAD
  8
0
 10
770.8355508483455196
 20
129.0141256690143905
 30
0.0
 40
0.0712347942688798
  0
CIRCLE
  5
CCAE
  8
0
 10
770.8335538923931836
 20
129.0198881817738936
 30
0.0
 40
0.1287741863770954
  0
CIRCLE
  5
CCAF
  8
0
 10
770.8339825362445481
 20
129.0311204865126911
 30
0.0
 40
0.1688836336931854
  0
CIRCLE
  5
CCB0
  8
0
 10
771.1646351283504828
 20
129.0921676061707046
 30
0.0
 40
0.0566230140189084
  0
CIRCLE
  5
CCB1
  8
0
 10
771.1657354751051798
 20
129.0935092227672101
 30
0.0
 40
0.0225530929022718
  0
CIRCLE
  5
CCB2
  8
0
 10
771.5014937128986503
 20
129.6329818450049061
 30
0.0
 40
0.0566230140189084
  0
CIRCLE
  5
CCB3
  8
0
 10
771.5025940596533474
 20
129.6343234616014115
 30
0.0
 40
0.0225530929022718
  0
CIRCLE
  5
CCB4
  8
0
 10
771.4045445236384921
 20
130.245863504297489
 30
0.0
 40
0.0566230140189084
  0
CIRCLE
  5
CCB5
  8
0
 10
771.4056448703931892
 20
130.2472051208939945
 30
0.0
 40
0.0225530929022718
  0
CIRCLE
  5
CCB6
  8
0
 10
770.9187297759776811
 20
130.6462681627720031
 30
0.0
 40
0.0566230140189084
  0
CIRCLE
  5
CCB7
  8
0
 10
770.9198301227324919
 20
130.6476097793685938
 30
0.0
 40
0.0225530929022718
  0
CIRCLE
  5
CCB8
  8
0
 10
770.8420700438545055
 20
129.4151750414123114
 30
0.0
 40
0.0433212358218895
  0
CIRCLE
  5
CCB9
  8
0
 10
770.8419379846945958
 20
129.4210841631953883
 30
0.0
 40
0.0756263202459176
  0
ARC
  5
CCBA
  8
0
 10
770.8423636862570447
 20
129.4252111051131067
 30
0.0
 40
0.1218367252264427
 50
66.6143168628241966
 51
128.7889313495244039
  0
ARC
  5
CCBB
  8
0
 10
770.8464137464823125
 20
129.4345766620546101
 30
0.0
 40
0.1116329688273702
 50
310.6779598842657037
 51
66.6143168628241966
  0
ARC
  5
CCBC
  8
0
 10
770.8411067093708198
 20
129.440751464897204
 30
0.0
 40
0.1197750099135546
 50
237.1802415871341054
 51
310.6779598842657037
  0
ARC
  5
CCBD
  8
0
 10
770.836642675725443
 20
129.4338298837562036
 30
0.0
 40
0.1115387557966256
 50
129.2717848273954075
 51
237.1802415871341054
  0
CIRCLE
  5
CCBE
  8
0
 10
771.0377972040970462
 20
129.6827347052102084
 30
0.0
 40
0.0433212358218895
  0
CIRCLE
  5
CCBF
  8
0
 10
771.0376651449372503
 20
129.6886438269932
 30
0.0
 40
0.0756263202459176
  0
ARC
  5
CCC0
  8
0
 10
771.0380908464996992
 20
129.6927707689110036
 30
0.0
 40
0.1218367252264427
 50
66.6143168628241966
 51
128.7889313495244039
  0
ARC
  5
CCC1
  8
0
 10
771.0421409067248533
 20
129.7021363258525071
 30
0.0
 40
0.1116329688273702
 50
310.6779598842657037
 51
66.6143168628241966
  0
ARC
  5
CCC2
  8
0
 10
771.0368338696133605
 20
129.7083111286951009
 30
0.0
 40
0.1197750099135546
 50
237.1802415871341054
 51
310.6779598842657037
  0
ARC
  5
CCC3
  8
0
 10
771.0323698359680975
 20
129.7013895475541005
 30
0.0
 40
0.1115387557966256
 50
129.2717848273954075
 51
237.1802415871341054
  0
CIRCLE
  5
CCC4
  8
0
 10
770.9925426438862814
 20
129.9895269793356078
 30
0.0
 40
0.0433212358218895
  0
CIRCLE
  5
CCC5
  8
0
 10
770.9924105847264855
 20
129.9954361011187132
 30
0.0
 40
0.0756263202459176
  0
ARC
  5
CCC6
  8
0
 10
770.9928362862888207
 20
129.9995630430364884
 30
0.0
 40
0.1218367252264427
 50
66.6143168628241966
 51
128.7889313495244039
  0
ARC
  5
CCC7
  8
0
 10
770.9968863465140885
 20
130.0089285999779065
 30
0.0
 40
0.1116329688273702
 50
310.6779598842657037
 51
66.6143168628241966
  0
ARC
  5
CCC8
  8
0
 10
770.9915793094025958
 20
130.0151034028206141
 30
0.0
 40
0.1197750099135546
 50
237.1802415871341054
 51
310.6779598842657037
  0
ARC
  5
CCC9
  8
0
 10
770.9871152757573327
 20
130.0081818216795
 30
0.0
 40
0.1115387557966256
 50
129.2717848273954075
 51
237.1802415871341054
  0
CIRCLE
  5
CCCA
  8
0
 10
770.7376730759143584
 20
130.1906954626300035
 30
0.0
 40
0.0433212358218895
  0
CIRCLE
  5
CCCB
  8
0
 10
770.7375410167545624
 20
130.1966045844131088
 30
0.0
 40
0.0756263202459176
  0
ARC
  5
CCCC
  8
0
 10
770.7379667183168976
 20
130.2007315263307987
 30
0.0
 40
0.1218367252264427
 50
66.6143168628241966
 51
128.7889313495244039
  0
ARC
  5
CCCD
  8
0
 10
770.7420167785421654
 20
130.2100970832721885
 30
0.0
 40
0.1116329688273702
 50
310.6779598842657037
 51
66.6143168628241966
  0
ARC
  5
CCCE
  8
0
 10
770.736709741430559
 20
130.216271886114896
 30
0.0
 40
0.1197750099135546
 50
237.1802415871341054
 51
310.6779598842657037
  0
ARC
  5
CCCF
  8
0
 10
770.7322457077854096
 20
130.2093503049738956
 30
0.0
 40
0.1115387557966256
 50
129.2717848273954075
 51
237.1802415871341054
  0
ARC
  5
CCD0
  8
0
 10
770.8410150403348098
 20
129.4919736697837891
 30
0.0
 40
0.0473291553072511
 50
240.2582778998481956
 51
301.3157983142482976
  0
ARC
  5
CCD1
  8
0
 10
771.0316689560169152
 20
129.7603421836720941
 30
0.0
 40
0.0472542816726996
 50
245.223708484428613
 51
303.8062375219578826
  0
ARC
  5
CCD2
  8
0
 10
770.9895283172944573
 20
130.0655498345196861
 30
0.0
 40
0.0472026059374833
 50
241.0118872472239957
 51
303.5293199798965134
  0
ARC
  5
CCD3
  8
0
 10
770.7381053333182308
 20
130.2648223953567879
 30
0.0
 40
0.0472248876198776
 50
236.3157741861284933
 51
303.0160140513949045
  0
ARC
  5
CCD4
  8
0
 10
770.852274237244842
 20
131.4613765722789083
 30
0.0
 40
0.0474133674007052
 50
255.9182222168199985
 51
282.9415774773391945
  0
ARC
  5
CCD5
  8
0
 10
771.330418971267477
 20
131.4245231926994961
 30
0.0
 40
0.0474133674007052
 50
255.9182222168199985
 51
282.9415774773391945
  0
ARC
  5
CCD6
  8
0
 10
771.1219005639470652
 20
131.8282942836079883
 30
0.0
 40
0.0474133674007052
 50
255.9182222168199985
 51
282.9415774773391945
  0
ARC
  5
CCD7
  8
0
 10
771.6365419469058224
 20
131.8031041759406889
 30
0.0
 40
0.0474133674007052
 50
255.9182222168199985
 51
282.9415774773391945
  0
ARC
  5
CCD8
  8
0
 10
770.9732094448545467
 20
127.5452952647485034
 30
0.0
 40
0.2637288488219623
 50
266.6658478214026786
 51
93.3358675991252653
  0
ARC
  5
CCD9
  8
0
 10
770.9421299068011422
 20
127.5452947994918986
 30
0.0
 40
0.2637521338289942
 50
86.5801441716220097
 51
273.4215712489083785
  0
CIRCLE
  5
CCDA
  8
0
 10
770.6086517959530511
 20
131.7715286805803885
 30
0.0
 40
0.024881955890729
  0
CIRCLE
  5
CCDB
  8
0
 10
770.6071298251030157
 20
131.7765142527807996
 30
0.0
 40
0.0685304788790694
  0
ARC
  5
CCDC
  8
0
 10
770.6069345881387562
 20
131.7850702836232983
 30
0.0
 40
0.068886925685224
 50
355.3572237852574176
 51
187.2571457361117098
  0
CIRCLE
  5
CCDD
  8
0
 10
770.609090530703611
 20
131.7876694960401096
 30
0.0
 40
0.0947674677291647
  0
ARC
  5
CCDE
  8
0
 10
770.6079714080492522
 20
131.8399062605379015
 30
0.0
 40
0.0474133674007052
 50
257.0584225226608055
 51
284.0817777831799731
  0
CIRCLE
  5
CCDF
  8
0
 10
770.5990125833374123
 20
131.0534741737050979
 30
0.0
 40
0.024881955890729
  0
CIRCLE
  5
CCE0
  8
0
 10
770.5974906124873769
 20
131.058459745905509
 30
0.0
 40
0.0685304788790694
  0
ARC
  5
CCE1
  8
0
 10
770.5972953755232311
 20
131.0670157767480077
 30
0.0
 40
0.068886925685224
 50
355.3572237852574176
 51
187.2571457361117098
  0
CIRCLE
  5
CCE2
  8
0
 10
770.5994513180880858
 20
131.0696149891647906
 30
0.0
 40
0.0947674677291647
  0
CIRCLE
  5
CCE3
  8
0
 10
770.5894155562823471
 20
130.5648666115872913
 30
0.0
 40
0.0712347942688798
  0
CIRCLE
  5
CCE4
  8
0
 10
770.5914125122346832
 20
130.5706291243467092
 30
0.0
 40
0.1287741863770954
  0
CIRCLE
  5
CCE5
  8
0
 10
770.5909838683833186
 20
130.5818614290855919
 30
0.0
 40
0.1688836336931854
  0
ARC
  5
CCE6
  8
0
 10
770.5872221705923266
 20
130.6415152787969873
 30
0.0
 40
0.0848939267061581
 50
219.6218566208958975
 51
323.6564118971112975
  0
ARC
  5
CCE7
  8
0
 10
770.0621020714748965
 20
130.4550014794779997
 30
0.0
 40
0.084853108883239
 50
217.7090290797407874
 51
321.9068322811759799
  0
ARC
  5
CCE8
  8
0
 10
769.7679343507981002
 20
129.9826432380467907
 30
0.0
 40
0.0846795152772788
 50
216.4284246179583135
 51
320.6888003931526896
  0
ARC
  5
CCE9
  8
0
 10
769.8562938732462726
 20
129.4456881370884105
 30
0.0
 40
0.0847232006600572
 50
216.6693900662014869
 51
320.4876518545290196
  0
ARC
  5
CCEA
  8
0
 10
770.2770708188545541
 20
129.0952497360403868
 30
0.0
 40
0.084756648177277
 50
220.7545989372387112
 51
322.3478435218003142
  0
ARC
  5
CCEB
  8
0
 10
771.115771873226663
 20
130.4550014794779997
 30
0.0
 40
0.084853108883239
 50
218.0931677188239917
 51
322.2909709202592126
  0
ARC
  5
CCEC
  8
0
 10
771.3885647029829897
 20
129.9826432380467907
 30
0.0
 40
0.0846795152772788
 50
219.3111996068473104
 51
323.5715753820417149
  0
ARC
  5
CCED
  8
0
 10
771.2748644038839529
 20
129.4456881370884105
 30
0.0
 40
0.0847232006600572
 50
219.5123481454710088
 51
323.3306099337984847
  0
ARC
  5
CCEE
  8
0
 10
770.8377477314702446
 20
129.0952497360403868
 30
0.0
 40
0.084756648177277
 50
217.6521564781990037
 51
319.2454010627612888
  0
CIRCLE
  5
CCEF
  8
0
 10
770.5684056767918264
 20
129.3037017847038044
 30
0.0
 40
0.0433212358218895
  0
CIRCLE
  5
CCF0
  8
0
 10
770.5682736176319167
 20
129.3096109064869097
 30
0.0
 40
0.0756263202459176
  0
ARC
  5
CCF1
  8
0
 10
770.568699319194252
 20
129.3137378484047133
 30
0.0
 40
0.1218367252264427
 50
66.6143168628241966
 51
128.7889313495244039
  0
ARC
  5
CCF2
  8
0
 10
770.5727493794196334
 20
129.323103405346103
 30
0.0
 40
0.1116329688273702
 50
310.6779598842657037
 51
66.6143168628241966
  0
ARC
  5
CCF3
  8
0
 10
770.567442342308027
 20
129.3292782081888106
 30
0.0
 40
0.1197750099135546
 50
237.1802415871341054
 51
310.6779598842657037
  0
ARC
  5
CCF4
  8
0
 10
770.5629783086626503
 20
129.3223566270476965
 30
0.0
 40
0.1115387557966256
 50
129.2717848273954075
 51
237.1802415871341054
  0
ARC
  5
CCF5
  8
0
 10
770.567350673272017
 20
129.3805004130753957
 30
0.0
 40
0.0473291553072511
 50
240.2582778998481956
 51
301.3157983142482976
  0
CIRCLE
  5
CCF6
  8
0
 10
770.5529546349861221
 20
128.876080566418608
 30
0.0
 40
0.0566230140189084
  0
CIRCLE
  5
CCF7
  8
0
 10
770.5540549817408191
 20
128.8774221830151134
 30
0.0
 40
0.0225530929022718
  0
CIRCLE
  5
CCF8
  8
0
 10
770.5386472481804958
 20
128.501561153509698
 30
0.0
 40
0.0231353608729705
  0
CIRCLE
  5
CCF9
  8
0
 10
770.537022174663889
 20
128.5086978273203044
 30
0.0
 40
0.0639680105945846
  0
ARC
  5
CCFA
  8
0
 10
770.5457902724142514
 20
128.526424507566901
 30
0.0
 40
0.0856240085314119
 50
2.3655627614326371
 51
67.5401005524664555
  0
ARC
  5
CCFB
  8
0
 10
770.5406794544168179
 20
128.5140614348592862
 30
0.0
 40
0.0990018270149436
 50
67.5401005524664555
 51
172.4212157521398865
  0
ARC
  5
CCFC
  8
0
 10
770.5267239263132524
 20
128.5237671140264979
 30
0.0
 40
0.0842481571479408
 50
177.7200255408411067
 51
246.0370338479775967
  0
ARC
  5
CCFD
  8
0
 10
770.5344712789097912
 20
128.5378118230019879
 30
0.0
 40
0.1002383202146726
 50
245.2508419941754028
 51
326.3697759124863182
  0
ARC
  5
CCFE
  8
0
 10
770.5472186848223828
 20
128.5279077206666045
 30
0.0
 40
0.0841476262908067
 50
327.1777117995882804
 51
1.3966075870481709
  0
ARC
  5
CCFF
  8
0
 10
770.5089958922654887
 20
126.9188285660159039
 30
0.0
 40
0.2637288488219623
 50
266.6658478214026786
 51
93.3358675991252653
  0
ARC
  5
CD00
  8
0
 10
770.4779163542118567
 20
126.9188281007592991
 30
0.0
 40
0.2637521338289942
 50
86.5801441716220097
 51
273.4215712489083785
  0
CIRCLE
  5
CD01
  8
0
 10
770.5769050990895721
 20
129.7775894373374967
 30
0.0
 40
0.2682584315370192
  0
LINE
  5
CD02
  8
0
 10
769.4250978371344445
 20
121.6558824974058979
 30
0.0
 11
768.3388146693630461
 21
121.6558824974058979
 31
0.0
  0
LINE
  5
CD03
  8
0
 10
769.5430868135343871
 20
121.6558824974058979
 30
0.0
 11
770.7689514891244471
 21
121.6558824974058979
 31
0.0
  0
LINE
  5
CD04
  8
0
 10
768.479431709195751
 20
120.9581381796939041
 30
0.0
 11
768.4909351545155687
 21
121.6171701222179991
 31
0.0
  0
LINE
  5
CD05
  8
0
 10
767.2448634760605728
 20
120.9194258045059058
 30
0.0
 11
768.4400377100065498
 21
120.9194258045059058
 31
0.0
  0
LINE
  5
CD06
  8
0
 10
767.205469476871599
 20
120.9581381796921988
 30
0.0
 11
767.1738711574791978
 21
122.7684046851644979
 31
0.0
  0
ARC
  5
CD07
  8
0
 10
767.213265156668399
 20
122.7690923099782054
 30
0.0
 40
0.0394
 50
90.0
 51
181.0000000000603961
  0
ARC
  5
CD08
  8
0
 10
767.2448634760605728
 20
120.9588258045059064
 30
0.0
 40
0.0394
 50
181.0000000000522107
 51
270.0000000000064801
  0
ARC
  5
CD09
  8
0
 10
768.4400377100065498
 20
120.9588258045059064
 30
0.0
 40
0.0394
 50
270.0000000000064801
 51
359.0000000023093207
  0
LINE
  5
CD0A
  8
0
 10
768.3345765772836558
 20
102.2973785604056047
 30
0.0
 11
768.3345765772836558
 21
102.4548439147059042
 31
0.0
  0
LINE
  5
CD0B
  8
0
 10
767.3503246087834668
 20
102.2973785604056047
 30
0.0
 11
767.3503246087834668
 21
102.4548439147059042
 31
0.0
  0
LINE
  5
CD0C
  8
0
 10
769.464497837134445
 20
121.6952824974058984
 30
0.0
 11
769.464497837134445
 21
122.7690923099782054
 31
0.0
  0
LINE
  5
CD0D
  8
0
 10
769.5036868135343866
 20
121.6952824974058984
 30
0.0
 11
769.5036868135343866
 21
122.7690923099782054
 31
0.0
  0
ARC
  5
CD0E
  8
0
 10
769.4250978371344445
 20
121.6952824974058984
 30
0.0
 40
0.0394
 50
269.9999999999869829
 51
0.0000000000097707
  0
ARC
  5
CD0F
  8
0
 10
769.5430868135343871
 20
121.6952824974058984
 30
0.0
 40
0.0394
 50
179.9999999999951115
 51
270.0
  0
ARC
  5
CD10
  8
0
 10
769.4250978371344445
 20
122.7690923099782054
 30
0.0
 40
0.0394
 50
359.9999999999789111
 51
90.0000000000195257
  0
ARC
  5
CD11
  8
0
 10
768.5303291537047699
 20
121.6164824974058973
 30
0.0
 40
0.0394
 50
90.0
 51
179.0000000023092923
  0
LINE
  5
CD12
  8
0
 10
770.7963979819755878
 20
121.6950433334753967
 30
0.0
 11
770.8029162892603381
 21
122.7688531460476042
 31
0.0
  0
ARC
  5
CD13
  8
0
 10
770.7569987078627491
 20
121.6952824974058984
 30
0.0
 40
0.0394
 50
269.9999999999935199
 51
359.6522038581903189
  0
LINE
  5
CD14
  8
0
 10
769.4658364198345453
 20
122.5901344659059049
 30
0.0
 11
769.4858364198345271
 21
122.5901344659059049
 31
0.0
  0
LINE
  5
CD15
  8
0
 10
769.4858364198345271
 20
122.5901344659059049
 30
0.0
 11
769.4858364198345271
 21
121.6901344659058992
 31
0.0
  0
LINE
  5
CD16
  8
0
 10
769.4858364198345271
 20
121.6901344659058992
 30
0.0
 11
769.4658364198345453
 21
121.6901344659058992
 31
0.0
  0
LINE
  5
CD17
  8
0
 10
769.4658364198345453
 20
121.6901344659058992
 30
0.0
 11
769.4658364198345453
 21
122.5901344659059049
 31
0.0
  0
LINE
  5
CD18
  8
0
 10
769.464497837134445
 20
121.7501344659059015
 30
0.0
 11
769.4658364198345453
 21
121.7501344659059015
 31
0.0
  0
LINE
  5
CD19
  8
0
 10
769.5036868135343866
 20
121.7951344659059032
 30
0.0
 11
769.4858364198345271
 21
121.7951344659059032
 31
0.0
  0
LINE
  5
CD1A
  8
0
 10
769.5036868135343866
 20
121.8884040559058946
 30
0.0
 11
769.4858364198345271
 21
121.8884040559058946
 31
0.0
  0
LINE
  5
CD1B
  8
0
 10
769.5036868135343866
 20
121.9318583733059995
 30
0.0
 11
769.4858364198345271
 21
121.9318583733059995
 31
0.0
  0
LINE
  5
CD1C
  8
0
 10
769.5036868135343866
 20
121.9098810789559053
 30
0.0
 11
769.4858364198345271
 21
121.9098810789559053
 31
0.0
  0
LINE
  5
CD1D
  8
0
 10
769.5036868135343866
 20
121.865377083005896
 30
0.0
 11
769.4858364198345271
 21
121.865377083005896
 31
0.0
  0
LINE
  5
CD1E
  8
0
 10
769.5036868135343866
 20
122.4148918488058939
 30
0.0
 11
769.4858364198345271
 21
122.4148918488058939
 31
0.0
  0
LINE
  5
CD1F
  8
0
 10
769.5036868135343866
 20
122.3918648758059931
 30
0.0
 11
769.4858364198345271
 21
122.3918648758059931
 31
0.0
  0
LINE
  5
CD20
  8
0
 10
769.5036868135343866
 20
122.3703878528558988
 30
0.0
 11
769.4858364198345271
 21
122.3703878528558988
 31
0.0
  0
LINE
  5
CD21
  8
0
 10
769.5036868135343866
 20
122.3484105584059023
 30
0.0
 11
769.4858364198345271
 21
122.3484105584059023
 31
0.0
  0
LINE
  5
CD22
  8
0
 10
769.5036868135343866
 20
122.4851344659059009
 30
0.0
 11
769.4858364198345271
 21
122.4851344659059009
 31
0.0
  0
LINE
  5
CD23
  8
0
 10
769.4658364198345453
 20
121.7901344659058935
 30
0.0
 11
769.464497837134445
 21
121.7901344659058935
 31
0.0
  0
LINE
  5
CD24
  8
0
 10
769.4658364198345453
 20
122.5051344659058969
 30
0.0
 11
769.464497837134445
 21
122.5051344659058969
 31
0.0
  0
LINE
  5
CD25
  8
0
 10
769.4658364198345453
 20
122.4651344659059049
 30
0.0
 11
769.464497837134445
 21
122.4651344659059049
 31
0.0
  0
LINE
  5
CD26
  8
0
 10
768.0758065274344517
 20
121.6169633008059066
 30
0.0
 11
768.4909315444343747
 21
121.6169633008059066
 31
0.0
  0
LINE
  5
CD27
  8
0
 10
768.0830435397946303
 20
122.769132379744903
 30
0.0
 11
768.0758065274344517
 21
121.6169633008059066
 31
0.0
  0
ARC
  5
CD28
  8
0
 10
768.0275043077276678
 20
122.7756726165058012
 30
0.0
 40
0.0559229916536977
 50
353.2838443519177076
 51
35.9354188570332269
  0
ARC
  5
CD29
  8
0
 10
768.4396664088485522
 20
120.0662088322324053
 30
0.0
 40
1.5928695599777289
 50
93.6300817164422767
 51
103.2046823053319997
  0
ARC
  5
CD2A
  8
0
 10
770.9050490182345357
 20
121.7501344659059015
 30
0.0
 40
2.3500000000000001
 50
182.2985909997605916
 51
203.493445244391495
  0
ARC
  5
CD2B
  8
0
 10
770.9050490182345357
 20
121.7501344659059015
 30
0.0
 40
2.27
 50
182.3796444276588034
 51
203.4848562893965038
  0
LINE
  5
CD2C
  8
0
 10
768.8130210669529561
 20
120.819673799916103
 30
0.0
 11
768.7759233826128593
 21
120.8031740508746026
 31
0.0
  0
ARC
  5
CD2D
  8
0
 10
768.8050153222519612
 20
120.8376737457988952
 30
0.0
 40
0.0197
 50
293.9778208403203053
 51
23.4848562893789499
  0
ARC
  5
CD2E
  8
0
 10
768.7679176379119781
 20
120.8211739967573948
 30
0.0
 40
0.0197
 50
203.4934452444645956
 51
293.9778208402846076
  0
LINE
  5
CD2F
  8
0
 10
768.2361513804836477
 20
133.5375360407558958
 30
0.0
 11
768.2361513804836477
 21
145.2339533635058899
 31
0.0
  0
LINE
  5
CD30
  8
0
 10
767.448749805683633
 20
133.5375360407558958
 30
0.0
 11
767.448749805683633
 21
145.2339533635058899
 31
0.0
  0
LINE
  5
CD31
  8
0
 10
768.4329868136327377
 20
133.5375360407558958
 30
0.0
 11
767.251914372534543
 21
133.5375360407558958
 31
0.0
  0
ARC
  5
CD32
  8
0
 10
768.4329868136327377
 20
133.5178360407558955
 30
0.0
 40
0.0197
 50
0.0
 51
90.0
  0
LINE
  5
CD33
  8
0
 10
767.251914372534543
 20
133.104465174605906
 30
0.0
 11
768.4329868136327377
 21
133.104465174605906
 31
0.0
  0
LINE
  5
CD34
  8
0
 10
767.2125442938344122
 20
133.0257250171059127
 30
0.0
 11
768.4723568923327548
 21
133.0257250171059127
 31
0.0
  0
LINE
  5
CD35
  8
0
 10
767.2125442938344122
 20
131.7855675368058996
 30
0.0
 11
768.107483911436475
 21
131.7855675368058996
 31
0.0
  0
ARC
  5
CD36
  8
0
 10
767.2125442938344122
 20
131.8052675368058999
 30
0.0
 40
0.0197
 50
180.0
 51
270.0
  0
LINE
  5
CD37
  8
0
 10
767.2322143725343722
 20
133.1241651746059063
 30
0.0
 11
767.2322143725343722
 21
133.5178360407558955
 31
0.0
  0
ARC
  5
CD38
  8
0
 10
767.251914372534543
 20
133.1241651746059063
 30
0.0
 40
0.0197
 50
179.9999999999886029
 51
270.0000000000064801
  0
ARC
  5
CD39
  8
0
 10
767.251914372534543
 20
133.5178360407558955
 30
0.0
 40
0.0197
 50
89.9999999999869686
 51
180.0
  0
LINE
  5
CD3A
  8
0
 10
767.1928442938343551
 20
131.8052675368058999
 30
0.0
 11
767.1928442938343551
 21
133.0060250171059124
 31
0.0
  0
ARC
  5
CD3B
  8
0
 10
767.2125442938344122
 20
133.0060250171059124
 30
0.0
 40
0.0197
 50
89.9999999999804601
 51
180.0000000000098055
  0
LINE
  5
CD3C
  8
0
 10
767.2912694906344768
 20
133.0257250171059127
 30
0.0
 11
767.2912694906344768
 21
133.104465174605906
 31
0.0
  0
ARC
  5
CD3D
  8
0
 10
767.8424505930345276
 20
132.4056462769059124
 30
0.0
 40
1.2401574802999979
 50
108.5094049841699047
 51
114.1190430131915008
  0
ARC
  5
CD3E
  8
0
 10
767.8424505930345276
 20
132.4056462769059124
 30
0.0
 40
1.2401574802999979
 50
119.4762993862459979
 51
246.6201318840417116
  0
LINE
  5
CD3F
  8
0
 10
768.4526868136326812
 20
133.1241651746059063
 30
0.0
 11
768.4526868136326812
 21
133.5178360407558955
 31
0.0
  0
ARC
  5
CD40
  8
0
 10
768.4329868136327377
 20
133.1241651746059063
 30
0.0
 40
0.0197
 50
270.0
 51
0.0
  0
LINE
  5
CD41
  8
0
 10
768.4920568923326982
 20
132.3084061589048872
 30
0.0
 11
768.4920568923326982
 21
133.0060250171059124
 31
0.0
  0
ARC
  5
CD42
  8
0
 10
768.4723568923327548
 20
133.0060250171059124
 30
0.0
 40
0.0197
 50
0.0
 51
90.0
  0
LINE
  5
CD43
  8
0
 10
768.3936316955325765
 20
133.0257250171059127
 30
0.0
 11
768.3936316955325765
 21
133.104465174605906
 31
0.0
  0
ARC
  5
CD44
  8
0
 10
767.8424505931327531
 20
132.4056462769059124
 30
0.0
 40
1.2401574802999979
 50
0.7539700054232304
 51
60.523700613761271
  0
ARC
  5
CD45
  8
0
 10
767.8424505931327531
 20
132.4056462769059124
 30
0.0
 40
1.2401574802999979
 50
65.8809569868085134
 51
71.4684042989482862
  0
ARC
  5
CD46
  8
0
 10
770.9817757106609406
 20
94.970763496871939
 30
0.0
 40
37.5092893022524265
 50
90.6436349653345417
 51
92.4762869624342585
  0
ARC
  5
CD47
  8
0
 10
769.6624481301225842
 20
127.1093159094256038
 30
0.0
 40
5.3442102505982598
 50
93.2319286455907559
 51
100.5952203093054038
  0
ARC
  5
CD48
  8
0
 10
768.8688555170060681
 20
131.3517978581876093
 30
0.0
 40
1.0281423269941941
 50
100.5952203093054038
 51
115.0210195105584035
  0
ARC
  5
CD49
  8
0
 10
768.6456996833684343
 20
131.8298990828249089
 30
0.0
 40
0.5005256980994937
 50
115.0210195105584035
 51
159.2068770591158113
  0
ARC
  5
CD4A
  8
0
 10
770.112525726817239
 20
131.2729055933708082
 30
0.0
 40
2.0695446237450188
 50
159.2068770591158113
 51
175.0560482024332885
  0
ARC
  5
CD4B
  8
0
 10
784.7604626494614877
 20
129.6059454142252889
 30
0.0
 40
16.811365136711661
 50
173.6981743242612879
 51
180.6918443994605923
  0
ARC
  5
CD4C
  8
0
 10
775.8437472747607444
 20
129.3111932294563928
 30
0.0
 40
7.8939575254610359
 50
179.3339705212906949
 51
187.8288039091007136
  0
ARC
  5
CD4D
  8
0
 10
769.0705521496196297
 20
128.3799117343907881
 30
0.0
 40
1.0570388169865861
 50
187.8288039091007136
 51
207.4296986141729064
  0
ARC
  5
CD4E
  8
0
 10
768.6896643304085046
 20
128.1057126584948946
 30
0.0
 40
0.5965375235414065
 50
200.8926727591143901
 51
245.6887934402053872
  0
ARC
  5
CD4F
  8
0
 10
760.9520350223971263
 20
106.536603936053794
 30
0.0
 40
22.3204180314240617
 50
68.1047695162782389
 51
70.3874108277850041
  0
ARC
  5
CD50
  8
0
 10
769.0190871458588617
 20
126.4145354354047015
 30
0.0
 40
0.8710659494075663
 50
24.486344569333589
 51
72.8766959405242289
  0
ARC
  5
CD51
  8
0
 10
765.750600941634616
 20
125.9687002789995063
 30
0.0
 40
4.1405864746090124
 50
357.2940504868943208
 51
11.2370633205808801
  0
ARC
  5
CD52
  8
0
 10
914.6222378625037663
 20
127.1376499918211067
 30
0.0
 40
144.7420983977218896
 50
180.5401130496753126
 51
181.7063719503472896
  0
ARC
  5
CD53
  8
0
 10
769.9640159306781015
 20
122.8281923099782063
 30
0.0
 40
0.0197
 50
181.7063719503082098
 51
270.0
  0
ARC
  5
CD54
  8
0
 10
991.5361069089467492
 20
130.2179265325212043
 30
0.0
 40
221.7565272894192958
 50
181.1531088960919931
 51
181.9098270814318994
  0
ARC
  5
CD55
  8
0
 10
769.9224511823694002
 20
122.8281923099782063
 30
0.0
 40
0.0197
 50
181.9098270812916951
 51
270.0
  0
ARC
  5
CD56
  8
0
 10
721.2295488494221445
 20
124.7771246324482064
 30
0.0
 40
48.6047821749767976
 50
1.153108896092002
 51
1.847250973330159
  0
ARC
  5
CD57
  8
0
 10
767.3446823539177331
 20
126.2644201027257935
 30
0.0
 40
2.4656709356674429
 50
1.847250973330159
 51
12.8992827172323903
  0
ARC
  5
CD58
  8
0
 10
769.1592331293710458
 20
126.6799838009620061
 30
0.0
 40
0.6041426108790205
 50
12.8992827172323903
 51
29.0180316980354789
  0
ARC
  5
CD59
  8
0
 10
769.8932499279359263
 20
84.6962654995454471
 30
0.0
 40
47.7860782636990891
 50
87.8050608713209044
 51
89.2000307565012633
  0
ARC
  5
CD5A
  8
0
 10
771.3971282314845439
 20
126.5537124324729064
 30
0.0
 40
5.9025971708121157
 50
80.5399370571924038
 51
86.8309651656426951
  0
ARC
  5
CD5B
  8
0
 10
772.1385001214913473
 20
131.0030256676919862
 30
0.0
 40
1.3919408389255541
 50
68.5769363819211435
 51
80.5399370571924038
  0
ARC
  5
CD5C
  8
0
 10
772.4741907338739111
 20
131.8585932258492051
 30
0.0
 40
0.4728739024008954
 50
23.7056087737834815
 51
68.5769363819211435
  0
ARC
  5
CD5D
  8
0
 10
769.7069585166641446
 20
131.0029730457295898
 30
0.0
 40
3.3667313319699428
 50
10.3380879900576197
 51
18.0958661402086705
  0
ARC
  5
CD5E
  8
0
 10
758.9938036612377346
 20
130.2060046887297062
 30
0.0
 40
14.0950456117404794
 50
356.2947491151937811
 51
5.7050363905982699
  0
ARC
  5
CD5F
  8
0
 10
765.1263698020072752
 20
129.5578303270137042
 30
0.0
 40
7.9373650471098873
 50
349.7142305203436194
 51
358.103352952504224
  0
ARC
  5
CD60
  8
0
 10
772.0984379147257641
 20
128.2457622747768085
 30
0.0
 40
0.8443196511984437
 50
323.598178741622803
 51
352.8417618973056165
  0
ARC
  5
CD61
  8
0
 10
772.1997548222540217
 20
128.2410755424504885
 30
0.0
 40
0.7620773616867026
 50
286.695446572753383
 51
319.3574274586175079
  0
ARC
  5
CD62
  8
0
 10
776.2238798415770589
 20
115.8132601820615974
 30
0.0
 40
12.3011986546511292
 50
108.0191629861110982
 51
111.1424776257232026
  0
ARC
  5
CD63
  8
0
 10
772.5714004245674005
 20
125.2822939831856957
 30
0.0
 40
2.1521706644251219
 50
111.375492963180406
 51
124.0764925804060965
  0
ARC
  5
CD64
  8
0
 10
771.7259156553392359
 20
126.5585791184384021
 30
0.0
 40
0.6214877602734344
 50
125.4405673355848023
 51
159.5322561763628073
  0
ARC
  5
CD65
  8
0
 10
772.797867435700141
 20
126.2447268515000047
 30
0.0
 40
1.737394177831326
 50
162.197891872527606
 51
179.1231166396588037
  0
ARC
  5
CD66
  8
0
 10
2122.1041883500979566
 20
90.9524851065498865
 30
0.0
 40
1351.5050832676590744
 50
178.5025211060271886
 51
178.6485539335666886
  0
ARC
  5
CD67
  8
0
 10
770.955351590440273
 20
122.8281923099782063
 30
0.0
 40
0.0197
 50
269.9999999999935199
 51
358.648553933802873
  0
LINE
  5
CD68
  8
0
 10
769.5430868135343871
 20
122.808492309978206
 30
0.0
 11
770.955351590440273
 21
122.808492309978206
 31
0.0
  0
ARC
  5
CD69
  8
0
 10
769.5430868135343871
 20
122.7690923099782054
 30
0.0
 40
0.0394
 50
90.0
 51
180.0000000000015916
  0
ARC
  5
CD6A
  8
0
 10
770.7635170151476132
 20
122.7690923099782054
 30
0.0
 40
0.0394
 50
359.6522038581936158
 51
89.9999999999934914
  0
ARC
  5
CD6B
  8
0
 10
770.4832048233313344
 20
126.746960314776004
 30
0.0
 40
0.4397857061470028
 50
243.6855765424461993
 51
270.1884377621984186
  0
ARC
  5
CD6C
  8
0
 10
770.5104306675970065
 20
126.8020127298103006
 30
0.0
 40
0.5012024383710516
 50
213.8505779486409892
 51
243.6855765424461993
  0
ARC
  5
CD6D
  8
0
 10
770.8142887703835413
 20
127.0058166694324058
 30
0.0
 40
0.8670791832380983
 50
198.2387121486993919
 51
213.8505779486334006
  0
ARC
  5
CD6E
  8
0
 10
768.9987733629606055
 20
126.4075460116798979
 30
0.0
 40
1.0444709663833189
 50
18.2387121487002801
 51
28.6674041279028593
  0
ARC
  5
CD6F
  8
0
 10
769.3243693826409526
 20
126.5855639456181052
 30
0.0
 40
0.6733872119082398
 50
28.6674041279028593
 51
45.9030720646338821
  0
ARC
  5
CD70
  8
0
 10
769.0235673494989896
 20
126.2751270223385944
 30
0.0
 40
1.105652115037713
 50
45.9030720646338821
 51
66.240240475537945
  0
ARC
  5
CD71
  8
0
 10
767.3763411758438906
 20
122.7842353982314023
 30
0.0
 40
4.9653672799872259
 50
65.0732965908527632
 51
72.985991104593424
  0
ARC
  5
CD72
  8
0
 10
769.803840835877736
 20
130.4998896559280013
 30
0.0
 40
3.1235454157230671
 50
245.007287538067601
 51
251.819047219908299
  0
ARC
  5
CD73
  8
0
 10
768.6581715546321902
 20
128.0421778610975139
 30
0.0
 40
0.4119212956728042
 50
217.1368233751813079
 51
245.007287538067601
  0
ARC
  5
CD74
  8
0
 10
768.7829755766410926
 20
128.1366925518148037
 30
0.0
 40
0.5684750266120614
 50
190.2612970830136874
 51
217.1368233751813079
  0
ARC
  5
CD75
  8
0
 10
773.07504984534512
 20
128.9136999907701124
 30
0.0
 40
4.9303143276709038
 50
180.6053621796191067
 51
190.2612970830136874
  0
ARC
  5
CD76
  8
0
 10
786.5379022595061542
 20
129.3843358982749976
 30
0.0
 40
18.4003180074264883
 50
174.1637009489494972
 51
181.6279094440373001
  0
ARC
  5
CD77
  8
0
 10
770.2387173659006976
 20
131.0892587788169124
 30
0.0
 40
2.0126240707559369
 50
156.1784608923551048
 51
175.2648377127306958
  0
ARC
  5
CD78
  8
0
 10
768.7194722688149113
 20
131.6691749611096895
 30
0.0
 40
0.3973699319492174
 50
103.628438440419302
 51
144.1081422671792041
  0
ARC
  5
CD79
  8
0
 10
769.5154466941817191
 20
128.2625405046042033
 30
0.0
 40
3.8957477117274082
 50
93.2137964176432945
 51
103.200107886485597
  0
ARC
  5
CD7A
  8
0
 10
770.5423451502683747
 20
113.3868548431123031
 30
0.0
 40
18.8065814079870606
 50
89.7989733680413451
 51
93.7966903967400469
  0
ARC
  5
CD7B
  8
0
 10
770.7369498871747737
 20
116.6407582916874048
 30
0.0
 40
15.5530940443508392
 50
84.6148909853821465
 51
90.4738284302121372
  0
ARC
  5
CD7C
  8
0
 10
772.0172441629482591
 20
130.0966537234697
 30
0.0
 40
2.036466897544587
 50
72.9775395769754738
 51
84.9472671601522649
  0
ARC
  5
CD7D
  8
0
 10
772.4419531873920732
 20
131.6453934218197048
 30
0.0
 40
0.4338299405225971
 50
14.6668170095493107
 51
66.7201047373856255
  0
ARC
  5
CD7E
  8
0
 10
766.0719557695930462
 20
130.5439879319918077
 30
0.0
 40
6.8968854216966831
 50
358.3590142918667993
 51
10.1149024605002893
  0
ARC
  5
CD7F
  8
0
 10
757.412922608662825
 20
130.1957533389220885
 30
0.0
 40
15.5538204484799891
 50
353.6854276463002975
 51
0.5552567930372188
  0
ARC
  5
CD80
  8
0
 10
770.5287834713741404
 20
128.6985246428415905
 30
0.0
 40
2.3532987235618692
 50
340.522085640517389
 51
354.7949763639222169
  0
ARC
  5
CD81
  8
0
 10
772.2565372876524634
 20
128.1389329956915901
 30
0.0
 40
0.540018046166807
 50
280.5172463998247281
 51
335.3648334835290257
  0
ARC
  5
CD82
  8
0
 10
774.2271989703302779
 20
121.6182007078477056
 30
0.0
 40
6.2755293767842124
 50
107.3564916391632948
 51
117.1941587971694929
  0
ARC
  5
CD83
  8
0
 10
771.7700000636752975
 20
126.4733170296834004
 30
0.0
 40
0.8347873666867945
 50
119.4759155123117011
 51
161.9332559372907951
  0
ARC
  5
CD84
  8
0
 10
770.0699155212736287
 20
127.0588336109820062
 30
0.0
 40
0.9635081290191713
 50
323.2684876381291019
 51
340.1840923404336081
  0
ARC
  5
CD85
  8
0
 10
770.4796475519440264
 20
126.7678637311906016
 30
0.0
 40
0.4612627287667896
 50
289.4239804436721215
 51
321.796387114888887
  0
ARC
  5
CD86
  8
0
 10
770.486327370416916
 20
126.7391133950522999
 30
0.0
 40
0.4319396601359777
 50
269.7776612469010047
 51
289.8566103858320844
  0
ARC
  5
CD87
  8
0
 10
770.5994246872788835
 20
109.1951964103718069
 30
0.0
 40
23.0166135972216388
 50
87.7432340647372087
 51
89.9924007353932893
  0
ARC
  5
CD88
  8
0
 10
771.1349994483722412
 20
122.785574710079203
 30
0.0
 40
9.4156863253818077
 50
82.6948116978797572
 51
87.7432340647372087
  0
ARC
  5
CD89
  8
0
 10
772.0607566370269979
 20
130.2038231257859024
 30
0.0
 40
1.9400995518092981
 50
72.7850556192171041
 51
81.9558797921066855
  0
ARC
  5
CD8A
  8
0
 10
772.5063061855446449
 20
131.7107614253775978
 30
0.0
 40
0.3693704354559018
 50
13.6283889712200708
 51
69.6190837204740944
  0
ARC
  5
CD8B
  8
0
 10
770.6596972124103786
 20
131.1794829264420059
 30
0.0
 40
2.2906089915608838
 50
3.7528072163894919
 51
15.6602789754533607
  0
ARC
  5
CD8C
  8
0
 10
759.4812950174776915
 20
130.3418987026608136
 30
0.0
 40
13.5002647781595293
 50
358.740655028577919
 51
4.194783462008048
  0
ARC
  5
CD8D
  8
0
 10
754.2075563477684454
 20
130.3087874999783935
 30
0.0
 40
18.7725932865440193
 50
355.2234987146259755
 51
359.1954502176095048
  0
ARC
  5
CD8E
  8
0
 10
768.0251728093986685
 20
129.1390526973576982
 30
0.0
 40
4.9055845014460502
 50
347.3999686791838144
 51
355.3997611414386029
  0
ARC
  5
CD8F
  8
0
 10
772.1221457532150225
 20
128.2089421149242128
 30
0.0
 40
0.7045213303353473
 50
317.476978523852722
 51
348.5370803123640826
  0
ARC
  5
CD90
  8
0
 10
772.238453974870481
 20
128.163027454382302
 30
0.0
 40
0.5894711212188214
 50
282.2400100773139116
 51
313.1210291259898213
  0
ARC
  5
CD91
  8
0
 10
774.8032141842783176
 20
120.0588976639723029
 30
0.0
 40
7.9135472509262978
 50
107.9571256863251989
 51
113.7862484958578051
  0
ARC
  5
CD92
  8
0
 10
772.146540917373386
 20
125.990865537348796
 30
0.0
 40
1.4144807567931981
 50
112.2269124179089061
 51
132.2583859623175897
  0
ARC
  5
CD93
  8
0
 10
771.8057523505287918
 20
126.4439792761696992
 30
0.0
 40
0.8515693588219537
 50
135.7918429346011067
 51
163.6164616395626865
  0
ARC
  5
CD94
  8
0
 10
770.4246112498479988
 20
126.8500400558688028
 30
0.0
 40
0.5880264513970362
 50
303.4498006574942224
 51
343.6164616395627149
  0
ARC
  5
CD95
  8
0
 10
770.4839849573760375
 20
126.7601651808379017
 30
0.0
 40
0.4803104808659608
 50
241.6891894672893102
 51
303.4498006574942224
  0
ARC
  5
CD96
  8
0
 10
770.6861766147491153
 20
126.9719619734235039
 30
0.0
 40
0.7665978684608949
 50
198.8487036149660128
 51
235.8822780550270011
  0
ARC
  5
CD97
  8
0
 10
769.225713163811065
 20
126.5112198593020025
 30
0.0
 40
0.7652380330241761
 50
16.1674530310633706
 51
50.8771846232639717
  0
ARC
  5
CD98
  8
0
 10
768.4359638426283254
 20
125.353117328011507
 30
0.0
 40
2.165229333715093
 50
54.0028454516150873
 51
74.5322567611664937
  0
ARC
  5
CD99
  8
0
 10
769.8662344777800399
 20
130.5218046170313926
 30
0.0
 40
3.1976991928879559
 50
243.6623037506695084
 51
254.5322567611665079
  0
ARC
  5
CD9A
  8
0
 10
768.6078445295614756
 20
127.9798578235673006
 30
0.0
 40
0.3613214390300785
 50
218.9236347940037888
 51
243.6623037506695084
  0
ARC
  5
CD9B
  8
0
 10
768.8294301535225941
 20
128.1588058502748027
 30
0.0
 40
0.6461417069336804
 50
191.683242165221202
 51
218.9236347940037888
  0
ARC
  5
CD9C
  8
0
 10
777.236441000405307
 20
129.1932171961024096
 30
0.0
 40
9.1145590739594216
 50
178.7542787815447127
 51
187.3451112705388937
  0
ARC
  5
CD9D
  8
0
 10
786.9038776968069442
 20
129.4559552528448023
 30
0.0
 40
18.7799526325709216
 50
175.2959095530740115
 51
180.1970443708370908
  0
ARC
  5
CD9E
  8
0
 10
772.5106145184058732
 20
130.6737161049657914
 30
0.0
 40
4.3354321860918796
 50
165.5595886977750979
 51
175.7356299474269861
  0
ARC
  5
CD9F
  8
0
 10
769.1490381157071852
 20
131.4538610258071003
 30
0.0
 40
0.8893708650142516
 50
146.9470323291394891
 51
160.2184126081596105
  0
ARC
  5
CDA0
  8
0
 10
768.7187618642370808
 20
131.6623536348174923
 30
0.0
 40
0.4193171929633454
 50
107.045457119945695
 51
138.7304085558548081
  0
ARC
  5
CDA1
  8
0
 10
769.7716420259109782
 20
126.8165344571234954
 30
0.0
 40
5.3768513640876021
 50
91.0114943045058453
 51
102.6313498612441037
  0
ARC
  5
CDA2
  8
0
 10
770.5847371316241379
 20
110.8082659425150069
 30
0.0
 40
21.4035512146431799
 50
89.9525104786093266
 51
92.43141465073316
  0
ARC
  5
CDA3
  8
0
 10
770.5453913011249369
 20
113.8776887102288953
 30
0.0
 40
18.443971908263979
 50
89.6794313477493148
 51
93.829070068807809
  0
ARC
  5
CDA4
  8
0
 10
769.6920370544314665
 20
126.7050384745239029
 30
0.0
 40
5.5882717146581289
 50
93.8820051747109119
 51
99.6470044136405448
  0
ARC
  5
CDA5
  8
0
 10
769.0666559326028846
 20
130.5166796181460995
 30
0.0
 40
1.7258744352840549
 50
100.3842909545334976
 51
108.6578175864774067
  0
ARC
  5
CDA6
  8
0
 10
768.720611594385332
 20
131.6650606608833129
 30
0.0
 40
0.5286202093063563
 50
112.9460062797501934
 51
142.7771023334778135
  0
ARC
  5
CDA7
  8
0
 10
769.1538392060066371
 20
131.4485710119840007
 30
0.0
 40
1.008547584450773
 50
147.8785070447293037
 51
170.9443066480515938
  0
ARC
  5
CDA8
  8
0
 10
781.5783916275664751
 20
129.6015170391088134
 30
0.0
 40
13.5695915510210092
 50
171.49965660247031
 51
181.3075039514415892
  0
ARC
  5
CDA9
  8
0
 10
775.2902623687892856
 20
129.1042146099181025
 30
0.0
 40
7.2803483585550604
 50
178.5229049124525886
 51
187.5840311215467864
  0
ARC
  5
CDAA
  8
0
 10
768.8181565291021116
 20
128.2182936232279076
 30
0.0
 40
0.7483185731942533
 50
185.7475147709778867
 51
244.0648576424590033
  0
ARC
  5
CDAB
  8
0
 10
770.6847158614042428
 20
114.5066125294979003
 30
0.0
 40
17.8147960471532016
 50
85.9482725620708692
 51
90.1162057837194652
  0
ARC
  5
CDAC
  8
0
 10
771.6381492082141449
 20
127.9667026860653039
 30
0.0
 40
4.32098034625779
 50
77.11572674824248
 51
85.9482725620708692
  0
ARC
  5
CDAD
  8
0
 10
772.4915531943248652
 20
131.6975656896327962
 30
0.0
 40
0.4937571864593126
 50
30.355564533265099
 51
77.11572674824248
  0
ARC
  5
CDAE
  8
0
 10
772.4250058663722029
 20
131.6585919481242115
 30
0.0
 40
0.5708772187779024
 50
14.9840138505505092
 51
30.355564533265099
  0
LINE
  5
CDAF
  8
0
 10
763.1377411442834955
 20
102.1005330053728954
 30
0.0
 11
767.1116545991250177
 21
102.1005330053728954
 31
0.0
  0
LINE
  5
CDB0
  8
0
 10
768.5732465869421048
 20
102.1005330053728954
 30
0.0
 11
772.5550340575836117
 21
102.1005330053728954
 31
0.0
  0
LINE
  5
CDB1
  8
0
 10
763.1377411442834955
 20
100.2107423000485937
 30
0.0
 11
763.6138318797476359
 21
100.2107423000485937
 31
0.0
  0
LINE
  5
CDB2
  8
0
 10
765.7718567080196408
 20
100.2107423000485937
 30
0.0
 11
770.1090844640284558
 21
100.2107423000485937
 31
0.0
  0
LINE
  5
CDB3
  8
0
 10
771.4769457286131455
 20
100.2107423000485937
 30
0.0
 11
772.5550340575836117
 21
100.2107423000485937
 31
0.0
  0
LINE
  5
CDB4
  8
0
 10
760.9605608292836223
 20
100.2600948245246997
 30
0.0
 11
760.9605608292836223
 21
102.0511977293870984
 31
0.0
  0
LINE
  5
CDB5
  8
0
 10
763.0353988352336501
 20
102.1005330053728954
 30
0.0
 11
760.9917859434154934
 21
102.0826965299636981
 31
0.0
  0
LINE
  5
CDB6
  8
0
 10
763.0357737607794206
 20
100.2107423000485937
 30
0.0
 11
760.9917859434154934
 21
100.2285960239481994
 31
0.0
  0
LINE
  5
CDB7
  8
0
 10
763.0668600418836149
 20
100.2422632224401013
 30
0.0
 11
763.0668600418836149
 21
102.0690293314717962
 31
0.0
  0
LINE
  5
CDB8
  8
0
 10
763.1180411442835521
 20
102.0808330053728952
 30
0.0
 11
763.1180411442835521
 21
100.230442300048594
 31
0.0
  0
ARC
  5
CDB9
  8
0
 10
763.0353185439961408
 20
100.2422805175915954
 30
0.0
 40
0.0315415026292392
 50
270.8269392325088916
 51
359.9685830047826016
  0
ARC
  5
CDBA
  8
0
 10
763.0353536873585654
 20
102.0690266830847008
 30
0.0
 40
0.0315063546362008
 50
0.0048162158533891
 51
89.9178964497037043
  0
ARC
  5
CDBB
  8
0
 10
760.9920608292834459
 20
100.2600948245246997
 30
0.0
 40
0.0315
 50
179.9999999999967031
 51
269.5000000000214868
  0
ARC
  5
CDBC
  8
0
 10
760.9920608292834459
 20
102.0511977293870984
 30
0.0
 40
0.0315
 50
90.4999999999785132
 51
180.0
  0
ARC
  5
CDBD
  8
0
 10
763.1377411442834955
 20
102.0808330053728952
 30
0.0
 40
0.0197
 50
89.9999999999934914
 51
180.0
  0
ARC
  5
CDBE
  8
0
 10
763.1377411442834955
 20
100.230442300048594
 30
0.0
 40
0.0197
 50
179.9999999999901945
 51
270.0000000000064801
  0
LINE
  5
CDBF
  8
0
 10
763.1180411442835521
 20
100.3485596628058971
 30
0.0
 11
763.0668600418836149
 21
100.3485596628058971
 31
0.0
  0
LINE
  5
CDC0
  8
0
 10
763.1180411442835521
 20
101.962732891105901
 30
0.0
 11
763.0668600418836149
 21
101.962732891105901
 31
0.0
  0
LINE
  5
CDC1
  8
0
 10
763.8857876008836456
 20
98.9430478517059555
 30
0.0
 11
765.4999009867835866
 21
98.9430478517059555
 31
0.0
  0
LINE
  5
CDC2
  8
0
 10
763.8857876008836456
 20
99.5532840722059404
 30
0.0
 11
765.4999009867835866
 21
99.5532840722059404
 31
0.0
  0
LINE
  5
CDC3
  8
0
 10
765.5196009867836437
 20
99.5611580880059535
 30
0.0
 11
763.8660876008834748
 21
99.5611580880059535
 31
0.0
  0
LINE
  5
CDC4
  8
0
 10
765.5393009867835872
 20
99.9639986827429823
 30
0.0
 11
765.5393009867835872
 21
99.5808580880059537
 31
0.0
  0
LINE
  5
CDC5
  8
0
 10
765.5393009867835872
 20
99.5138840722059399
 30
0.0
 11
765.5393009867835872
 21
98.9824478517059703
 31
0.0
  0
LINE
  5
CDC6
  8
0
 10
763.8463876008836451
 20
99.9639986812324253
 30
0.0
 11
763.8463876008836451
 21
99.5808580880059537
 31
0.0
  0
LINE
  5
CDC7
  8
0
 10
763.8463876008836451
 20
99.5138840722059399
 30
0.0
 11
763.8463876008836451
 21
98.9824478517059703
 31
0.0
  0
ARC
  5
CDC8
  8
0
 10
763.500466416200652
 20
99.9868990761854377
 30
0.0
 40
0.3466783727050685
 50
356.2124776791716272
 51
20.9673440758520613
  0
ARC
  5
CDC9
  8
0
 10
763.6967629179670212
 20
100.0540654348767049
 30
0.0
 40
0.1395481385488054
 50
24.0576444695559992
 51
70.3523729791531451
  0
ARC
  5
CDCA
  8
0
 10
763.5956812422095936
 20
99.7709400669696151
 30
0.0
 40
0.4401766121277672
 50
70.3523729791531451
 51
87.6367443606527843
  0
ARC
  5
CDCB
  8
0
 10
765.8852221715663973
 20
99.9868990761854377
 30
0.0
 40
0.3466783727050685
 50
159.032655924147889
 51
183.7875223208266959
  0
ARC
  5
CDCC
  8
0
 10
765.6889256698001418
 20
100.0540654348767049
 30
0.0
 40
0.1395481385488054
 50
109.647627020846798
 51
155.9423555304439901
  0
ARC
  5
CDCD
  8
0
 10
765.7900073455574557
 20
99.7709400669696151
 30
0.0
 40
0.4401766121277672
 50
92.3632556393406645
 51
109.647627020846798
  0
ARC
  5
CDCE
  8
0
 10
763.8857876008836456
 20
99.5138840722059399
 30
0.0
 40
0.0394
 50
90.0
 51
180.0
  0
ARC
  5
CDCF
  8
0
 10
763.8857876008836456
 20
98.9824478517059703
 30
0.0
 40
0.0394
 50
180.0000000000015916
 51
270.0
  0
ARC
  5
CDD0
  8
0
 10
765.4999009867835866
 20
98.9824478517059703
 30
0.0
 40
0.0394
 50
270.0
 51
0.0
  0
ARC
  5
CDD1
  8
0
 10
765.4999009867835866
 20
99.5138840722059399
 30
0.0
 40
0.0394
 50
0.0000000000016284
 51
90.0
  0
ARC
  5
CDD2
  8
0
 10
765.5196009867836437
 20
99.5808580880059537
 30
0.0
 40
0.0197
 50
269.9999999999935199
 51
0.0000000000097707
  0
ARC
  5
CDD3
  8
0
 10
763.8660876008834748
 20
99.5808580880059537
 30
0.0
 40
0.0197
 50
179.9999999999951115
 51
270.0000000000064801
  0
LINE
  5
CDD4
  8
0
 10
763.9093797268834578
 20
99.5532840722059404
 30
0.0
 11
763.9093797268834578
 21
99.5611580880059535
 31
0.0
  0
LINE
  5
CDD5
  8
0
 10
765.476061522283544
 20
99.5532840722059404
 30
0.0
 11
765.476061522283544
 21
99.5611580880059535
 31
0.0
  0
LINE
  5
CDD6
  8
0
 10
764.4113482308945322
 20
98.815095095805944
 30
0.0
 11
764.9743403568835447
 21
98.815095095805944
 31
0.0
  0
LINE
  5
CDD7
  8
0
 10
765.0472491096182921
 20
98.887929741505971
 30
0.0
 11
764.3384685638252449
 21
98.887929741505971
 31
0.0
  0
LINE
  5
CDD8
  8
0
 10
764.2597734276836263
 20
98.9194258045059627
 30
0.0
 11
765.1259151599836059
 21
98.9194258045059627
 31
0.0
  0
LINE
  5
CDD9
  8
0
 10
764.2597734276836263
 20
98.9194258045059627
 30
0.0
 11
764.2597734276836263
 21
98.9430478517059555
 31
0.0
  0
LINE
  5
CDDA
  8
0
 10
765.1259151599836059
 20
98.9194258045059627
 30
0.0
 11
765.1259151599836059
 21
98.9430478517059555
 31
0.0
  0
LINE
  5
CDDB
  8
0
 10
765.0472491096182921
 20
98.887929741505971
 30
0.0
 11
765.0601931539099496
 21
98.9194258045059627
 31
0.0
  0
LINE
  5
CDDC
  8
0
 10
764.3384685638252449
 20
98.887929741505971
 30
0.0
 11
764.3253802556848768
 21
98.9194258045059627
 31
0.0
  0
ARC
  5
CDDD
  8
0
 10
764.5579587615834498
 20
98.9464550204059208
 30
0.0
 40
0.1968503936999816
 50
197.2960119021321077
 51
221.8596654851442906
  0
ARC
  5
CDDE
  8
0
 10
764.8277298243107225
 20
98.9464550212189664
 30
0.0
 40
0.1968503956455625
 50
318.1403347044978887
 51
342.7039880263537839
  0
ARC
  5
CDDF
  8
0
 10
764.889694687583642
 20
101.1556462769058982
 30
0.0
 40
1.279527559099999
 50
47.600847964615923
 51
132.3991520353841054
  0
ARC
  5
CDE0
  8
0
 10
764.889694687583642
 20
101.1556462769058982
 30
0.0
 40
0.9881889584999992
 50
72.9756103527936233
 51
107.0243896472063057
  0
ARC
  5
CDE1
  8
0
 10
764.8896946875837557
 20
101.1556462769056992
 30
0.0
 40
1.279527559099735
 50
300.8446965848797845
 51
312.3075299563533918
  0
LINE
  5
CDE2
  8
0
 10
774.724340356783614
 20
100.2600948245246997
 30
0.0
 11
774.724340356783614
 21
102.0511977293870984
 31
0.0
  0
LINE
  5
CDE3
  8
0
 10
772.6494467121448224
 20
102.1005330053728954
 30
0.0
 11
774.6931152426518565
 21
102.0826965299636981
 31
0.0
  0
LINE
  5
CDE4
  8
0
 10
772.6489326792983547
 20
100.2107423000485937
 30
0.0
 11
774.6931152426518565
 21
100.2285960239481994
 31
0.0
  0
LINE
  5
CDE5
  8
0
 10
772.6180411441836213
 20
100.2422632224401013
 30
0.0
 11
772.6180411441836213
 21
102.0690293314717962
 31
0.0
  0
LINE
  5
CDE6
  8
0
 10
772.5747340575836688
 20
102.0808330053728952
 30
0.0
 11
772.5747340575836688
 21
100.230442300048594
 31
0.0
  0
ARC
  5
CDE7
  8
0
 10
772.6495887021402496
 20
100.2422830425874025
 30
0.0
 40
0.0315475641828138
 50
180.0359967843573941
 51
268.8084642813930145
  0
ARC
  5
CDE8
  8
0
 10
772.6495477208502507
 20
102.069026590502304
 30
0.0
 40
0.0315065767858251
 50
90.1836880745767786
 51
179.9950154538458094
  0
ARC
  5
CDE9
  8
0
 10
774.692840356783563
 20
100.2600948245246997
 30
0.0
 40
0.0315
 50
270.4999999999785132
 51
0.0000000000032569
  0
ARC
  5
CDEA
  8
0
 10
774.692840356783563
 20
102.0511977293870984
 30
0.0
 40
0.0315
 50
0.0
 51
89.5000000000214868
  0
ARC
  5
CDEB
  8
0
 10
772.5550340575836117
 20
102.0808330053728952
 30
0.0
 40
0.0197
 50
0.0
 51
90.0
  0
ARC
  5
CDEC
  8
0
 10
772.5550340575836117
 20
100.230442300048594
 30
0.0
 40
0.0197
 50
269.9999999999935199
 51
0.0000000000097707
  0
LINE
  5
CDED
  8
0
 10
772.5747832389647556
 20
100.346591158805893
 30
0.0
 11
772.6180903255648218
 21
100.346591158805893
 31
0.0
  0
LINE
  5
CDEE
  8
0
 10
772.5747340575836688
 20
101.9647013950059034
 30
0.0
 11
772.6180411441836213
 21
101.9647013950059034
 31
0.0
  0
LINE
  5
CDEF
  8
0
 10
771.1137546387244583
 20
98.9042094973059562
 30
0.0
 11
770.4766583582427302
 21
98.9042094973059562
 31
0.0
  0
LINE
  5
CDF0
  8
0
 10
771.192370076137081
 20
98.9792621694557653
 30
0.0
 11
771.2440253962184897
 21
100.0926541510059025
 31
0.0
  0
LINE
  5
CDF1
  8
0
 10
771.2497551552486357
 20
100.0926541510059025
 30
0.0
 11
770.3406578417186665
 21
100.0926541510059025
 31
0.0
  0
ARC
  5
CDF2
  8
0
 10
771.1137546387244583
 20
98.9829094973059256
 30
0.0
 40
0.0787
 50
270.0
 51
357.3436928536768278
  0
ARC
  5
CDF3
  8
0
 10
771.4163692551996974
 20
100.0437057959822056
 30
0.0
 40
0.1603167600722645
 50
102.1234576103477991
 51
157.5192180856776929
  0
ARC
  5
CDF4
  8
0
 10
771.4797262709709003
 20
99.7487609285048791
 30
0.0
 40
0.4619897391384584
 50
89.655156185862154
 51
102.1234576103477991
  0
ARC
  5
CDF5
  8
0
 10
771.2497551552486357
 20
100.112654151005998
 30
0.0
 40
0.02
 50
270.000000000019611
 51
337.5192180855952984
  0
ARC
  5
CDF6
  8
0
 10
770.7952064985836387
 20
101.1556462769058982
 30
0.0
 40
1.279527559099999
 50
47.600847964615923
 51
132.3976729485985118
  0
ARC
  5
CDF7
  8
0
 10
770.7952064985836387
 20
101.1556462769058982
 30
0.0
 40
1.279527559099999
 50
290.2293963000905137
 51
312.3980065787367835
  0
ARC
  5
CDF8
  8
0
 10
770.7952064985836387
 20
101.1556462769058982
 30
0.0
 40
0.9881889584999985
 50
72.9756103527936233
 51
107.0243896472061067
  0
ARC
  5
CDF9
  8
0
 10
766.9111505094863332
 20
102.2916537842826017
 30
0.0
 40
0.4392114098646313
 50
348.5127387695857237
 51
0.7468266792876889
  0
ARC
  5
CDFA
  8
0
 10
767.2341447256036417
 20
102.233328204660296
 30
0.0
 40
0.1113025384440693
 50
308.7964032318287195
 51
344.8207616018024169
  0
ARC
  5
CDFB
  8
0
 10
767.197973898107989
 20
102.2783214245977064
 30
0.0
 40
0.1690322413886
 50
284.5187607570372279
 51
308.7964032318287195
  0
ARC
  5
CDFC
  8
0
 10
767.1377093871941497
 20
102.5110326284790006
 30
0.0
 40
0.4094200856893288
 50
275.4996402319231947
 51
284.5187607570372279
  0
ARC
  5
CDFD
  8
0
 10
767.1150476490882966
 20
102.7463992681016975
 30
0.0
 40
0.6458751753390753
 50
269.6990001408308899
 51
275.4996402319231947
  0
ARC
  5
CDFE
  8
0
 10
768.7737506765810167
 20
102.2916537842826017
 30
0.0
 40
0.4392114098646313
 50
179.2531733207123068
 51
191.4872612304143047
  0
ARC
  5
CDFF
  8
0
 10
768.4507564604634808
 20
102.233328204660296
 30
0.0
 40
0.1113025384440693
 50
195.1792383981976116
 51
231.2035967681713089
  0
ARC
  5
CE00
  8
0
 10
768.4869272879592472
 20
102.2783214245977064
 30
0.0
 40
0.1690322413886
 50
231.2035967681713089
 51
255.4812392429628005
  0
ARC
  5
CE01
  8
0
 10
768.5471917988729729
 20
102.5110326284790006
 30
0.0
 40
0.4094200856893288
 50
255.4812392429628005
 51
264.5003597680768053
  0
ARC
  5
CE02
  8
0
 10
768.569853536978826
 20
102.7463992681016975
 30
0.0
 40
0.6458751753390753
 50
264.5003597680768053
 51
270.3009998591494991
  0
LINE
  5
CE03
  8
0
 10
768.3345765772836558
 20
102.4745439147059045
 30
0.0
 11
767.3503246087834668
 21
102.4745439147059045
 31
0.0
  0
ARC
  5
CE04
  8
0
 10
768.3148765772835986
 20
102.4548439147059042
 30
0.0
 40
0.0197
 50
359.9999999999919282
 51
89.9999999999934914
  0
ARC
  5
CE05
  8
0
 10
767.3700246087836376
 20
102.4548439147059042
 30
0.0
 40
0.0197
 50
90.0
 51
180.0000000000081002
  0
LINE
  5
CE06
  8
0
 10
770.8475669265371835
 20
121.7309351695597996
 30
0.0
 11
770.897559705225035
 21
122.808492309978206
 31
0.0
  0
ARC
  5
CE07
  8
0
 10
770.7689514891244471
 20
121.7345824974058957
 30
0.0
 40
0.0787
 50
269.9999999999935199
 51
357.3436928566501933
  0
LINE
  5
CE08
  8
0
 10
767.4094246087836382
 20
148.4942289541058926
 30
0.0
 11
768.2754765772835981
 21
148.4942289541058926
 31
0.0
  0
LINE
  5
CE09
  8
0
 10
768.2754765772835981
 20
147.962732891105901
 30
0.0
 11
767.4094246087836382
 21
147.962732891105901
 31
0.0
  0
LINE
  5
CE0A
  8
0
 10
768.3345765772836558
 20
148.4351289541058918
 30
0.0
 11
768.3345765772836558
 21
147.893792733605892
 31
0.0
  0
ARC
  5
CE0B
  8
0
 10
768.324776577283501
 20
147.893792733605892
 30
0.0
 40
0.0098
 50
270.0
 51
0.0
  0
LINE
  5
CE0C
  8
0
 10
768.3345765772836558
 20
147.8642927336059074
 30
0.0
 11
768.3345765772836558
 21
147.7448374155333966
 31
0.0
  0
LINE
  5
CE0D
  8
0
 10
768.3345765772836558
 20
147.6210321037058861
 30
0.0
 11
768.3345765772836558
 21
147.3170785604058892
 31
0.0
  0
LINE
  5
CE0E
  8
0
 10
767.3503246087834668
 20
148.4351289541058918
 30
0.0
 11
767.3503246087834668
 21
147.893792733605892
 31
0.0
  0
ARC
  5
CE0F
  8
0
 10
767.3601246087836216
 20
147.893792733605892
 30
0.0
 40
0.0098
 50
180.0
 51
270.0
  0
LINE
  5
CE10
  8
0
 10
767.3503246087834668
 20
147.8642927336059074
 30
0.0
 11
767.3503246087834668
 21
147.7448374155333966
 31
0.0
  0
LINE
  5
CE11
  8
0
 10
767.3503246087834668
 20
147.6210321037058861
 30
0.0
 11
767.3503246087834668
 21
147.3170785604058892
 31
0.0
  0
ARC
  5
CE12
  8
0
 10
767.4094246087836382
 20
148.4351289541058918
 30
0.0
 40
0.0591
 50
90.0
 51
180.0000000000065086
  0
ARC
  5
CE13
  8
0
 10
768.2754765772835981
 20
148.4351289541058918
 30
0.0
 40
0.0591
 50
0.0000000000065138
 51
90.0
  0
ARC
  5
CE14
  8
0
 10
768.2754765772835981
 20
148.0218328911059018
 30
0.0
 40
0.0591
 50
270.0
 51
0.0
  0
ARC
  5
CE15
  8
0
 10
767.4094246087836382
 20
148.0218328911059018
 30
0.0
 40
0.0591
 50
180.0
 51
270.0
  0
LINE
  5
CE16
  8
0
 10
772.8424505930836403
 20
145.7063943084058906
 30
0.0
 11
762.8424505930836403
 21
145.7063943084058906
 31
0.0
  0
LINE
  5
CE17
  8
0
 10
772.8125505930836425
 20
145.2339533635058899
 30
0.0
 11
762.8723505930836382
 21
145.2339533635058899
 31
0.0
  0
LINE
  5
CE18
  8
0
 10
772.8424505930836403
 20
145.2638533635058877
 30
0.0
 11
772.8424505930836403
 21
145.7063943084058906
 31
0.0
  0
LINE
  5
CE19
  8
0
 10
762.8424505930836403
 20
145.2638533635058877
 30
0.0
 11
762.8424505930836403
 21
145.7063943084058906
 31
0.0
  0
ARC
  5
CE1A
  8
0
 10
772.8125505930836425
 20
145.2638533635058877
 30
0.0
 40
0.0299
 50
270.0
 51
0.0
  0
ARC
  5
CE1B
  8
0
 10
762.8723505930836382
 20
145.2638533635058877
 30
0.0
 40
0.0299
 50
180.0
 51
270.0
  0
LINE
  5
CE1C
  8
0
 10
767.6385892231835442
 20
146.2969454895059016
 30
0.0
 11
767.6385892231835442
 21
146.7693864344059023
 31
0.0
  0
LINE
  5
CE1D
  8
0
 10
768.0463119628835784
 20
146.2969454895059016
 30
0.0
 11
768.0463119628835784
 21
146.7693864344059023
 31
0.0
  0
LINE
  5
CE1E
  8
0
 10
768.5609545300835634
 20
146.7693864344059023
 30
0.0
 11
767.1239466560836036
 21
146.7693864344059023
 31
0.0
  0
LINE
  5
CE1F
  8
0
 10
767.1239466560836036
 20
146.7693864344059023
 30
0.0
 11
767.1239466560836036
 21
145.7063943084058906
 31
0.0
  0
LINE
  5
CE20
  8
0
 10
768.5609545300835634
 20
146.7693864344059023
 30
0.0
 11
768.5609545300835634
 21
145.7063943084058906
 31
0.0
  0
LINE
  5
CE21
  8
0
 10
768.0463119628835784
 20
146.2969454895059016
 30
0.0
 11
767.6385892231835442
 21
146.2969454895059016
 31
0.0
  0
ARC
  5
CE22
  8
0
 10
767.8424505930335044
 20
146.4773313163059072
 30
0.0
 40
0.5275590551000732
 50
33.6141349275245815
 51
50.6290105123983309
  0
ARC
  5
CE23
  8
0
 10
768.2215057105215692
 20
146.9392772458485013
 30
0.0
 40
0.0699999996509343
 50
111.912211612958302
 51
230.6290105123983096
  0
ARC
  5
CE24
  8
0
 10
768.1101671326784981
 20
147.2160701768054878
 30
0.0
 40
0.2283464525550805
 50
291.9122116129582878
 51
324.9813713785155755
  0
ARC
  5
CE25
  8
0
 10
767.8424515614335633
 20
146.4773313163059072
 30
0.0
 40
0.5275590551000732
 50
129.3709894876016051
 51
146.3858650724754114
  0
ARC
  5
CE26
  8
0
 10
767.4633964439454985
 20
146.9392772458485013
 30
0.0
 40
0.0699999996509343
 50
309.3709894876017188
 51
68.0877883870417122
  0
ARC
  5
CE27
  8
0
 10
767.5747368783340789
 20
147.2160724748426048
 30
0.0
 40
0.2283492774119558
 50
215.0184049738859926
 51
248.0875713904744089
  0
LINE
  5
CE28
  8
0
 10
768.1771020626410973
 20
146.8851633289135066
 30
0.0
 11
767.5078000918260841
 21
146.8851633289135066
 31
0.0
  0
LINE
  5
CE29
  8
0
 10
768.1953827237974792
 20
147.0042202171059103
 30
0.0
 11
767.4895194306697022
 21
147.0042202171059103
 31
0.0
  0
LINE
  5
CE2A
  8
0
 10
767.3877261835834815
 20
147.5836305289058998
 30
0.0
 11
767.3877261835834815
 21
147.0850366303438079
 31
0.0
  0
LINE
  5
CE2B
  8
0
 10
768.297175002483641
 20
147.5836305289058998
 30
0.0
 11
768.297175002483641
 21
147.0850352233561864
 31
0.0
  0
LINE
  5
CE2C
  8
0
 10
767.3877261835834815
 20
147.5836305289058998
 30
0.0
 11
767.3463876008836451
 21
147.6249691116059068
 31
0.0
  0
LINE
  5
CE2D
  8
0
 10
767.3463876008836451
 20
147.6249691116059068
 30
0.0
 11
767.3463876008836451
 21
147.7329218675058939
 31
0.0
  0
LINE
  5
CE2E
  8
0
 10
768.3385135851834775
 20
147.6249691116059068
 30
0.0
 11
768.297175002483641
 21
147.5836305289058998
 31
0.0
  0
LINE
  5
CE2F
  8
0
 10
768.3385135851834775
 20
147.6249691116059068
 30
0.0
 11
768.3385135851834775
 21
147.7329218675058939
 31
0.0
  0
ARC
  5
CE30
  8
0
 10
768.3185135851836094
 20
147.7329218675058939
 30
0.0
 40
0.02
 50
0.0000000000097707
 51
90.0
  0
ARC
  5
CE31
  8
0
 10
767.3663876008836269
 20
147.7329218675058939
 30
0.0
 40
0.02
 50
90.0
 51
179.9999999999951115
  0
LINE
  5
CE32
  8
0
 10
767.3663876008836269
 20
147.7529218675059042
 30
0.0
 11
768.3185135851836094
 21
147.7529218675059042
 31
0.0
  0
LINE
  5
CE33
  8
0
 10
767.448749805683633
 20
147.0256239253087926
 30
0.0
 11
767.448749805683633
 21
146.828497208922812
 31
0.0
  0
LINE
  5
CE34
  8
0
 10
768.2361513804836477
 20
147.025623145588213
 30
0.0
 11
768.2361513804836477
 21
146.8284982945075114
 31
0.0
  0
LINE
  5
CE35
  8
0
 10
767.3601246087836216
 20
147.8839927336059077
 30
0.0
 11
767.507804923783624
 21
147.8839927336059077
 31
0.0
  0
LINE
  5
CE36
  8
0
 10
768.177096262383543
 20
147.8839927336059077
 30
0.0
 11
768.324776577283501
 21
147.8839927336059077
 31
0.0
  0
LINE
  5
CE37
  8
0
 10
768.297175002483641
 20
147.2973785604058889
 30
0.0
 11
768.3148765772835986
 21
147.2973785604058889
 31
0.0
  0
LINE
  5
CE38
  8
0
 10
767.3877261835834815
 20
147.2973785604058889
 30
0.0
 11
767.3700246087836376
 21
147.2973785604058889
 31
0.0
  0
ARC
  5
CE39
  8
0
 10
767.3700246087836376
 20
147.3170785604058892
 30
0.0
 40
0.0197
 50
180.0
 51
269.999999999980389
  0
ARC
  5
CE3A
  8
0
 10
768.3148765772835986
 20
147.3170785604058892
 30
0.0
 40
0.0197
 50
270.0
 51
0.0000000000211698
  0
ARC
  5
CE3B
  8
0
 10
767.3700246087836376
 20
147.8642927336059074
 30
0.0
 40
0.0197
 50
90.0000000000260485
 51
179.9999999999575948
  0
ARC
  5
CE3C
  8
0
 10
768.3148765772835986
 20
147.8642927336059074
 30
0.0
 40
0.0197
 50
0.0000000000407111
 51
89.9999999999739515
  0
LINE
  5
CE3D
  8
0
 10
768.1967813016835862
 20
147.7658824974058973
 30
0.0
 11
767.4881198843836501
 21
147.7658824974058973
 31
0.0
  0
LINE
  5
CE3E
  8
0
 10
767.507804923783624
 20
147.7658824974058973
 30
0.0
 11
767.507804923783624
 21
147.962732891105901
 31
0.0
  0
LINE
  5
CE3F
  8
0
 10
768.177096262383543
 20
147.7658824974058973
 30
0.0
 11
768.177096262383543
 21
147.962732891105901
 31
0.0
  0
LINE
  5
CE40
  8
0
 10
768.2097419316836522
 20
147.7529218675059042
 30
0.0
 11
768.1967813016835862
 21
147.7658824974058973
 31
0.0
  0
LINE
  5
CE41
  8
0
 10
767.4751592544836285
 20
147.7529218675059042
 30
0.0
 11
767.4881198843836501
 21
147.7658824974058973
 31
0.0
  0
LINE
  5
CE42
  8
0
 10
767.0598826937938384
 20
145.183953363505907
 30
0.0
 11
767.1520933961731998
 21
145.183953363505907
 31
0.0
  0
LINE
  5
CE43
  8
0
 10
766.6129653930732957
 20
145.183953363505907
 30
0.0
 11
766.5207546906939342
 21
145.183953363505907
 31
0.0
  0
LINE
  5
CE44
  8
0
 10
767.0459789316192882
 20
145.1907090793735904
 30
0.0
 11
767.0523094576835774
 21
145.2339533635058899
 31
0.0
  0
LINE
  5
CE45
  8
0
 10
767.0520660056362203
 20
145.1907090793422981
 30
0.0
 11
767.0490224685829617
 21
145.2114997018096858
 31
0.0
  0
LINE
  5
CE46
  8
0
 10
767.0154964837613534
 20
145.1903996840763114
 30
0.0
 11
767.0219996032835752
 21
145.2339533635058899
 31
0.0
  0
LINE
  5
CE47
  8
0
 10
766.9076962857216131
 20
145.1908782740347021
 30
0.0
 11
766.9016619757836679
 21
145.2339533635058899
 31
0.0
  0
LINE
  5
CE48
  8
0
 10
766.6207820812359159
 20
145.1907090793764041
 30
0.0
 11
766.6271126072834932
 21
145.2339533635058899
 31
0.0
  0
LINE
  5
CE49
  8
0
 10
766.5129380025339287
 20
145.1907090793588111
 30
0.0
 11
766.5066074763834649
 21
145.2339533635058899
 31
0.0
  0
LINE
  5
CE4A
  8
0
 10
766.4239357611814967
 20
145.1940441796120922
 30
0.0
 11
766.4297780622836171
 21
145.2339533635058899
 31
0.0
  0
LINE
  5
CE4B
  8
0
 10
766.315115232485482
 20
145.1940441796120922
 30
0.0
 11
766.3092729313834752
 21
145.2339533635058899
 31
0.0
  0
LINE
  5
CE4C
  8
0
 10
765.578903056244485
 20
145.1923338717791125
 30
0.0
 11
765.5728103832834677
 21
145.2339533635058899
 31
0.0
  0
LINE
  5
CE4D
  8
0
 10
765.2373474513312885
 20
145.1907090793764041
 30
0.0
 11
765.2310169252834839
 21
145.2339533635058899
 31
0.0
  0
LINE
  5
CE4E
  8
0
 10
765.3451915300331621
 20
145.1907090793588111
 30
0.0
 11
765.3515220561835122
 21
145.2339533635058899
 31
0.0
  0
LINE
  5
CE4F
  8
0
 10
767.1599100843358201
 20
145.1907090793764041
 30
0.0
 11
767.1662406103836247
 21
145.2339533635058899
 31
0.0
  0
ARC
  5
CE50
  8
0
 10
767.1520933961731998
 20
145.1918533635059134
 30
0.0
 40
0.0079
 50
270.0000000000064801
 51
351.6716331587263085
  0
ARC
  5
CE51
  8
0
 10
767.0598826937938384
 20
145.1918533635059134
 30
0.0
 40
0.0079
 50
188.328367091273094
 51
270.0000000000064801
  0
ARC
  5
CE52
  8
0
 10
766.6129653930732957
 20
145.1918533635059134
 30
0.0
 40
0.0079
 50
270.0000000000064801
 51
351.6716331587255127
  0
ARC
  5
CE53
  8
0
 10
766.5207546906939342
 20
145.1918533635059134
 30
0.0
 40
0.0079
 50
188.3283669708609125
 51
270.0000000000326281
  0
LINE
  5
CE54
  8
0
 10
766.412260201648337
 20
145.183953363505907
 30
0.0
 11
766.3267907920188691
 21
145.183953363505907
 31
0.0
  0
ARC
  5
CE55
  8
0
 10
766.412260201648337
 20
145.1957533635059008
 30
0.0
 40
0.0118
 50
270.0000000000130171
 51
351.6716331379043936
  0
ARC
  5
CE56
  8
0
 10
766.3267907920188691
 20
145.1957533635059008
 30
0.0
 40
0.0118
 50
188.3283668620275932
 51
269.9999999999869829
  0
LINE
  5
CE57
  8
0
 10
765.5885997073797853
 20
145.183953363505907
 30
0.0
 11
765.679564188237805
 21
145.183953363505907
 31
0.0
  0
ARC
  5
CE58
  8
0
 10
765.5885997073797853
 20
145.1937533635058912
 30
0.0
 40
0.0098
 50
188.3283669708561092
 51
270.0000000000130171
  0
LINE
  5
CE59
  8
0
 10
765.337374841873384
 20
145.183953363505907
 30
0.0
 11
765.2451641394939088
 21
145.183953363505907
 31
0.0
  0
LINE
  5
CE5A
  8
0
 10
764.3945301275831525
 20
145.1847291032576095
 30
0.0
 11
764.4834143239330615
 21
145.1831776238533962
 31
0.0
  0
LINE
  5
CE5B
  8
0
 10
764.6092394969049337
 20
145.1915274613905069
 30
0.0
 11
764.6161096614836197
 21
145.2339533635058899
 31
0.0
  0
LINE
  5
CE5C
  8
0
 10
764.4957558267835793
 20
145.2339533635058899
 30
0.0
 11
764.5009440242032497
 21
145.1932637334209062
 31
0.0
  0
LINE
  5
CE5D
  8
0
 10
764.3849791295491514
 20
145.1932938759873082
 30
0.0
 11
764.3798194034834523
 21
145.2339533635058899
 31
0.0
  0
LINE
  5
CE5E
  8
0
 10
764.4932584100130271
 20
145.1914038541385139
 30
0.0
 11
764.4976982909972776
 21
145.2187191416907979
 31
0.0
  0
ARC
  5
CE5F
  8
0
 10
764.3947011611645621
 20
145.1945276106700931
 30
0.0
 40
0.0098
 50
187.2322297964983022
 51
269.0000000091774837
  0
ARC
  5
CE60
  8
0
 10
764.4835853575146984
 20
145.1929761312659934
 30
0.0
 40
0.0098
 50
269.000000009196981
 51
350.7677702499025827
  0
LINE
  5
CE61
  8
0
 10
764.2111957931546158
 20
145.190679476109608
 30
0.0
 11
764.2187161490835479
 21
145.2339533635058899
 31
0.0
  0
LINE
  5
CE62
  8
0
 10
764.102990501400086
 20
145.1939434187789004
 30
0.0
 11
764.0985067419835559
 21
145.2339533635058899
 31
0.0
  0
LINE
  5
CE63
  8
0
 10
763.6778706616280488
 20
145.1941433505689076
 30
0.0
 11
763.6735503760836536
 21
145.2339533635058899
 31
0.0
  0
LINE
  5
CE64
  8
0
 10
763.78607264977461
 20
145.1905345639277982
 30
0.0
 11
763.7937734573836224
 21
145.2339533635058899
 31
0.0
  0
LINE
  5
CE65
  8
0
 10
763.6872875960571037
 20
145.1854060832270079
 30
0.0
 11
763.7760973828502529
 21
145.1824514124548955
 31
0.0
  0
LINE
  5
CE66
  8
0
 10
763.5422680237993518
 20
145.1855040474127918
 30
0.0
 11
763.6310795771819357
 21
145.1824026796984981
 31
0.0
  0
LINE
  5
CE67
  8
0
 10
763.6410689660557409
 20
145.1904738695623109
 30
0.0
 11
763.6488335891835959
 21
145.2339533635058899
 31
0.0
  0
LINE
  5
CE68
  8
0
 10
763.5328659863016583
 20
145.1942524008233875
 30
0.0
 11
763.5286055031834849
 21
145.2339533635058899
 31
0.0
  0
ARC
  5
CE69
  8
0
 10
763.5426100388594932
 20
145.1952980775178901
 30
0.0
 40
0.0098
 50
186.1252178522003078
 51
268.000000044864521
  0
ARC
  5
CE6A
  8
0
 10
763.6314215922418498
 20
145.1921967098035964
 30
0.0
 40
0.0098
 50
268.000000044864521
 51
349.8747820507693973
  0
ARC
  5
CE6B
  8
0
 10
763.6876134583608291
 20
145.1952006640632931
 30
0.0
 40
0.0098
 50
186.1936475333544081
 51
268.0944921508743164
  0
ARC
  5
CE6C
  8
0
 10
763.7764232451538646
 20
145.1922459932912091
 30
0.0
 40
0.0098
 50
268.0944921508677794
 51
349.9425441456133967
  0
ARC
  5
CE6D
  8
0
 10
764.2283906709774328
 20
147.5572762399812916
 30
0.0
 40
2.3748712366942182
 50
267.1968966298052806
 51
269.3495189665493967
  0
ARC
  5
CE6E
  8
0
 10
764.2015405094642801
 20
145.1923574203460134
 30
0.0
 40
0.0098
 50
269.3495189665820249
 51
350.1413098028835975
  0
ARC
  5
CE6F
  8
0
 10
764.1127295368361274
 20
145.195034834729114
 30
0.0
 40
0.0098
 50
186.3942369626992956
 51
267.196896629694379
  0
ARC
  5
CE70
  8
0
 10
764.345102370548716
 20
131.9455858930678005
 30
0.0
 40
13.2401517946981198
 50
88.899576335269586
 51
89.2840498451046045
  0
ARC
  5
CE71
  8
0
 10
764.5995655135710649
 20
145.193094001035405
 30
0.0
 40
0.0098
 50
268.8995763352500035
 51
350.8017530809370896
  0
ARC
  5
CE72
  8
0
 10
764.5106653187018537
 20
145.194503262876708
 30
0.0
 40
0.0098
 50
187.266381980182814
 51
269.284049845124116
  0
ARC
  5
CE73
  8
0
 10
764.8596716578305177
 20
146.2477782890977949
 30
0.0
 40
1.065296588162733
 50
266.0756697287699239
 51
271.0690337759464796
  0
ARC
  5
CE74
  8
0
 10
764.7873045514129444
 20
145.1928609716898961
 30
0.0
 40
0.0079
 50
186.7132091019363997
 51
266.0756697287699239
  0
ARC
  5
CE75
  8
0
 10
764.8793995870317985
 20
145.1905657496963045
 30
0.0
 40
0.0079
 50
271.0690337759399995
 51
350.4577893166326135
  0
ARC
  5
CE76
  8
0
 10
764.8676522916152862
 20
141.3377893608140994
 30
0.0
 40
3.8461389124695229
 50
88.9072069048785067
 51
89.7619523088687146
  0
ARC
  5
CE77
  8
0
 10
764.9411552931233018
 20
145.1911272966300999
 30
0.0
 40
0.0079
 50
268.9072069048784783
 51
350.9014071085227897
  0
LINE
  5
CE78
  8
0
 10
764.9489558928792121
 20
145.1898780394708126
 30
0.0
 11
764.956014505783628
 21
145.2339533635058899
 31
0.0
  0
LINE
  5
CE79
  8
0
 10
764.8871902805840364
 20
145.1892561337311918
 30
0.0
 11
764.8947038870835513
 21
145.2339533635058899
 31
0.0
  0
LINE
  5
CE7A
  8
0
 10
764.7794587159806952
 20
145.1919374640451963
 30
0.0
 11
764.7745131617836023
 21
145.2339533635058899
 31
0.0
  0
ARC
  5
CE7B
  8
0
 10
765.4717767368205159
 20
147.5747221653749932
 30
0.0
 40
2.3913895743865932
 50
268.0291453374578055
 51
270.2460244958360249
  0
LINE
  5
CE7C
  8
0
 10
765.4898152883069997
 20
145.1900269031079063
 30
0.0
 11
765.496725413383615
 21
145.2339533635058899
 31
0.0
  0
LINE
  5
CE7D
  8
0
 10
765.3819739101264759
 20
145.191607870576604
 30
0.0
 11
765.3763796819836216
 21
145.2339533635058899
 31
0.0
  0
ARC
  5
CE7E
  8
0
 10
765.3898058608864403
 20
145.1926425431313987
 30
0.0
 40
0.0079
 50
187.5257183892124999
 51
268.029145337079683
  0
ARC
  5
CE7F
  8
0
 10
765.4820112606173552
 20
145.1912545642248915
 30
0.0
 40
0.0079
 50
270.2460244962529146
 51
351.0599961286287112
  0
ARC
  5
CE80
  8
0
 10
765.337374841873384
 20
145.1918533635059134
 30
0.0
 40
0.0079
 50
269.9999999999544116
 51
351.6716330291882855
  0
ARC
  5
CE81
  8
0
 10
765.2451641394939088
 20
145.1918533635059134
 30
0.0
 40
0.0079
 50
188.3283668412761074
 51
270.0000000000064801
  0
ARC
  5
CE82
  8
0
 10
765.7286450952550467
 20
145.9733106314523923
 30
0.0
 40
0.7908816800846729
 50
265.6038793664264972
 51
272.3511008075913082
  0
LINE
  5
CE83
  8
0
 10
765.7685652320069494
 20
145.1897346289871109
 30
0.0
 11
765.7756710898836445
 21
145.2339533635058899
 31
0.0
  0
LINE
  5
CE84
  8
0
 10
765.6607894264776633
 20
145.1916521551900985
 30
0.0
 11
765.6554990493600599
 21
145.2339533635058899
 31
0.0
  0
ARC
  5
CE85
  8
0
 10
765.6686283595124678
 20
145.1926325269951974
 30
0.0
 40
0.0079
 50
187.1286519090986076
 51
265.6038793656621806
  0
ARC
  5
CE86
  8
0
 10
765.7607653020543239
 20
145.1909880613681878
 30
0.0
 40
0.0079
 50
272.3511008082692229
 51
350.8707385888728822
  0
ARC
  5
CE87
  8
0
 10
766.1692837595162473
 20
147.4721015784188012
 30
0.0
 40
2.2889886908814669
 50
268.1260688848819882
 51
270.4403665872617921
  0
LINE
  5
CE88
  8
0
 10
766.2013942966835884
 20
145.2339533635058899
 30
0.0
 11
766.1946240929290752
 21
145.189880774417702
 31
0.0
  0
LINE
  5
CE89
  8
0
 10
766.081053243983547
 20
145.2339533635058899
 30
0.0
 11
766.0868630081743049
 21
145.191169800333995
 31
0.0
  0
ARC
  5
CE8A
  8
0
 10
766.09469116193236
 20
145.1922328190264864
 30
0.0
 40
0.0079
 50
187.7331387516838959
 51
268.126068884875508
  0
ARC
  5
CE8B
  8
0
 10
766.186815685266879
 20
145.1910802617173033
 30
0.0
 40
0.0079
 50
270.440366587359506
 51
351.2667850173870079
  0
ARC
  5
CE8C
  8
0
 10
766.7474363189666064
 20
145.9275894212287881
 30
0.0
 40
0.7453012024397023
 50
265.9218402776584185
 51
273.083225862792176
  0
ARC
  5
CE8D
  8
0
 10
766.9683049713243008
 20
146.7062178128255994
 30
0.0
 40
1.5230632837385401
 50
268.0035323784040884
 51
271.4892485216499836
  0
LINE
  5
CE8E
  8
0
 10
766.794908719558066
 20
145.1900678042873096
 30
0.0
 11
766.8015831656836099
 21
145.2339533635058899
 31
0.0
  0
LINE
  5
CE8F
  8
0
 10
766.687164004983174
 20
145.1910088746870997
 30
0.0
 11
766.6814248050834522
 21
145.2339533635058899
 31
0.0
  0
ARC
  5
CE90
  8
0
 10
766.6949943881038507
 20
145.1920553450318039
 30
0.0
 40
0.0079
 50
187.6120354662321006
 51
265.9218402779849271
  0
ARC
  5
CE91
  8
0
 10
766.7870985304231226
 20
145.1912556366297906
 30
0.0
 40
0.0079
 50
273.083225862570373
 51
351.3522958647473047
  0
ARC
  5
CE92
  8
0
 10
766.7377993266899239
 20
144.7902186891440977
 30
0.0
 40
0.3946588174234326
 50
85.6562135839899241
 51
93.407229952477735
  0
ARC
  5
CE93
  8
0
 10
766.7441508279107438
 20
145.5673338439974884
 30
0.0
 40
0.3843116122238339
 50
265.5517034688766103
 51
273.5117400675921999
  0
ARC
  5
CE94
  8
0
 10
767.0076831005975464
 20
145.191566321780698
 30
0.0
 40
0.0079
 50
271.4892485213306941
 51
351.5077484778237817
  0
ARC
  5
CE95
  8
0
 10
766.9155198907874365
 20
145.191974268456903
 30
0.0
 40
0.0079
 50
187.9745643152712091
 51
268.003532378645275
  0
LINE
  5
CE96
  8
0
 10
767.0381622434572364
 20
145.183953363505907
 30
0.0
 11
767.0097932821787481
 21
145.183953363505907
 31
0.0
  0
ARC
  5
CE97
  8
0
 10
767.0381622434572364
 20
145.1918533635059134
 30
0.0
 40
0.0079
 50
269.9999999999869829
 51
351.6716331380442284
  0
ARC
  5
CE98
  8
0
 10
764.8233935521227522
 20
144.7946081546078858
 30
0.0
 40
0.3903872967746776
 50
84.6034691809624064
 51
92.5239646549410253
  0
ARC
  5
CE99
  8
0
 10
764.8471004667379702
 20
145.7401192720232075
 30
0.0
 40
0.5570060665886682
 50
265.7892344427884836
 51
271.3381993931204192
  0
ARC
  5
CE9A
  8
0
 10
765.7126987218798604
 20
144.7902186891440977
 30
0.0
 40
0.3946588174234326
 50
85.6562135839899241
 51
93.407229952477735
  0
ARC
  5
CE9B
  8
0
 10
765.7190502231005667
 20
145.5673338439974884
 30
0.0
 40
0.3843116122238339
 50
265.5517034688766103
 51
273.5117400675921999
  0
LINE
  5
CE9C
  8
0
 10
768.6250186337732657
 20
145.183953363505907
 30
0.0
 11
768.5328079313939043
 21
145.183953363505907
 31
0.0
  0
LINE
  5
CE9D
  8
0
 10
769.0719359344939221
 20
145.183953363505907
 30
0.0
 11
769.1641466368733973
 21
145.183953363505907
 31
0.0
  0
LINE
  5
CE9E
  8
0
 10
768.6389223959478159
 20
145.1907090793735904
 30
0.0
 11
768.6325918698836404
 21
145.2339533635058899
 31
0.0
  0
LINE
  5
CE9F
  8
0
 10
768.6328353219309975
 20
145.1907090793422981
 30
0.0
 11
768.6358788589841424
 21
145.2114997018096858
 31
0.0
  0
LINE
  5
CEA0
  8
0
 10
768.6694048438058644
 20
145.1903996840763114
 30
0.0
 11
768.6629017242836426
 21
145.2339533635058899
 31
0.0
  0
LINE
  5
CEA1
  8
0
 10
768.777205041845491
 20
145.1908782740347021
 30
0.0
 11
768.7832393517836636
 21
145.2339533635058899
 31
0.0
  0
LINE
  5
CEA2
  8
0
 10
769.0641192463314155
 20
145.1907090793764041
 30
0.0
 11
769.0577887202834972
 21
145.2339533635058899
 31
0.0
  0
LINE
  5
CEA3
  8
0
 10
769.171963325033289
 20
145.1907090793588111
 30
0.0
 11
769.1782938511836392
 21
145.2339533635058899
 31
0.0
  0
LINE
  5
CEA4
  8
0
 10
769.2609655663856074
 20
145.1940441796120922
 30
0.0
 11
769.2551232652836006
 21
145.2339533635058899
 31
0.0
  0
LINE
  5
CEA5
  8
0
 10
769.3697860950816221
 20
145.1940441796120922
 30
0.0
 11
769.3756283961836289
 21
145.2339533635058899
 31
0.0
  0
LINE
  5
CEA6
  8
0
 10
770.1059982713226191
 20
145.1923338717791125
 30
0.0
 11
770.1120909442836364
 21
145.2339533635058899
 31
0.0
  0
LINE
  5
CEA7
  8
0
 10
770.4475538762359292
 20
145.1907090793764041
 30
0.0
 11
770.4538844022835065
 21
145.2339533635058899
 31
0.0
  0
LINE
  5
CEA8
  8
0
 10
770.3397097975338284
 20
145.1907090793588111
 30
0.0
 11
770.3333792713834782
 21
145.2339533635058899
 31
0.0
  0
LINE
  5
CEA9
  8
0
 10
768.5249912432311703
 20
145.1907090793764041
 30
0.0
 11
768.5186607171835931
 21
145.2339533635058899
 31
0.0
  0
ARC
  5
CEAA
  8
0
 10
768.5328079313939043
 20
145.1918533635059134
 30
0.0
 40
0.0079
 50
188.3283668412728957
 51
269.9999999999869829
  0
ARC
  5
CEAB
  8
0
 10
768.6250186337732657
 20
145.1918533635059134
 30
0.0
 40
0.0079
 50
269.9999999999869829
 51
351.6716329087270196
  0
ARC
  5
CEAC
  8
0
 10
769.0719359344939221
 20
145.1918533635059134
 30
0.0
 40
0.0079
 50
188.3283668412744873
 51
269.9999999999935199
  0
ARC
  5
CEAD
  8
0
 10
769.1641466368733973
 20
145.1918533635059134
 30
0.0
 40
0.0079
 50
269.9999999999673719
 51
351.6716330291390022
  0
LINE
  5
CEAE
  8
0
 10
769.2726411259188808
 20
145.183953363505907
 30
0.0
 11
769.358110535548235
 21
145.183953363505907
 31
0.0
  0
ARC
  5
CEAF
  8
0
 10
769.2726411259188808
 20
145.1957533635059008
 30
0.0
 40
0.0118
 50
188.3283668620954927
 51
269.9999999999869829
  0
ARC
  5
CEB0
  8
0
 10
769.358110535548235
 20
145.1957533635059008
 30
0.0
 40
0.0118
 50
270.0000000000064801
 51
351.6716331379723783
  0
LINE
  5
CEB1
  8
0
 10
770.0963016201875462
 20
145.183953363505907
 30
0.0
 11
770.0053371393295265
 21
145.183953363505907
 31
0.0
  0
ARC
  5
CEB2
  8
0
 10
770.0963016201875462
 20
145.1937533635058912
 30
0.0
 40
0.0098
 50
269.9999999999869829
 51
351.6716330291437771
  0
LINE
  5
CEB3
  8
0
 10
770.3475264856939475
 20
145.183953363505907
 30
0.0
 11
770.439737188073309
 21
145.183953363505907
 31
0.0
  0
LINE
  5
CEB4
  8
0
 10
771.2903711999840652
 20
145.1847291032576095
 30
0.0
 11
771.2014870036340426
 21
145.1831776238533962
 31
0.0
  0
LINE
  5
CEB5
  8
0
 10
771.0756618306623977
 20
145.1915274613905069
 30
0.0
 11
771.0687916660835981
 21
145.2339533635058899
 31
0.0
  0
LINE
  5
CEB6
  8
0
 10
771.1891455007836385
 20
145.2339533635058899
 30
0.0
 11
771.1839573033638544
 21
145.1932637334209062
 31
0.0
  0
LINE
  5
CEB7
  8
0
 10
771.2999221980179527
 20
145.1932938759873082
 30
0.0
 11
771.3050819240836518
 21
145.2339533635058899
 31
0.0
  0
LINE
  5
CEB8
  8
0
 10
771.191642917554077
 20
145.1914038541385139
 30
0.0
 11
771.1872030365698265
 21
145.2187191416907979
 31
0.0
  0
ARC
  5
CEB9
  8
0
 10
771.290200166402542
 20
145.1945276106700931
 30
0.0
 40
0.0098
 50
270.9999999908224027
 51
352.7677702035015841
  0
ARC
  5
CEBA
  8
0
 10
771.2013159700525193
 20
145.1929761312659934
 30
0.0
 40
0.0098
 50
189.2322297500973889
 51
270.9999999907964252
  0
LINE
  5
CEBB
  8
0
 10
771.473705534412602
 20
145.190679476109608
 30
0.0
 11
771.4661851784835562
 21
145.2339533635058899
 31
0.0
  0
LINE
  5
CEBC
  8
0
 10
771.5819108261672454
 20
145.1939434187789004
 30
0.0
 11
771.5863945855835482
 21
145.2339533635058899
 31
0.0
  0
LINE
  5
CEBD
  8
0
 10
772.0070306659390553
 20
145.1941433505689076
 30
0.0
 11
772.0113509514835641
 21
145.2339533635058899
 31
0.0
  0
LINE
  5
CEBE
  8
0
 10
771.8988286777924941
 20
145.1905345639277982
 30
0.0
 11
771.8911278701835954
 21
145.2339533635058899
 31
0.0
  0
LINE
  5
CEBF
  8
0
 10
771.9976137315101141
 20
145.1854060832270079
 30
0.0
 11
771.9088039447170786
 21
145.1824514124548955
 31
0.0
  0
LINE
  5
CEC0
  8
0
 10
772.1426333037677523
 20
145.1855040474127918
 30
0.0
 11
772.0538217503851683
 21
145.1824026796984981
 31
0.0
  0
LINE
  5
CEC1
  8
0
 10
772.0438323615113632
 20
145.1904738695623109
 30
0.0
 11
772.0360677383836219
 21
145.2339533635058899
 31
0.0
  0
LINE
  5
CEC2
  8
0
 10
772.1520353412654458
 20
145.1942524008233875
 30
0.0
 11
772.1562958243836192
 21
145.2339533635058899
 31
0.0
  0
ARC
  5
CEC3
  8
0
 10
772.1422912887077246
 20
145.1952980775178901
 30
0.0
 40
0.0098
 50
271.9999999551288852
 51
353.8747821477988964
  0
ARC
  5
CEC4
  8
0
 10
772.0534797353252543
 20
145.1921967098035964
 30
0.0
 40
0.0098
 50
190.1252179492298069
 51
271.999999955135479
  0
ARC
  5
CEC5
  8
0
 10
771.9972878692063887
 20
145.1952006640632931
 30
0.0
 40
0.0098
 50
271.9055078491256836
 51
353.8063524666438866
  0
ARC
  5
CEC6
  8
0
 10
771.9084780824132395
 20
145.1922459932912091
 30
0.0
 40
0.0098
 50
190.0574558543866033
 51
271.9055078491322206
  0
ARC
  5
CEC7
  8
0
 10
771.4565106565896713
 20
147.5572762399812916
 30
0.0
 40
2.3748712366942182
 50
270.6504810334504896
 51
272.8031033701947194
  0
ARC
  5
CEC8
  8
0
 10
771.4833608181028239
 20
145.1923574203460134
 30
0.0
 40
0.0098
 50
189.8586901971146972
 51
270.6504810334113813
  0
ARC
  5
CEC9
  8
0
 10
771.5721717907312041
 20
145.195034834729114
 30
0.0
 40
0.0098
 50
272.8031033703055073
 51
353.6057630373006759
  0
ARC
  5
CECA
  8
0
 10
771.3397989570186155
 20
131.9455858930678005
 30
0.0
 40
13.2401517946981198
 50
90.7159501548953955
 51
91.100423664730414
  0
ARC
  5
CECB
  8
0
 10
771.0853358139960392
 20
145.193094001035405
 30
0.0
 40
0.0098
 50
189.1982469190629104
 51
271.1004236647498828
  0
ARC
  5
CECC
  8
0
 10
771.1742360088653641
 20
145.194503262876708
 30
0.0
 40
0.0098
 50
270.7159501548758271
 51
352.7336180198155944
  0
ARC
  5
CECD
  8
0
 10
770.8252296697367001
 20
146.2477782890977949
 30
0.0
 40
1.065296588162733
 50
268.9309662240535204
 51
273.9243302712300761
  0
ARC
  5
CECE
  8
0
 10
770.8975967761541597
 20
145.1928609716898961
 30
0.0
 40
0.0079
 50
273.9243302712300761
 51
353.2867908980628044
  0
ARC
  5
CECF
  8
0
 10
770.8055017405353055
 20
145.1905657496963045
 30
0.0
 40
0.0079
 50
189.5422106833673865
 51
268.9309662240600005
  0
ARC
  5
CED0
  8
0
 10
770.8172490359519315
 20
141.3377893608140994
 30
0.0
 40
3.8461389124695229
 50
90.238047691131257
 51
91.0927930951215075
  0
ARC
  5
CED1
  8
0
 10
770.7437460344436886
 20
145.1911272966300999
 30
0.0
 40
0.0079
 50
189.0985928914770966
 51
271.0927930951215217
  0
LINE
  5
CED2
  8
0
 10
770.7359454346880057
 20
145.1898780394708126
 30
0.0
 11
770.7288868217835898
 21
145.2339533635058899
 31
0.0
  0
LINE
  5
CED3
  8
0
 10
770.7977110469831814
 20
145.1892561337311918
 30
0.0
 11
770.7901974404835528
 21
145.2339533635058899
 31
0.0
  0
LINE
  5
CED4
  8
0
 10
770.9054426115865226
 20
145.1919374640451963
 30
0.0
 11
770.9103881657836155
 21
145.2339533635058899
 31
0.0
  0
ARC
  5
CED5
  8
0
 10
770.2131245907465882
 20
147.5747221653749932
 30
0.0
 40
2.3913895743865932
 50
269.7539755041639751
 51
271.9708546625421945
  0
LINE
  5
CED6
  8
0
 10
770.1950860392599907
 20
145.1900269031079063
 30
0.0
 11
770.1881759141834891
 21
145.2339533635058899
 31
0.0
  0
LINE
  5
CED7
  8
0
 10
770.3029274174406282
 20
145.191607870576604
 30
0.0
 11
770.3085216455835962
 21
145.2339533635058899
 31
0.0
  0
ARC
  5
CED8
  8
0
 10
770.2950954666807775
 20
145.1926425431313987
 30
0.0
 40
0.0079
 50
271.970854662920317
 51
352.4742816107867043
  0
ARC
  5
CED9
  8
0
 10
770.2028900669497489
 20
145.1912545642248915
 30
0.0
 40
0.0079
 50
188.9400038713714025
 51
269.7539755037470854
  0
ARC
  5
CEDA
  8
0
 10
770.3475264856938338
 20
145.1918533635059134
 30
0.0
 40
0.0079
 50
188.3283669708116861
 51
270.0000000000455884
  0
ARC
  5
CEDB
  8
0
 10
770.439737188073309
 20
145.1918533635059134
 30
0.0
 40
0.0079
 50
269.9999999999869829
 51
351.671633158723921
  0
ARC
  5
CEDC
  8
0
 10
769.9562562323120574
 20
145.9733106314523923
 30
0.0
 40
0.7908816800846729
 50
267.6488991924088054
 51
274.396120633566909
  0
LINE
  5
CEDD
  8
0
 10
769.9163360955601547
 20
145.1897346289871109
 30
0.0
 11
769.9092302376834596
 21
145.2339533635058899
 31
0.0
  0
LINE
  5
CEDE
  8
0
 10
770.0241119010895545
 20
145.1916521551900985
 30
0.0
 11
770.0294022782070442
 21
145.2339533635058899
 31
0.0
  0
ARC
  5
CEDF
  8
0
 10
770.0162729680546363
 20
145.1926325269951974
 30
0.0
 40
0.0079
 50
274.3961206343378194
 51
352.8713480908965039
  0
ARC
  5
CEE0
  8
0
 10
769.9241360255128939
 20
145.1909880613681878
 30
0.0
 40
0.0079
 50
189.1292614111262083
 51
267.6488991917307203
  0
ARC
  5
CEE1
  8
0
 10
769.5156175680508568
 20
147.4721015784188012
 30
0.0
 40
2.2889886908814669
 50
269.5596334127382079
 51
271.8739311151114748
  0
LINE
  5
CEE2
  8
0
 10
769.4835070308836293
 20
145.2339533635058899
 30
0.0
 11
769.4902772346380289
 21
145.189880774417702
 31
0.0
  0
LINE
  5
CEE3
  8
0
 10
769.6038480835834434
 20
145.2339533635058899
 30
0.0
 11
769.5980383193929129
 21
145.191169800333995
 31
0.0
  0
ARC
  5
CEE4
  8
0
 10
769.590210165634744
 20
145.1922328190264864
 30
0.0
 40
0.0079
 50
271.873931115124492
 51
352.2668612483159905
  0
ARC
  5
CEE5
  8
0
 10
769.4980856423002251
 20
145.1910802617173033
 30
0.0
 40
0.0079
 50
188.7332149826129921
 51
269.559633412640494
  0
ARC
  5
CEE6
  8
0
 10
768.9374650086006113
 20
145.9275894212287881
 30
0.0
 40
0.7453012024397023
 50
266.916774137207824
 51
274.0781597223416952
  0
ARC
  5
CEE7
  8
0
 10
768.716596356242917
 20
146.7062178128255994
 30
0.0
 40
1.5230632837385401
 50
268.5107514783500164
 51
271.9964676215957979
  0
LINE
  5
CEE8
  8
0
 10
768.8899926080090381
 20
145.1900678042873096
 30
0.0
 11
768.8833181618836079
 21
145.2339533635058899
 31
0.0
  0
LINE
  5
CEE9
  8
0
 10
768.9977373225840438
 20
145.1910088746870997
 30
0.0
 11
769.0034765224836519
 21
145.2339533635058899
 31
0.0
  0
ARC
  5
CEEA
  8
0
 10
768.9899069394632534
 20
145.1920553450318039
 30
0.0
 40
0.0079
 50
274.0781597220150729
 51
352.3879645337669899
  0
ARC
  5
CEEB
  8
0
 10
768.8978027971439815
 20
145.1912556366297906
 30
0.0
 40
0.0079
 50
188.6477041352526953
 51
266.916774137429627
  0
ARC
  5
CEEC
  8
0
 10
768.9471020008772939
 20
144.7902186891440977
 30
0.0
 40
0.3946588174234326
 50
86.5927700475222792
 51
94.3437864160100759
  0
ARC
  5
CEED
  8
0
 10
768.9407504996563603
 20
145.5673338439974884
 30
0.0
 40
0.3843116122238339
 50
266.4882599324013199
 51
274.4482965311235034
  0
ARC
  5
CEEE
  8
0
 10
768.6772182269697851
 20
145.191566321780698
 30
0.0
 40
0.0079
 50
188.4922515221761898
 51
268.5107514786693059
  0
ARC
  5
CEEF
  8
0
 10
768.7693814367797813
 20
145.191974268456903
 30
0.0
 40
0.0079
 50
271.9964676213546113
 51
352.0254356847279951
  0
LINE
  5
CEF0
  8
0
 10
768.6467390841099814
 20
145.183953363505907
 30
0.0
 11
768.675108045388356
 21
145.183953363505907
 31
0.0
  0
ARC
  5
CEF1
  8
0
 10
768.6467390841099814
 20
145.1918533635059134
 30
0.0
 40
0.0079
 50
188.3283668619556863
 51
270.0000000000130171
  0
ARC
  5
CEF2
  8
0
 10
770.8615077754443519
 20
144.7946081546078858
 30
0.0
 40
0.3903872967746776
 50
87.4760353450589747
 51
95.3965308190376078
  0
ARC
  5
CEF3
  8
0
 10
770.8378008608291339
 20
145.7401192720232075
 30
0.0
 40
0.5570060665886682
 50
268.6618006068731006
 51
274.2107655572115164
  0
ARC
  5
CEF4
  8
0
 10
769.9722026056872437
 20
144.7902186891440977
 30
0.0
 40
0.3946588174234326
 50
86.5927700475222792
 51
94.3437864160100759
  0
ARC
  5
CEF5
  8
0
 10
769.9658511044665374
 20
145.5673338439974884
 30
0.0
 40
0.3843116122238339
 50
266.4882599324013199
 51
274.4482965311235034
  0
LINE
  5
CEF6
  8
0
 10
767.8962089315165258
 20
145.19047362737561
 30
0.0
 11
767.9027923163698688
 21
145.2339533635058899
 31
0.0
  0
LINE
  5
CEF7
  8
0
 10
767.7886210981645263
 20
145.1904840269949091
 30
0.0
 11
767.782156367358084
 21
145.2339533635058899
 31
0.0
  0
ARC
  5
CEF8
  8
0
 10
767.8423334789424644
 20
145.9422408084390099
 30
0.0
 40
0.759896694962913
 50
266.5007616815652796
 51
273.5119220322226283
  0
ARC
  5
CEF9
  8
0
 10
767.8422147809136504
 20
144.8003993131198115
 30
0.0
 40
0.3844953614148895
 50
85.978215539957958
 51
94.1292110364135937
  0
ARC
  5
CEFA
  8
0
 10
767.841471454062571
 20
145.5933032726443059
 30
0.0
 40
0.4102922460242625
 50
266.2348530204549206
 51
273.8725735559199848
  0
ARC
  5
CEFB
  8
0
 10
767.8883979605601553
 20
145.1916563076875093
 30
0.0
 40
0.0079
 50
273.511922032946984
 51
351.3900894219925135
  0
ARC
  5
CEFC
  8
0
 10
767.7964351572701389
 20
145.1916461286664912
 30
0.0
 40
0.0079
 50
188.458990093821086
 51
266.5007616809062938
  0
LINE
  5
CEFD
  8
0
 10
770.1554040897163986
 20
119.5862666308899946
 30
0.0
 11
770.1554028303748964
 21
121.6558824974058979
 31
0.0
  0
ARC
  5
CEFE
  8
0
 10
775.3494979233391859
 20
119.6060673542124988
 30
0.0
 40
5.194131575260994
 50
180.2184196932803104
 51
200.2532422187921952
  0
LINE
  5
CEFF
  8
0
 10
770.7454042255286595
 20
119.7069534842117946
 30
0.0
 11
770.745403229180738
 21
121.6558824974058979
 31
0.0
  0
ARC
  5
CF00
  8
0
 10
774.9577581670876043
 20
119.6449763853734964
 30
0.0
 40
4.2128098568231804
 50
179.1570580171218126
 51
202.5380989294156109
  0
LINE
  5
CF01
  8
0
 10
771.0901769263297183
 20
89.1741953784559342
 30
0.0
 11
771.0902066991125139
 21
98.9042094973059562
 31
0.0
  0
LINE
  5
CF02
  8
0
 10
767.3503246087834668
 20
102.4745439147059045
 30
0.0
 11
767.3503246087834668
 21
120.9194258045059058
 31
0.0
  0
LINE
  5
CF03
  8
0
 10
767.3503246087834668
 20
122.808492309978206
 30
0.0
 11
767.3503246087834668
 21
131.7855675368058996
 31
0.0
  0
LINE
  5
CF04
  8
0
 10
768.3345765772836558
 20
102.4745439147059045
 30
0.0
 11
768.3345765772836558
 21
120.9194258045059058
 31
0.0
  0
LINE
  5
CF05
  8
0
 10
768.3345765772836558
 20
122.808492309978206
 30
0.0
 11
768.3345765772836558
 21
127.6263696658752025
 31
0.0
  0
LINE
  5
CF06
  8
0
 10
770.5002065061836447
 20
98.9042094973059562
 30
0.0
 11
770.5002065061836447
 21
89.1741953784559342
 31
0.0
  0
ARC
  5
CF07
  8
0
 10
770.7950935742809406
 20
101.158080273671402
 30
0.0
 40
1.279527559099999
 50
227.7638863646116931
 51
249.7706036999094863
  0
ARC
  5
CF08
  8
0
 10
770.1740437417676048
 20
100.0437057959822056
 30
0.0
 40
0.1603167600722645
 50
22.4807819143223107
 51
77.8765423896521156
  0
ARC
  5
CF09
  8
0
 10
770.1106867259964019
 20
99.7487609285048791
 30
0.0
 40
0.4619897391384584
 50
77.8765423896521156
 51
90.3448438141378745
  0
ARC
  5
CF0A
  8
0
 10
770.3406578417186665
 20
100.112654151005998
 30
0.0
 40
0.02
 50
202.4807819144054974
 51
269.999999999980389
  0
LINE
  5
CF0B
  8
0
 10
770.3980429208302212
 20
98.9792621694557653
 30
0.0
 11
770.3463876007488125
 21
100.0926541510059025
 31
0.0
  0
ARC
  5
CF0C
  8
0
 10
770.4766583582427302
 20
98.9829094973059256
 30
0.0
 40
0.0787
 50
182.6563071463232006
 51
270.0
  0
ARC
  5
CF0D
  8
0
 10
755.0568275451433919
 20
97.155823805014677
 30
0.0
 40
23.4539731798001014
 50
18.3678404557623196
 51
38.5657206230683087
  0
ARC
  5
CF0E
  8
0
 10
755.0568005744082711
 20
97.1558148498557728
 30
0.0
 40
23.4540015983753385
 50
0.0000041788250489
 51
18.3678404557623196
  0
ARC
  5
CF0F
  8
0
 10
755.0568262313870491
 20
97.1558148498576344
 30
0.0
 40
23.4539759413967204
 50
337.1454286410252053
 51
0.0000041788250489
  0
ARC
  5
CF10
  8
0
 10
773.9938238292063488
 20
89.1742018818333833
 30
0.0
 40
2.9036469028838159
 50
180.0001283269253065
 51
337.1454286410252053
  0
ARC
  5
CF11
  8
0
 10
755.0568111547836452
 20
97.1558165604559321
 30
0.0
 40
24.0439910180000602
 50
18.7879210546013802
 51
38.5657094994986736
  0
ARC
  5
CF12
  8
0
 10
755.0568111547836452
 20
97.1558165604559747
 30
0.0
 40
24.0439910179998613
 50
0.0
 51
18.7879210546013802
  0
ARC
  5
CF13
  8
0
 10
755.0568111547835315
 20
97.1558165604559747
 30
0.0
 40
24.0439910180001597
 50
337.1454390950011089
 51
0.0
  0
ARC
  5
CF14
  8
0
 10
773.9951510665157457
 20
89.1747395669439697
 30
0.0
 40
3.4949446026993138
 50
180.0089213728091124
 51
270.0627845927526209
  0
ARC
  5
CF15
  8
0
 10
773.9919760074350279
 20
89.1757362185357749
 30
0.0
 40
3.4959461737347102
 50
270.1148033646130102
 51
337.1340202456333941
  0
ARC
  5
CF16
  8
0
 10
779.8961837160613868
 20
116.9605005265700015
 30
0.0
 40
8.3142316015696007
 50
206.2594877573164069
 51
218.5657160158552017
  0
ARC
  5
CF17
  8
0
 10
779.8961427659879746
 20
116.9604773921814029
 30
0.0
 40
7.7241846543811681
 50
206.2594669068652991
 51
218.5657717023462112
  0
ARC
  5
CF18
  8
0
 10
817.6050244380978711
 20
135.5642715178514095
 30
0.0
 40
50.3625010510416189
 50
200.6445283636057866
 51
206.2595542389408081
  0
ARC
  5
CF19
  8
0
 10
804.3863001403599355
 20
129.5095211879707904
 30
0.0
 40
35.2415954331404535
 50
199.009911159335303
 51
206.9400905745195871
  0
ENDSEC
  0
EOF
