  0
SECTION
  2
HEADER
  9
$ACADVER
  1
AC1009
  9
$INSBASE
 10
3300.556360119619967
 20
156.4238090042819067
 30
0.0
  9
$EXTMIN
 10
3299.2768325612391891
 20
153.1560924682318898
 30
0.0
  9
$EXTMAX
 10
3301.8358876780011997
 20
164.1029428618818997
 30
0.0
  9
$LIMMIN
 10
0.0
 20
0.0
  9
$LIMMAX
 10
11.6929133858000007
 20
8.2677165353999982
  9
$ORTHOMODE
 70
     0
  9
$REGENMODE
 70
     1
  9
$FILLMODE
 70
     1
  9
$QTEXTMODE
 70
     0
  9
$MIRRTEXT
 70
     0
  9
$DRAGMODE
 70
     2
  9
$LTSCALE
 40
0.6431102362
  9
$OSMODE
 70
  4095
  9
$ATTMODE
 70
     1
  9
$TEXTSIZE
 40
0.2
  9
$TRACEWID
 40
0.05
  9
$TEXTSTYLE
  7
STANDARD
  9
$CLAYER
  8
0
  9
$CELTYPE
  6
BYLAYER
  9
$CECOLOR
 62
   256
  9
$DIMSCALE
 40
1.0
  9
$DIMASZ
 40
0.1875
  9
$DIMEXO
 40
0.0625
  9
$DIMDLI
 40
0.4443307087
  9
$DIMRND
 40
0.0
  9
$DIMDLE
 40
0.0
  9
$DIMEXE
 40
0.125
  9
$DIMTP
 40
0.01
  9
$DIMTM
 40
0.01
  9
$DIMTXT
 40
2.0
  9
$DIMCEN
 40
0.1052362205
  9
$DIMTSZ
 40
0.0
  9
$DIMTOL
 70
     1
  9
$DIMLIM
 70
     0
  9
$DIMTIH
 70
     1
  9
$DIMTOH
 70
     1
  9
$DIMSE1
 70
     0
  9
$DIMSE2
 70
     0
  9
$DIMTAD
 70
     0
  9
$DIMZIN
 70
     0
  9
$DIMBLK
  1

  9
$DIMASO
 70
     1
  9
$DIMSHO
 70
     1
  9
$DIMPOST
  1
\X
  9
$DIMAPOST
  1

  9
$DIMALT
 70
     1
  9
$DIMALTD
 70
     2
  9
$DIMALTF
 40
25.3999999999999986
  9
$DIMLFAC
 40
1.0
  9
$DIMTOFL
 70
     0
  9
$DIMTVP
 40
0.0
  9
$DIMTIX
 70
     0
  9
$DIMSOXD
 70
     0
  9
$DIMSAH
 70
     0
  9
$DIMBLK1
  1

  9
$DIMBLK2
  1

  9
$DIMSTYLE
  2
STANDARD
  9
$DIMCLRD
 70
     0
  9
$DIMCLRE
 70
     0
  9
$DIMCLRT
 70
     0
  9
$DIMTFAC
 40
1.0
  9
$DIMGAP
 40
0.09
  9
$LUNITS
 70
     2
  9
$LUPREC
 70
     4
  9
$SKETCHINC
 40
0.1
  9
$FILLETRAD
 40
0.0
  9
$AUNITS
 70
     0
  9
$AUPREC
 70
     0
  9
$MENU
  1
.
  9
$ELEVATION
 40
0.0
  9
$PELEVATION
 40
0.0
  9
$THICKNESS
 40
0.0
  9
$LIMCHECK
 70
     0
  9
$BLIPMODE
 70
     0
  9
$CHAMFERA
 40
0.0
  9
$CHAMFERB
 40
0.0
  9
$SKPOLY
 70
     0
  9
$TDCREATE
 40
2458060.468368056230247
  9
$TDUPDATE
 40
2460578.6993518518283963
  9
$TDINDWG
 40
0.972796412
  9
$TDUSRTIMER
 40
0.972796412
  9
$USRTIMER
 70
     1
  9
$ANGBASE
 50
0.0
  9
$ANGDIR
 70
     0
  9
$PDMODE
 70
     0
  9
$PDSIZE
 40
0.3125
  9
$PLINEWID
 40
0.0
  9
$COORDS
 70
     1
  9
$SPLFRAME
 70
     0
  9
$SPLINETYPE
 70
     6
  9
$SPLINESEGS
 70
     8
  9
$ATTDIA
 70
     1
  9
$ATTREQ
 70
     1
  9
$HANDLING
 70
     1
  9
$HANDSEED
  5
2AE88
  9
$SURFTAB1
 70
     6
  9
$SURFTAB2
 70
     6
  9
$SURFTYPE
 70
     6
  9
$SURFU
 70
     6
  9
$SURFV
 70
     6
  9
$UCSNAME
  2

  9
$UCSORG
 10
0.0
 20
0.0
 30
0.0
  9
$UCSXDIR
 10
1.0
 20
0.0
 30
0.0
  9
$UCSYDIR
 10
0.0
 20
1.0
 30
0.0
  9
$PUCSNAME
  2

  9
$PUCSORG
 10
0.0
 20
0.0
 30
0.0
  9
$PUCSXDIR
 10
1.0
 20
0.0
 30
0.0
  9
$PUCSYDIR
 10
0.0
 20
1.0
 30
0.0
  9
$USERI1
 70
     0
  9
$USERI2
 70
     0
  9
$USERI3
 70
     0
  9
$USERI4
 70
     0
  9
$USERI5
 70
     0
  9
$USERR1
 40
0.0
  9
$USERR2
 40
0.0
  9
$USERR3
 40
0.0
  9
$USERR4
 40
0.0
  9
$USERR5
 40
0.0
  9
$WORLDVIEW
 70
     1
  9
$SHADEDGE
 70
     3
  9
$SHADEDIF
 70
    70
  9
$TILEMODE
 70
     1
  9
$MAXACTVP
 70
    64
  9
$PLIMCHECK
 70
     0
  9
$PEXTMIN
 10
1.0000000000000000E+20
 20
1.0000000000000000E+20
 30
1.0000000000000000E+20
  9
$PEXTMAX
 10
-1.0000000000000000E+20
 20
-1.0000000000000000E+20
 30
-1.0000000000000000E+20
  9
$PLIMMIN
 10
0.0
 20
0.0
  9
$PLIMMAX
 10
12.0
 20
9.0
  9
$UNITMODE
 70
     0
  9
$VISRETAIN
 70
     1
  9
$PLINEGEN
 70
     0
  9
$PSLTSCALE
 70
     1
  0
ENDSEC
  0
SECTION
  2
TABLES
  0
TABLE
  2
VPORT
 70
     1
  0
VPORT
  2
*ACTIVE
 70
     0
 10
0.0
 20
0.0
 11
1.0
 21
1.0
 12
37.167322033682467
 22
6.9078150893733437
 13
0.0
 23
0.0
 14
1.0
 24
1.0
 15
0.0
 25
0.0
 16
0.0
 26
0.0
 36
92.3385285193394054
 17
3263.3890380859379547
 27
151.7217025756835938
 37
0.0
 40
11.0320398908768293
 41
2.4792207792207792
 42
50.0
 43
0.0
 44
0.0
 50
0.0
 51
0.0
 71
     0
 72
   100
 73
     1
 74
     1
 75
     0
 76
     0
 77
     0
 78
     0
  0
ENDTAB
  0
TABLE
  2
LTYPE
 70
     2
  0
LTYPE
  2
CONTINUOUS
 70
     0
  3
Solid line
 72
    65
 73
     0
 40
0.0
  0
LTYPE
  2
PHANTOM2
 70
     0
  3
___ _ _ ___ _ _ ___ _ _ ___ _ _
 72
    65
 73
     6
 40
1.25
 49
0.625
 49
-0.125
 49
0.125
 49
-0.125
 49
0.125
 49
-0.125
  0
ENDTAB
  0
TABLE
  2
LAYER
 70
     2
  0
LAYER
  2
0
 70
     0
 62
   255
  6
CONTINUOUS
  0
LAYER
  2
DEFPOINTS
 70
     0
 62
     7
  6
CONTINUOUS
  0
ENDTAB
  0
TABLE
  2
STYLE
 70
     1
  0
STYLE
  2
STANDARD
 70
     0
 40
0.0
 41
0.8
 50
0.0
 71
     0
 42
0.2
  3
txt
  4

  0
ENDTAB
  0
TABLE
  2
VIEW
 70
     2
  0
ENDTAB
  0
TABLE
  2
UCS
 70
     0
  0
ENDTAB
  0
TABLE
  2
APPID
 70
    10
  0
APPID
  2
ACAD
 70
     0
  0
APPID
  2
ACAD_MLEADERVER
 70
     0
  0
APPID
  2
ACAD_EXEMPT_FROM_CAD_STANDARDS
 70
     0
  0
APPID
  2
ACAD_NAV_VCDISPLAY
 70
     0
  0
APPID
  2
ACAECLAYERSTANDARD
 70
     0
  0
APPID
  2
ACCMTRANSPARENCY
 70
     0
  0
APPID
  2
ACAD_DSTYLE_DIMJAG
 70
     0
  0
APPID
  2
ACAD_DSTYLE_DIMTALN
 70
     0
  0
APPID
  2
ACDBATTR
 70
     0
  0
APPID
  2
ACADANNOTATIVE
 70
     0
  0
ENDTAB
  0
TABLE
  2
DIMSTYLE
 70
     1
  0
DIMSTYLE
  2
STANDARD
 70
     0
  3

  4

  5

  6

  7

 40
1.0
 41
0.1875
 42
0.0625
 43
0.38
 44
0.125
 45
0.0
 46
0.0
 47
0.01
 48
0.01
140
0.15625
141
0.09
142
0.0
143
25.3999999999999986
144
1.0
145
0.0
146
1.0
147
0.09
 71
     1
 72
     0
 73
     1
 74
     1
 75
     0
 76
     0
 77
     0
 78
     4
170
     0
171
     2
172
     0
173
     0
174
     0
175
     0
176
     0
177
     0
178
     0
  0
ENDTAB
  0
ENDSEC
  0
SECTION
  2
BLOCKS
  0
BLOCK
  8
0
  2
$MODEL_SPACE
 70
     0
 10
0.0
 20
0.0
 30
0.0
  3
$MODEL_SPACE
  1

  0
ENDBLK
  5
21
  8
0
  0
BLOCK
 67
     1
  8
0
  2
$PAPER_SPACE
 70
     0
 10
0.0
 20
0.0
 30
0.0
  3
$PAPER_SPACE
  1

  0
ENDBLK
  5
1D
 67
     1
  8
0
  0
BLOCK
  8
0
  2
_FILLED
 70
     0
 10
0.0
 20
0.0
 30
0.0
  3
_FILLED
  1

  0
SOLID
  5
2AAC1
  8
0
  6
BYBLOCK
 62
     0
 10
0.0
 20
0.0
 30
0.0
 11
-1.0
 21
0.1666666667
 31
0.0
 12
-1.0
 22
-0.1666666667
 32
0.0
 13
-1.0
 23
-0.1666666667
 33
0.0
  0
ENDBLK
  5
2AAC2
  8
0
  6
BYBLOCK
 62
     0
  0
ENDSEC
  0
SECTION
  2
ENTITIES
  0
ATTDEF
  5
2143C
  8
DEFPOINTS
 10
3300.555382713329891
 20
156.4278000068628955
 30
0.0
 40
0.001
  1
K-7314IN
  3

  2
MODELNUMBER
 70
     0
1001
ACDBATTR
1070
     0
1070
     1
  0
ATTDEF
  5
2143D
  8
DEFPOINTS
 10
3300.555382713329891
 20
156.426133340196202
 30
0.0
 40
0.001
  1
COMPLEMENTARY
  3

  2
TRADENAME
 70
     0
1001
ACDBATTR
1070
     0
1070
     1
  0
ATTDEF
  5
2143E
  8
DEFPOINTS
 10
3300.555382713329891
 20
156.4244666735295937
 30
0.0
 40
0.001
  1
BOTTLE TRAP
  3

  2
PRODUCT
 70
     0
1001
ACDBATTR
1070
     0
1070
     1
  0
LINE
  5
2AC6A
  8
0
 10
3299.9313601202197788
 20
163.689557035181906
 30
0.0
 11
3299.9313601202197788
 21
157.6915255390819084
 31
0.0
  0
LINE
  5
2AC6B
  8
0
 10
3299.4205333480431364
 20
155.4789271143818894
 30
0.0
 11
3301.692186891270012
 21
155.4789271138818947
 31
0.0
  0
LINE
  5
2AC6C
  8
0
 10
3299.674470355871108
 20
157.230895617781897
 30
0.0
 11
3299.4205333480431364
 21
155.4789271143818894
 31
0.0
  0
LINE
  5
2AC6D
  8
0
 10
3299.7984861045201797
 20
157.6915255390819084
 30
0.0
 11
3301.3142341347202091
 21
157.6915255390819084
 31
0.0
  0
ARC
  5
2AC6E
  8
0
 10
3299.9510582795378468
 20
157.4959715712828086
 30
0.0
 40
0.2480314958060961
 50
127.9615312967830931
 51
171.169997176855702
  0
LINE
  5
2AC6F
  8
0
 10
3301.4184915992600509
 20
157.5340452241819094
 30
0.0
 11
3299.6942286399789737
 21
157.5340452241819094
 31
0.0
  0
LINE
  5
2AC70
  8
0
 10
3301.4184915992600509
 20
157.4159349878819114
 30
0.0
 11
3299.6942286399789737
 21
157.4159349878819114
 31
0.0
  0
LINE
  5
2AC71
  8
0
 10
3299.705966419519882
 20
157.2781397122818987
 30
0.0
 11
3301.406753819720052
 21
157.2781397122818987
 31
0.0
  0
LINE
  5
2AC72
  8
0
 10
3299.705966419519882
 20
157.4159349878819114
 30
0.0
 11
3299.705966419519882
 21
157.2781397122818987
 31
0.0
  0
LINE
  5
2AC73
  8
0
 10
3299.674470355871108
 20
157.230895617781897
 30
0.0
 11
3301.4382498833701902
 21
157.230895617781897
 31
0.0
  0
LINE
  5
2AC74
  8
0
 10
3301.4184915992600509
 20
157.5340452241819094
 30
0.0
 11
3301.4184915992600509
 21
157.4159349878819114
 31
0.0
  0
LINE
  5
2AC75
  8
0
 10
3301.4182059731629124
 20
157.5340452241819094
 30
0.0
 11
3301.4182059731629124
 21
157.4159349878819114
 31
0.0
  0
LINE
  5
2AC76
  8
0
 10
3301.4172647537980083
 20
157.5340452241819094
 30
0.0
 11
3301.4172647537980083
 21
157.4159349878819114
 31
0.0
  0
LINE
  5
2AC77
  8
0
 10
3301.416408376624986
 20
157.5340452241819094
 30
0.0
 11
3301.416408376624986
 21
157.4159349878819114
 31
0.0
  0
LINE
  5
2AC78
  8
0
 10
3301.4145275890709854
 20
157.5340452241819094
 30
0.0
 11
3301.4145275890709854
 21
157.4159349878819114
 31
0.0
  0
LINE
  5
2AC79
  8
0
 10
3301.4131019631968229
 20
157.5340452241819094
 30
0.0
 11
3301.4131019631968229
 21
157.4159349878819114
 31
0.0
  0
LINE
  5
2AC7A
  8
0
 10
3301.410284906995912
 20
157.5340452241819094
 30
0.0
 11
3301.410284906995912
 21
157.4159349878819114
 31
0.0
  0
LINE
  5
2AC7B
  8
0
 10
3301.4082925334528227
 20
157.5340452241819094
 30
0.0
 11
3301.4082925334528227
 21
157.4159349878819114
 31
0.0
  0
LINE
  5
2AC7C
  8
0
 10
3301.4045441506768839
 20
157.5340452241819094
 30
0.0
 11
3301.4045441506768839
 21
157.4159349878819114
 31
0.0
  0
LINE
  5
2AC7D
  8
0
 10
3301.4019885247657839
 20
157.5340452241819094
 30
0.0
 11
3301.4019885247657839
 21
157.4159349878819114
 31
0.0
  0
LINE
  5
2AC7E
  8
0
 10
3301.3973153913539136
 20
157.5340452241819094
 30
0.0
 11
3301.3973153913539136
 21
157.4159349878819114
 31
0.0
  0
LINE
  5
2AC7F
  8
0
 10
3301.3942009965098805
 20
157.5340452241819094
 30
0.0
 11
3301.3942009965098805
 21
157.4159349878819114
 31
0.0
  0
LINE
  5
2AC80
  8
0
 10
3301.3886113107241727
 20
157.5340452241819094
 30
0.0
 11
3301.3886113107241727
 21
157.4159349878819114
 31
0.0
  0
LINE
  5
2AC81
  8
0
 10
3301.384943610656137
 20
157.5340452241819094
 30
0.0
 11
3301.384943610656137
 21
157.4159349878819114
 31
0.0
  0
LINE
  5
2AC82
  8
0
 10
3301.378447178704846
 20
157.5340452241819094
 30
0.0
 11
3301.378447178704846
 21
157.4159349878819114
 31
0.0
  0
LINE
  5
2AC83
  8
0
 10
3301.3742326078040605
 20
157.5340452241819094
 30
0.0
 11
3301.3742326078040605
 21
157.4159349878819114
 31
0.0
  0
LINE
  5
2AC84
  8
0
 10
3301.3668408266371443
 20
157.5340452241819094
 30
0.0
 11
3301.3668408266371443
 21
157.4159349878819114
 31
0.0
  0
LINE
  5
2AC85
  8
0
 10
3301.3620867786939925
 20
157.5340452241819094
 30
0.0
 11
3301.3620867786939925
 21
157.4159349878819114
 31
0.0
  0
LINE
  5
2AC86
  8
0
 10
3301.3538126159987769
 20
157.5340452241819094
 30
0.0
 11
3301.3538126159987769
 21
157.4159349878819114
 31
0.0
  0
LINE
  5
2AC87
  8
0
 10
3301.3485274312338333
 20
157.5340452241819094
 30
0.0
 11
3301.3485274312338333
 21
157.4159349878819114
 31
0.0
  0
LINE
  5
2AC88
  8
0
 10
3301.3393854027199268
 20
157.5340452241819094
 30
0.0
 11
3301.3393854027199268
 21
157.4159349878819114
 31
0.0
  0
LINE
  5
2AC89
  8
0
 10
3301.3335783531301786
 20
157.5340452241819094
 30
0.0
 11
3301.3335783531301786
 21
157.4159349878819114
 31
0.0
  0
LINE
  5
2AC8A
  8
0
 10
3301.3235844970140533
 20
157.5340452241819094
 30
0.0
 11
3301.3235844970140533
 21
157.4159349878819114
 31
0.0
  0
LINE
  5
2AC8B
  8
0
 10
3301.3172657701447861
 20
157.5340452241819094
 30
0.0
 11
3301.3172657701447861
 21
157.4159349878819114
 31
0.0
  0
LINE
  5
2AC8C
  8
0
 10
3301.3064376190450275
 20
157.5340452241819094
 30
0.0
 11
3301.3064376190450275
 21
157.4159349878819114
 31
0.0
  0
LINE
  5
2AC8D
  8
0
 10
3301.2996183000900601
 20
157.5340452241819094
 30
0.0
 11
3301.2996183000900601
 21
157.4159349878819114
 31
0.0
  0
LINE
  5
2AC8E
  8
0
 10
3301.2879748502641633
 20
157.5340452241819094
 30
0.0
 11
3301.2879748502641633
 21
157.4159349878819114
 31
0.0
  0
LINE
  5
2AC8F
  8
0
 10
3301.2806669026258533
 20
157.5340452241819094
 30
0.0
 11
3301.2806669026258533
 21
157.4159349878819114
 31
0.0
  0
LINE
  5
2AC90
  8
0
 10
3301.268228580639061
 20
157.5340452241819094
 30
0.0
 11
3301.268228580639061
 21
157.4159349878819114
 31
0.0
  0
LINE
  5
2AC91
  8
0
 10
3301.2604448249439884
 20
157.5340452241819094
 30
0.0
 11
3301.2604448249439884
 21
157.4159349878819114
 31
0.0
  0
LINE
  5
2AC92
  8
0
 10
3301.2472334518411117
 20
157.5340452241819094
 30
0.0
 11
3301.2472334518411117
 21
157.4159349878819114
 31
0.0
  0
LINE
  5
2AC93
  8
0
 10
3301.2389875434778332
 20
157.5340452241819094
 30
0.0
 11
3301.2389875434778332
 21
157.4159349878819114
 31
0.0
  0
LINE
  5
2AC94
  8
0
 10
3301.2250262964607828
 20
157.5340452241819094
 30
0.0
 11
3301.2250262964607828
 21
157.4159349878819114
 31
0.0
  0
LINE
  5
2AC95
  8
0
 10
3301.2163327014750394
 20
157.5340452241819094
 30
0.0
 11
3301.2163327014750394
 21
157.4159349878819114
 31
0.0
  0
LINE
  5
2AC96
  8
0
 10
3301.2016460733898384
 20
157.5340452241819094
 30
0.0
 11
3301.2016460733898384
 21
157.4159349878819114
 31
0.0
  0
LINE
  5
2AC97
  8
0
 10
3301.1925200433797727
 20
157.5340452241819094
 30
0.0
 11
3301.1925200433797727
 21
157.4159349878819114
 31
0.0
  0
LINE
  5
2AC98
  8
0
 10
3301.1777054264898652
 20
157.5340452241819094
 30
0.0
 11
3301.1777054264898652
 21
157.4159349878819114
 31
0.0
  0
LINE
  5
2AC99
  8
0
 10
3301.177133799485091
 20
157.5340452241819094
 30
0.0
 11
3301.177133799485091
 21
157.4159349878819114
 31
0.0
  0
LINE
  5
2AC9A
  8
0
 10
3301.1675913445719743
 20
157.5340452241819094
 30
0.0
 11
3301.1675913445719743
 21
157.4159349878819114
 31
0.0
  0
LINE
  5
2AC9B
  8
0
 10
3301.1527267075489362
 20
157.5340452241819094
 30
0.0
 11
3301.1527267075489362
 21
157.4159349878819114
 31
0.0
  0
LINE
  5
2AC9C
  8
0
 10
3301.151532477605997
 20
157.5340452241819094
 30
0.0
 11
3301.151532477605997
 21
157.4159349878819114
 31
0.0
  0
LINE
  5
2AC9D
  8
0
 10
3301.141590338496826
 20
157.5340452241819094
 30
0.0
 11
3301.141590338496826
 21
157.4159349878819114
 31
0.0
  0
LINE
  5
2AC9E
  8
0
 10
3301.1267017589661918
 20
157.5340452241819094
 30
0.0
 11
3301.1267017589661918
 21
157.4159349878819114
 31
0.0
  0
LINE
  5
2AC9F
  8
0
 10
3301.1248870211711619
 20
157.5340452241819094
 30
0.0
 11
3301.1248870211711619
 21
157.4159349878819114
 31
0.0
  0
LINE
  5
2ACA0
  8
0
 10
3301.1145626397569686
 20
157.5340452241819094
 30
0.0
 11
3301.1145626397569686
 21
157.4159349878819114
 31
0.0
  0
LINE
  5
2ACA1
  8
0
 10
3301.0996762373802085
 20
157.5340452241819094
 30
0.0
 11
3301.0996762373802085
 21
157.4159349878819114
 31
0.0
  0
LINE
  5
2ACA2
  8
0
 10
3301.0972441753629028
 20
157.5340452241819094
 30
0.0
 11
3301.0972441753629028
 21
157.4159349878819114
 31
0.0
  0
LINE
  5
2ACA3
  8
0
 10
3301.086555664116986
 20
157.5340452241819094
 30
0.0
 11
3301.086555664116986
 21
157.4159349878819114
 31
0.0
  0
LINE
  5
2ACA4
  8
0
 10
3301.0716975546702088
 20
157.5340452241819094
 30
0.0
 11
3301.0716975546702088
 21
157.4159349878819114
 31
0.0
  0
LINE
  5
2ACA5
  8
0
 10
3301.068652435128115
 20
157.5340452241819094
 30
0.0
 11
3301.068652435128115
 21
157.4159349878819114
 31
0.0
  0
LINE
  5
2ACA6
  8
0
 10
3301.0576185453310245
 20
157.5340452241819094
 30
0.0
 11
3301.0576185453310245
 21
157.4159349878819114
 31
0.0
  0
LINE
  5
2ACA7
  8
0
 10
3301.0428147949869526
 20
157.5340452241819094
 30
0.0
 11
3301.0428147949869526
 21
157.4159349878819114
 31
0.0
  0
LINE
  5
2ACA8
  8
0
 10
3301.0391619600932245
 20
157.5340452241819094
 30
0.0
 11
3301.0391619600932245
 21
157.4159349878819114
 31
0.0
  0
LINE
  5
2ACA9
  8
0
 10
3301.0278020489367918
 20
157.5340452241819094
 30
0.0
 11
3301.0278020489367918
 21
157.4159349878819114
 31
0.0
  0
LINE
  5
2ACAA
  8
0
 10
3301.0130786285039903
 20
157.5340452241819094
 30
0.0
 11
3301.0130786285039903
 21
157.4159349878819114
 31
0.0
  0
LINE
  5
2ACAB
  8
0
 10
3301.0088244865742126
 20
157.5340452241819094
 30
0.0
 11
3301.0088244865742126
 21
157.4159349878819114
 31
0.0
  0
LINE
  5
2ACAC
  8
0
 10
3300.9971584832019289
 20
157.5340452241819094
 30
0.0
 11
3300.9971584832019289
 21
157.4159349878819114
 31
0.0
  0
LINE
  5
2ACAD
  8
0
 10
3300.9825412225632135
 20
157.5340452241819094
 30
0.0
 11
3300.9825412225632135
 21
157.4159349878819114
 31
0.0
  0
LINE
  5
2ACAE
  8
0
 10
3300.9776932368131384
 20
157.5340452241819094
 30
0.0
 11
3300.9776932368131384
 21
157.4159349878819114
 31
0.0
  0
LINE
  5
2ACAF
  8
0
 10
3300.9657416073528111
 20
157.5340452241819094
 30
0.0
 11
3300.9657416073528111
 21
157.4159349878819114
 31
0.0
  0
LINE
  5
2ACB0
  8
0
 10
3300.951256150151039
 20
157.5340452241819094
 30
0.0
 11
3300.951256150151039
 21
157.4159349878819114
 31
0.0
  0
LINE
  5
2ACB1
  8
0
 10
3300.9458228255812173
 20
157.5340452241819094
 30
0.0
 11
3300.9458228255812173
 21
157.4159349878819114
 31
0.0
  0
LINE
  5
2ACB2
  8
0
 10
3300.9336065372658595
 20
157.5340452241819094
 30
0.0
 11
3300.9336065372658595
 21
157.4159349878819114
 31
0.0
  0
LINE
  5
2ACB3
  8
0
 10
3300.9192782958639327
 20
157.5340452241819094
 30
0.0
 11
3300.9192782958639327
 21
157.4159349878819114
 31
0.0
  0
LINE
  5
2ACB4
  8
0
 10
3300.9132691644281294
 20
157.5340452241819094
 30
0.0
 11
3300.9132691644281294
 21
157.4159349878819114
 31
0.0
  0
LINE
  5
2ACB5
  8
0
 10
3300.9008096487727926
 20
157.5340452241819094
 30
0.0
 11
3300.9008096487727926
 21
157.4159349878819114
 31
0.0
  0
LINE
  5
2ACB6
  8
0
 10
3300.8866637598748639
 20
157.5340452241819094
 30
0.0
 11
3300.8866637598748639
 21
157.4159349878819114
 31
0.0
  0
LINE
  5
2ACB7
  8
0
 10
3300.8800893635329885
 20
157.5340452241819094
 30
0.0
 11
3300.8800893635329885
 21
157.4159349878819114
 31
0.0
  0
LINE
  5
2ACB8
  8
0
 10
3300.8674084787608081
 20
157.5340452241819094
 30
0.0
 11
3300.8674084787608081
 21
157.4159349878819114
 31
0.0
  0
LINE
  5
2ACB9
  8
0
 10
3300.8534697590139331
 20
157.5340452241819094
 30
0.0
 11
3300.8534697590139331
 21
157.4159349878819114
 31
0.0
  0
LINE
  5
2ACBA
  8
0
 10
3300.8463416315398717
 20
157.5340452241819094
 30
0.0
 11
3300.8463416315398717
 21
157.4159349878819114
 31
0.0
  0
LINE
  5
2ACBB
  8
0
 10
3300.8334616242318589
 20
157.5340452241819094
 30
0.0
 11
3300.8334616242318589
 21
157.4159349878819114
 31
0.0
  0
LINE
  5
2ACBC
  8
0
 10
3300.8197545268858448
 20
157.5340452241819094
 30
0.0
 11
3300.8197545268858448
 21
157.4159349878819114
 31
0.0
  0
LINE
  5
2ACBD
  8
0
 10
3300.8120851734388452
 20
157.5340452241819094
 30
0.0
 11
3300.8120851734388452
 21
157.4159349878819114
 31
0.0
  0
LINE
  5
2ACBE
  8
0
 10
3300.7990286395051953
 20
157.5340452241819094
 30
0.0
 11
3300.7990286395051953
 21
157.4159349878819114
 31
0.0
  0
LINE
  5
2ACBF
  8
0
 10
3300.7855772114671709
 20
157.5340452241819094
 30
0.0
 11
3300.7855772114671709
 21
157.4159349878819114
 31
0.0
  0
LINE
  5
2ACC0
  8
0
 10
3300.7773800867098544
 20
157.5340452241819094
 30
0.0
 11
3300.7773800867098544
 21
157.4159349878819114
 31
0.0
  0
LINE
  5
2ACC1
  8
0
 10
3300.764169931734159
 20
157.5340452241819094
 30
0.0
 11
3300.764169931734159
 21
157.4159349878819114
 31
0.0
  0
LINE
  5
2ACC2
  8
0
 10
3300.750997771378934
 20
157.5340452241819094
 30
0.0
 11
3300.750997771378934
 21
157.4159349878819114
 31
0.0
  0
LINE
  5
2ACC3
  8
0
 10
3300.7422872558299787
 20
157.5340452241819094
 30
0.0
 11
3300.7422872558299787
 21
157.4159349878819114
 31
0.0
  0
LINE
  5
2ACC4
  8
0
 10
3300.7289466549050303
 20
157.5340452241819094
 30
0.0
 11
3300.7289466549050303
 21
157.4159349878819114
 31
0.0
  0
LINE
  5
2ACC5
  8
0
 10
3300.7068682456019815
 20
157.5340452241819094
 30
0.0
 11
3300.7068682456019815
 21
157.4159349878819114
 31
0.0
  0
LINE
  5
2ACC6
  8
0
 10
3300.7160768706507952
 20
157.5340452241819094
 30
0.0
 11
3300.7160768706507952
 21
157.4159349878819114
 31
0.0
  0
LINE
  5
2ACC7
  8
0
 10
3300.693420602714923
 20
157.5340452241819094
 30
0.0
 11
3300.693420602714923
 21
157.4159349878819114
 31
0.0
  0
LINE
  5
2ACC8
  8
0
 10
3300.6808757725921168
 20
157.5340452241819094
 30
0.0
 11
3300.6808757725921168
 21
157.4159349878819114
 31
0.0
  0
LINE
  5
2ACC9
  8
0
 10
3300.6711851929649129
 20
157.5340452241819094
 30
0.0
 11
3300.6711851929649129
 21
157.4159349878819114
 31
0.0
  0
LINE
  5
2ACCA
  8
0
 10
3300.6576540998298697
 20
157.5340452241819094
 30
0.0
 11
3300.6576540998298697
 21
157.4159349878819114
 31
0.0
  0
LINE
  5
2ACCB
  8
0
 10
3300.645456231704884
 20
157.5340452241819094
 30
0.0
 11
3300.645456231704884
 21
157.4159349878819114
 31
0.0
  0
LINE
  5
2ACCC
  8
0
 10
3300.635300698114861
 20
157.5340452241819094
 30
0.0
 11
3300.635300698114861
 21
157.4159349878819114
 31
0.0
  0
LINE
  5
2ACCD
  8
0
 10
3300.6217098928841551
 20
157.5340452241819094
 30
0.0
 11
3300.6217098928841551
 21
157.4159349878819114
 31
0.0
  0
LINE
  5
2ACCE
  8
0
 10
3300.6098803858972133
 20
157.5340452241819094
 30
0.0
 11
3300.6098803858972133
 21
157.4159349878819114
 31
0.0
  0
LINE
  5
2ACCF
  8
0
 10
3300.5992777146980188
 20
157.5340452241819094
 30
0.0
 11
3300.5992777146980188
 21
157.4159349878819114
 31
0.0
  0
LINE
  5
2ACD0
  8
0
 10
3300.5856510402300046
 20
157.5340452241819094
 30
0.0
 11
3300.5856510402300046
 21
157.4159349878819114
 31
0.0
  0
LINE
  5
2ACD1
  8
0
 10
3300.5742106474867796
 20
157.5340452241819094
 30
0.0
 11
3300.5742106474867796
 21
157.4159349878819114
 31
0.0
  0
LINE
  5
2ACD2
  8
0
 10
3300.563179439220221
 20
157.5340452241819094
 30
0.0
 11
3300.563179439220221
 21
157.4159349878819114
 31
0.0
  0
LINE
  5
2ACD3
  8
0
 10
3299.6942286399789737
 20
157.5340452241819094
 30
0.0
 11
3299.6942286399789737
 21
157.4159349878819114
 31
0.0
  0
LINE
  5
2ACD4
  8
0
 10
3299.6945142660761121
 20
157.5340452241819094
 30
0.0
 11
3299.6945142660761121
 21
157.4159349878819114
 31
0.0
  0
LINE
  5
2ACD5
  8
0
 10
3299.6954554854410162
 20
157.5340452241819094
 30
0.0
 11
3299.6954554854410162
 21
157.4159349878819114
 31
0.0
  0
LINE
  5
2ACD6
  8
0
 10
3299.6963118626158575
 20
157.5340452241819094
 30
0.0
 11
3299.6963118626158575
 21
157.4159349878819114
 31
0.0
  0
LINE
  5
2ACD7
  8
0
 10
3299.6981926501680391
 20
157.5340452241819094
 30
0.0
 11
3299.6981926501680391
 21
157.4159349878819114
 31
0.0
  0
LINE
  5
2ACD8
  8
0
 10
3299.6996182760440206
 20
157.5340452241819094
 30
0.0
 11
3299.6996182760440206
 21
157.4159349878819114
 31
0.0
  0
LINE
  5
2ACD9
  8
0
 10
3299.7024353322449315
 20
157.5340452241819094
 30
0.0
 11
3299.7024353322449315
 21
157.4159349878819114
 31
0.0
  0
LINE
  5
2ACDA
  8
0
 10
3299.7044277057871113
 20
157.5340452241819094
 30
0.0
 11
3299.7044277057871113
 21
157.4159349878819114
 31
0.0
  0
LINE
  5
2ACDB
  8
0
 10
3299.7081760885630501
 20
157.5340452241819094
 30
0.0
 11
3299.7081760885630501
 21
157.4159349878819114
 31
0.0
  0
LINE
  5
2ACDC
  8
0
 10
3299.7107317144741501
 20
157.5340452241819094
 30
0.0
 11
3299.7107317144741501
 21
157.4159349878819114
 31
0.0
  0
LINE
  5
2ACDD
  8
0
 10
3299.7154048478860204
 20
157.5340452241819094
 30
0.0
 11
3299.7154048478860204
 21
157.4159349878819114
 31
0.0
  0
LINE
  5
2ACDE
  8
0
 10
3299.7185192427300535
 20
157.5340452241819094
 30
0.0
 11
3299.7185192427300535
 21
157.4159349878819114
 31
0.0
  0
LINE
  5
2ACDF
  8
0
 10
3299.7241089285162161
 20
157.5340452241819094
 30
0.0
 11
3299.7241089285162161
 21
157.4159349878819114
 31
0.0
  0
LINE
  5
2ACE0
  8
0
 10
3299.727776628583797
 20
157.5340452241819094
 30
0.0
 11
3299.727776628583797
 21
157.4159349878819114
 31
0.0
  0
LINE
  5
2ACE1
  8
0
 10
3299.734273060535088
 20
157.5340452241819094
 30
0.0
 11
3299.734273060535088
 21
157.4159349878819114
 31
0.0
  0
LINE
  5
2ACE2
  8
0
 10
3299.7384876314358735
 20
157.5340452241819094
 30
0.0
 11
3299.7384876314358735
 21
157.4159349878819114
 31
0.0
  0
LINE
  5
2ACE3
  8
0
 10
3299.7458794126027897
 20
157.5340452241819094
 30
0.0
 11
3299.7458794126027897
 21
157.4159349878819114
 31
0.0
  0
LINE
  5
2ACE4
  8
0
 10
3299.750633460546851
 20
157.5340452241819094
 30
0.0
 11
3299.750633460546851
 21
157.4159349878819114
 31
0.0
  0
LINE
  5
2ACE5
  8
0
 10
3299.7589076232420666
 20
157.5340452241819094
 30
0.0
 11
3299.7589076232420666
 21
157.4159349878819114
 31
0.0
  0
LINE
  5
2ACE6
  8
0
 10
3299.7641928080061007
 20
157.5340452241819094
 30
0.0
 11
3299.7641928080061007
 21
157.4159349878819114
 31
0.0
  0
LINE
  5
2ACE7
  8
0
 10
3299.7733348365190977
 20
157.5340452241819094
 30
0.0
 11
3299.7733348365190977
 21
157.4159349878819114
 31
0.0
  0
LINE
  5
2ACE8
  8
0
 10
3299.7791418861088459
 20
157.5340452241819094
 30
0.0
 11
3299.7791418861088459
 21
157.4159349878819114
 31
0.0
  0
LINE
  5
2ACE9
  8
0
 10
3299.7891357422258807
 20
157.5340452241819094
 30
0.0
 11
3299.7891357422258807
 21
157.4159349878819114
 31
0.0
  0
LINE
  5
2ACEA
  8
0
 10
3299.7954544690960574
 20
157.5340452241819094
 30
0.0
 11
3299.7954544690960574
 21
157.4159349878819114
 31
0.0
  0
LINE
  5
2ACEB
  8
0
 10
3299.8062826201949065
 20
157.5340452241819094
 30
0.0
 11
3299.8062826201949065
 21
157.4159349878819114
 31
0.0
  0
LINE
  5
2ACEC
  8
0
 10
3299.8131019391489644
 20
157.5340452241819094
 30
0.0
 11
3299.8131019391489644
 21
157.4159349878819114
 31
0.0
  0
LINE
  5
2ACED
  8
0
 10
3299.8247453889748613
 20
157.5340452241819094
 30
0.0
 11
3299.8247453889748613
 21
157.4159349878819114
 31
0.0
  0
LINE
  5
2ACEE
  8
0
 10
3299.8320533366140808
 20
157.5340452241819094
 30
0.0
 11
3299.8320533366140808
 21
157.4159349878819114
 31
0.0
  0
LINE
  5
2ACEF
  8
0
 10
3299.8444916586017825
 20
157.5340452241819094
 30
0.0
 11
3299.8444916586017825
 21
157.4159349878819114
 31
0.0
  0
LINE
  5
2ACF0
  8
0
 10
3299.8522754142950362
 20
157.5340452241819094
 30
0.0
 11
3299.8522754142950362
 21
157.4159349878819114
 31
0.0
  0
LINE
  5
2ACF1
  8
0
 10
3299.8654867873979128
 20
157.5340452241819094
 30
0.0
 11
3299.8654867873979128
 21
157.4159349878819114
 31
0.0
  0
LINE
  5
2ACF2
  8
0
 10
3299.8737326957630103
 20
157.5340452241819094
 30
0.0
 11
3299.8737326957630103
 21
157.4159349878819114
 31
0.0
  0
LINE
  5
2ACF3
  8
0
 10
3299.8876939427800608
 20
157.5340452241819094
 30
0.0
 11
3299.8876939427800608
 21
157.4159349878819114
 31
0.0
  0
LINE
  5
2ACF4
  8
0
 10
3299.8963875377648947
 20
157.5340452241819094
 30
0.0
 11
3299.8963875377648947
 21
157.4159349878819114
 31
0.0
  0
LINE
  5
2ACF5
  8
0
 10
3299.9110741658510051
 20
157.5340452241819094
 30
0.0
 11
3299.9110741658510051
 21
157.4159349878819114
 31
0.0
  0
LINE
  5
2ACF6
  8
0
 10
3299.9202001958601613
 20
157.5340452241819094
 30
0.0
 11
3299.9202001958601613
 21
157.4159349878819114
 31
0.0
  0
LINE
  5
2ACF7
  8
0
 10
3299.9350148127509783
 20
157.5340452241819094
 30
0.0
 11
3299.9350148127509783
 21
157.4159349878819114
 31
0.0
  0
LINE
  5
2ACF8
  8
0
 10
3299.935586439754843
 20
157.5340452241819094
 30
0.0
 11
3299.935586439754843
 21
157.4159349878819114
 31
0.0
  0
LINE
  5
2ACF9
  8
0
 10
3299.9451288946679597
 20
157.5340452241819094
 30
0.0
 11
3299.9451288946679597
 21
157.4159349878819114
 31
0.0
  0
LINE
  5
2ACFA
  8
0
 10
3299.9599935316909978
 20
157.5340452241819094
 30
0.0
 11
3299.9599935316909978
 21
157.4159349878819114
 31
0.0
  0
LINE
  5
2ACFB
  8
0
 10
3299.9611877616330275
 20
157.5340452241819094
 30
0.0
 11
3299.9611877616330275
 21
157.4159349878819114
 31
0.0
  0
LINE
  5
2ACFC
  8
0
 10
3299.9711299007421985
 20
157.5340452241819094
 30
0.0
 11
3299.9711299007421985
 21
157.4159349878819114
 31
0.0
  0
LINE
  5
2ACFD
  8
0
 10
3299.9860184802741969
 20
157.5340452241819094
 30
0.0
 11
3299.9860184802741969
 21
157.4159349878819114
 31
0.0
  0
LINE
  5
2ACFE
  8
0
 10
3299.9878332180678626
 20
157.5340452241819094
 30
0.0
 11
3299.9878332180678626
 21
157.4159349878819114
 31
0.0
  0
LINE
  5
2ACFF
  8
0
 10
3299.9981575994838749
 20
157.5340452241819094
 30
0.0
 11
3299.9981575994838749
 21
157.4159349878819114
 31
0.0
  0
LINE
  5
2AD00
  8
0
 10
3300.0130440018610898
 20
157.5340452241819094
 30
0.0
 11
3300.0130440018610898
 21
157.4159349878819114
 31
0.0
  0
LINE
  5
2AD01
  8
0
 10
3300.0154760638761218
 20
157.5340452241819094
 30
0.0
 11
3300.0154760638761218
 21
157.4159349878819114
 31
0.0
  0
LINE
  5
2AD02
  8
0
 10
3300.026164575122948
 20
157.5340452241819094
 30
0.0
 11
3300.026164575122948
 21
157.4159349878819114
 31
0.0
  0
LINE
  5
2AD03
  8
0
 10
3300.04102268457018
 20
157.5340452241819094
 30
0.0
 11
3300.04102268457018
 21
157.4159349878819114
 31
0.0
  0
LINE
  5
2AD04
  8
0
 10
3300.044067804111819
 20
157.5340452241819094
 30
0.0
 11
3300.044067804111819
 21
157.4159349878819114
 31
0.0
  0
LINE
  5
2AD05
  8
0
 10
3300.0551016939089095
 20
157.5340452241819094
 30
0.0
 11
3300.0551016939089095
 21
157.4159349878819114
 31
0.0
  0
LINE
  5
2AD06
  8
0
 10
3300.0699054442529814
 20
157.5340452241819094
 30
0.0
 11
3300.0699054442529814
 21
157.4159349878819114
 31
0.0
  0
LINE
  5
2AD07
  8
0
 10
3300.0735582791471643
 20
157.5340452241819094
 30
0.0
 11
3300.0735582791471643
 21
157.4159349878819114
 31
0.0
  0
LINE
  5
2AD08
  8
0
 10
3300.0849181903040517
 20
157.5340452241819094
 30
0.0
 11
3300.0849181903040517
 21
157.4159349878819114
 31
0.0
  0
LINE
  5
2AD09
  8
0
 10
3300.0996416107350342
 20
157.5340452241819094
 30
0.0
 11
3300.0996416107350342
 21
157.4159349878819114
 31
0.0
  0
LINE
  5
2AD0A
  8
0
 10
3300.1038957526661761
 20
157.5340452241819094
 30
0.0
 11
3300.1038957526661761
 21
157.4159349878819114
 31
0.0
  0
LINE
  5
2AD0B
  8
0
 10
3300.1155617560380051
 20
157.5340452241819094
 30
0.0
 11
3300.1155617560380051
 21
157.4159349878819114
 31
0.0
  0
LINE
  5
2AD0C
  8
0
 10
3300.130179016675811
 20
157.5340452241819094
 30
0.0
 11
3300.130179016675811
 21
157.4159349878819114
 31
0.0
  0
LINE
  5
2AD0D
  8
0
 10
3300.1350270024258862
 20
157.5340452241819094
 30
0.0
 11
3300.1350270024258862
 21
157.4159349878819114
 31
0.0
  0
LINE
  5
2AD0E
  8
0
 10
3300.1469786318871229
 20
157.5340452241819094
 30
0.0
 11
3300.1469786318871229
 21
157.4159349878819114
 31
0.0
  0
LINE
  5
2AD0F
  8
0
 10
3300.161464089088895
 20
157.5340452241819094
 30
0.0
 11
3300.161464089088895
 21
157.4159349878819114
 31
0.0
  0
LINE
  5
2AD10
  8
0
 10
3300.1668974136600809
 20
157.5340452241819094
 30
0.0
 11
3300.1668974136600809
 21
157.4159349878819114
 31
0.0
  0
LINE
  5
2AD11
  8
0
 10
3300.1791137019740745
 20
157.5340452241819094
 30
0.0
 11
3300.1791137019740745
 21
157.4159349878819114
 31
0.0
  0
LINE
  5
2AD12
  8
0
 10
3300.1934419433760013
 20
157.5340452241819094
 30
0.0
 11
3300.1934419433760013
 21
157.4159349878819114
 31
0.0
  0
LINE
  5
2AD13
  8
0
 10
3300.1994510748118046
 20
157.5340452241819094
 30
0.0
 11
3300.1994510748118046
 21
157.4159349878819114
 31
0.0
  0
LINE
  5
2AD14
  8
0
 10
3300.2119105904671414
 20
157.5340452241819094
 30
0.0
 11
3300.2119105904671414
 21
157.4159349878819114
 31
0.0
  0
LINE
  5
2AD15
  8
0
 10
3300.2260564793650701
 20
157.5340452241819094
 30
0.0
 11
3300.2260564793650701
 21
157.4159349878819114
 31
0.0
  0
LINE
  5
2AD16
  8
0
 10
3300.2326308757069455
 20
157.5340452241819094
 30
0.0
 11
3300.2326308757069455
 21
157.4159349878819114
 31
0.0
  0
LINE
  5
2AD17
  8
0
 10
3300.245311760479126
 20
157.5340452241819094
 30
0.0
 11
3300.245311760479126
 21
157.4159349878819114
 31
0.0
  0
LINE
  5
2AD18
  8
0
 10
3300.2592504802260009
 20
157.5340452241819094
 30
0.0
 11
3300.2592504802260009
 21
157.4159349878819114
 31
0.0
  0
LINE
  5
2AD19
  8
0
 10
3300.2663786077000623
 20
157.5340452241819094
 30
0.0
 11
3300.2663786077000623
 21
157.4159349878819114
 31
0.0
  0
LINE
  5
2AD1A
  8
0
 10
3300.2792586150080751
 20
157.5340452241819094
 30
0.0
 11
3300.2792586150080751
 21
157.4159349878819114
 31
0.0
  0
LINE
  5
2AD1B
  8
0
 10
3300.2929657123540892
 20
157.5340452241819094
 30
0.0
 11
3300.2929657123540892
 21
157.4159349878819114
 31
0.0
  0
LINE
  5
2AD1C
  8
0
 10
3300.3006350658010888
 20
157.5340452241819094
 30
0.0
 11
3300.3006350658010888
 21
157.4159349878819114
 31
0.0
  0
LINE
  5
2AD1D
  8
0
 10
3300.3136915997351934
 20
157.5340452241819094
 30
0.0
 11
3300.3136915997351934
 21
157.4159349878819114
 31
0.0
  0
LINE
  5
2AD1E
  8
0
 10
3300.3271430277741274
 20
157.5340452241819094
 30
0.0
 11
3300.3271430277741274
 21
157.4159349878819114
 31
0.0
  0
LINE
  5
2AD1F
  8
0
 10
3300.3353401525300796
 20
157.5340452241819094
 30
0.0
 11
3300.3353401525300796
 21
157.4159349878819114
 31
0.0
  0
LINE
  5
2AD20
  8
0
 10
3300.348550307505775
 20
157.5340452241819094
 30
0.0
 11
3300.348550307505775
 21
157.4159349878819114
 31
0.0
  0
LINE
  5
2AD21
  8
0
 10
3300.3617224678619095
 20
157.5340452241819094
 30
0.0
 11
3300.3617224678619095
 21
157.4159349878819114
 31
0.0
  0
LINE
  5
2AD22
  8
0
 10
3300.3704329834099553
 20
157.5340452241819094
 30
0.0
 11
3300.3704329834099553
 21
157.4159349878819114
 31
0.0
  0
LINE
  5
2AD23
  8
0
 10
3300.3837735843349037
 20
157.5340452241819094
 30
0.0
 11
3300.3837735843349037
 21
157.4159349878819114
 31
0.0
  0
LINE
  5
2AD24
  8
0
 10
3300.4058519936379525
 20
157.5340452241819094
 30
0.0
 11
3300.4058519936379525
 21
157.4159349878819114
 31
0.0
  0
LINE
  5
2AD25
  8
0
 10
3300.3966433685891388
 20
157.5340452241819094
 30
0.0
 11
3300.3966433685891388
 21
157.4159349878819114
 31
0.0
  0
LINE
  5
2AD26
  8
0
 10
3300.419299636525011
 20
157.5340452241819094
 30
0.0
 11
3300.419299636525011
 21
157.4159349878819114
 31
0.0
  0
LINE
  5
2AD27
  8
0
 10
3300.4318444666478172
 20
157.5340452241819094
 30
0.0
 11
3300.4318444666478172
 21
157.4159349878819114
 31
0.0
  0
LINE
  5
2AD28
  8
0
 10
3300.4415350462750212
 20
157.5340452241819094
 30
0.0
 11
3300.4415350462750212
 21
157.4159349878819114
 31
0.0
  0
LINE
  5
2AD29
  8
0
 10
3300.4550661394100644
 20
157.5340452241819094
 30
0.0
 11
3300.4550661394100644
 21
157.4159349878819114
 31
0.0
  0
LINE
  5
2AD2A
  8
0
 10
3300.46726400753505
 20
157.5340452241819094
 30
0.0
 11
3300.46726400753505
 21
157.4159349878819114
 31
0.0
  0
LINE
  5
2AD2B
  8
0
 10
3300.4774195411241635
 20
157.5340452241819094
 30
0.0
 11
3300.4774195411241635
 21
157.4159349878819114
 31
0.0
  0
LINE
  5
2AD2C
  8
0
 10
3300.4910103463548694
 20
157.5340452241819094
 30
0.0
 11
3300.4910103463548694
 21
157.4159349878819114
 31
0.0
  0
LINE
  5
2AD2D
  8
0
 10
3300.5028398533431755
 20
157.5340452241819094
 30
0.0
 11
3300.5028398533431755
 21
157.4159349878819114
 31
0.0
  0
LINE
  5
2AD2E
  8
0
 10
3300.5134425245419152
 20
157.5340452241819094
 30
0.0
 11
3300.5134425245419152
 21
157.4159349878819114
 31
0.0
  0
LINE
  5
2AD2F
  8
0
 10
3300.5270691990090199
 20
157.5340452241819094
 30
0.0
 11
3300.5270691990090199
 21
157.4159349878819114
 31
0.0
  0
LINE
  5
2AD30
  8
0
 10
3300.5385095917531544
 20
157.5340452241819094
 30
0.0
 11
3300.5385095917531544
 21
157.4159349878819114
 31
0.0
  0
LINE
  5
2AD31
  8
0
 10
3300.5495408000201678
 20
157.5340452241819094
 30
0.0
 11
3300.5495408000201678
 21
157.4159349878819114
 31
0.0
  0
LINE
  5
2AD32
  8
0
 10
3299.7826373264701942
 20
157.2781397122818987
 30
0.0
 11
3299.7985071455209436
 21
157.2689653083072017
 31
0.0
  0
LINE
  5
2AD33
  8
0
 10
3299.7985071455209436
 20
157.2689653083072017
 30
0.0
 11
3299.7984904269351318
 21
157.230895617781897
 31
0.0
  0
LINE
  5
2AD34
  8
0
 10
3299.7984861043919409
 20
163.689557035181906
 30
0.0
 11
3301.3142341348479931
 21
163.689557035181906
 31
0.0
  0
ARC
  5
2AD35
  8
0
 10
3299.9510582795378468
 20
163.8851110028809899
 30
0.0
 40
0.2480314958060961
 50
188.830002823144298
 51
232.0384687032168074
  0
LINE
  5
2AD36
  8
0
 10
3301.4184915992600509
 20
163.8470373499818891
 30
0.0
 11
3299.6942286399789737
 21
163.8470373499818891
 31
0.0
  0
LINE
  5
2AD37
  8
0
 10
3301.4184915992600509
 20
163.965147586281887
 30
0.0
 11
3299.6942286399789737
 21
163.965147586281887
 31
0.0
  0
LINE
  5
2AD38
  8
0
 10
3299.705966419519882
 20
164.1029428618818997
 30
0.0
 11
3301.406753819720052
 21
164.1029428618818997
 31
0.0
  0
LINE
  5
2AD39
  8
0
 10
3299.705966419519882
 20
163.965147586281887
 30
0.0
 11
3299.705966419519882
 21
164.1029428618818997
 31
0.0
  0
LINE
  5
2AD3A
  8
0
 10
3301.4184915992600509
 20
163.8470373499818891
 30
0.0
 11
3301.4184915992600509
 21
163.965147586281887
 31
0.0
  0
LINE
  5
2AD3B
  8
0
 10
3301.4182059731629124
 20
163.8470373499818891
 30
0.0
 11
3301.4182059731629124
 21
163.965147586281887
 31
0.0
  0
LINE
  5
2AD3C
  8
0
 10
3301.4172647537980083
 20
163.8470373499818891
 30
0.0
 11
3301.4172647537980083
 21
163.965147586281887
 31
0.0
  0
LINE
  5
2AD3D
  8
0
 10
3301.416408376624986
 20
163.8470373499818891
 30
0.0
 11
3301.416408376624986
 21
163.965147586281887
 31
0.0
  0
LINE
  5
2AD3E
  8
0
 10
3301.4145275890709854
 20
163.8470373499818891
 30
0.0
 11
3301.4145275890709854
 21
163.965147586281887
 31
0.0
  0
LINE
  5
2AD3F
  8
0
 10
3301.4131019631968229
 20
163.8470373499818891
 30
0.0
 11
3301.4131019631968229
 21
163.965147586281887
 31
0.0
  0
LINE
  5
2AD40
  8
0
 10
3301.410284906995912
 20
163.8470373499818891
 30
0.0
 11
3301.410284906995912
 21
163.965147586281887
 31
0.0
  0
LINE
  5
2AD41
  8
0
 10
3301.4082925334528227
 20
163.8470373499818891
 30
0.0
 11
3301.4082925334528227
 21
163.965147586281887
 31
0.0
  0
LINE
  5
2AD42
  8
0
 10
3301.4045441506768839
 20
163.8470373499818891
 30
0.0
 11
3301.4045441506768839
 21
163.965147586281887
 31
0.0
  0
LINE
  5
2AD43
  8
0
 10
3301.4019885247657839
 20
163.8470373499818891
 30
0.0
 11
3301.4019885247657839
 21
163.965147586281887
 31
0.0
  0
LINE
  5
2AD44
  8
0
 10
3301.3973153913539136
 20
163.8470373499818891
 30
0.0
 11
3301.3973153913539136
 21
163.965147586281887
 31
0.0
  0
LINE
  5
2AD45
  8
0
 10
3301.3942009965098805
 20
163.8470373499818891
 30
0.0
 11
3301.3942009965098805
 21
163.965147586281887
 31
0.0
  0
LINE
  5
2AD46
  8
0
 10
3301.3886113107241727
 20
163.8470373499818891
 30
0.0
 11
3301.3886113107241727
 21
163.965147586281887
 31
0.0
  0
LINE
  5
2AD47
  8
0
 10
3301.384943610656137
 20
163.8470373499818891
 30
0.0
 11
3301.384943610656137
 21
163.965147586281887
 31
0.0
  0
LINE
  5
2AD48
  8
0
 10
3301.378447178704846
 20
163.8470373499818891
 30
0.0
 11
3301.378447178704846
 21
163.965147586281887
 31
0.0
  0
LINE
  5
2AD49
  8
0
 10
3301.3742326078040605
 20
163.8470373499818891
 30
0.0
 11
3301.3742326078040605
 21
163.965147586281887
 31
0.0
  0
LINE
  5
2AD4A
  8
0
 10
3301.3668408266371443
 20
163.8470373499818891
 30
0.0
 11
3301.3668408266371443
 21
163.965147586281887
 31
0.0
  0
LINE
  5
2AD4B
  8
0
 10
3301.3620867786939925
 20
163.8470373499818891
 30
0.0
 11
3301.3620867786939925
 21
163.965147586281887
 31
0.0
  0
LINE
  5
2AD4C
  8
0
 10
3301.3538126159987769
 20
163.8470373499818891
 30
0.0
 11
3301.3538126159987769
 21
163.965147586281887
 31
0.0
  0
LINE
  5
2AD4D
  8
0
 10
3301.3485274312338333
 20
163.8470373499818891
 30
0.0
 11
3301.3485274312338333
 21
163.965147586281887
 31
0.0
  0
LINE
  5
2AD4E
  8
0
 10
3301.3393854027199268
 20
163.8470373499818891
 30
0.0
 11
3301.3393854027199268
 21
163.965147586281887
 31
0.0
  0
LINE
  5
2AD4F
  8
0
 10
3301.3335783531301786
 20
163.8470373499818891
 30
0.0
 11
3301.3335783531301786
 21
163.965147586281887
 31
0.0
  0
LINE
  5
2AD50
  8
0
 10
3301.3235844970140533
 20
163.8470373499818891
 30
0.0
 11
3301.3235844970140533
 21
163.965147586281887
 31
0.0
  0
LINE
  5
2AD51
  8
0
 10
3301.3172657701447861
 20
163.8470373499818891
 30
0.0
 11
3301.3172657701447861
 21
163.965147586281887
 31
0.0
  0
LINE
  5
2AD52
  8
0
 10
3301.3064376190450275
 20
163.8470373499818891
 30
0.0
 11
3301.3064376190450275
 21
163.965147586281887
 31
0.0
  0
LINE
  5
2AD53
  8
0
 10
3301.2996183000900601
 20
163.8470373499818891
 30
0.0
 11
3301.2996183000900601
 21
163.965147586281887
 31
0.0
  0
LINE
  5
2AD54
  8
0
 10
3301.2879748502641633
 20
163.8470373499818891
 30
0.0
 11
3301.2879748502641633
 21
163.965147586281887
 31
0.0
  0
LINE
  5
2AD55
  8
0
 10
3301.2806669026258533
 20
163.8470373499818891
 30
0.0
 11
3301.2806669026258533
 21
163.965147586281887
 31
0.0
  0
LINE
  5
2AD56
  8
0
 10
3301.268228580639061
 20
163.8470373499818891
 30
0.0
 11
3301.268228580639061
 21
163.965147586281887
 31
0.0
  0
LINE
  5
2AD57
  8
0
 10
3301.2604448249439884
 20
163.8470373499818891
 30
0.0
 11
3301.2604448249439884
 21
163.965147586281887
 31
0.0
  0
LINE
  5
2AD58
  8
0
 10
3301.2472334518411117
 20
163.8470373499818891
 30
0.0
 11
3301.2472334518411117
 21
163.965147586281887
 31
0.0
  0
LINE
  5
2AD59
  8
0
 10
3301.2389875434778332
 20
163.8470373499818891
 30
0.0
 11
3301.2389875434778332
 21
163.965147586281887
 31
0.0
  0
LINE
  5
2AD5A
  8
0
 10
3301.2250262964607828
 20
163.8470373499818891
 30
0.0
 11
3301.2250262964607828
 21
163.965147586281887
 31
0.0
  0
LINE
  5
2AD5B
  8
0
 10
3301.2163327014750394
 20
163.8470373499818891
 30
0.0
 11
3301.2163327014750394
 21
163.965147586281887
 31
0.0
  0
LINE
  5
2AD5C
  8
0
 10
3301.2016460733898384
 20
163.8470373499818891
 30
0.0
 11
3301.2016460733898384
 21
163.965147586281887
 31
0.0
  0
LINE
  5
2AD5D
  8
0
 10
3301.1925200433797727
 20
163.8470373499818891
 30
0.0
 11
3301.1925200433797727
 21
163.965147586281887
 31
0.0
  0
LINE
  5
2AD5E
  8
0
 10
3301.1777054264898652
 20
163.8470373499818891
 30
0.0
 11
3301.1777054264898652
 21
163.965147586281887
 31
0.0
  0
LINE
  5
2AD5F
  8
0
 10
3301.177133799485091
 20
163.8470373499818891
 30
0.0
 11
3301.177133799485091
 21
163.965147586281887
 31
0.0
  0
LINE
  5
2AD60
  8
0
 10
3301.1675913445719743
 20
163.8470373499818891
 30
0.0
 11
3301.1675913445719743
 21
163.965147586281887
 31
0.0
  0
LINE
  5
2AD61
  8
0
 10
3301.1527267075489362
 20
163.8470373499818891
 30
0.0
 11
3301.1527267075489362
 21
163.965147586281887
 31
0.0
  0
LINE
  5
2AD62
  8
0
 10
3301.151532477605997
 20
163.8470373499818891
 30
0.0
 11
3301.151532477605997
 21
163.965147586281887
 31
0.0
  0
LINE
  5
2AD63
  8
0
 10
3301.141590338496826
 20
163.8470373499818891
 30
0.0
 11
3301.141590338496826
 21
163.965147586281887
 31
0.0
  0
LINE
  5
2AD64
  8
0
 10
3301.1267017589661918
 20
163.8470373499818891
 30
0.0
 11
3301.1267017589661918
 21
163.965147586281887
 31
0.0
  0
LINE
  5
2AD65
  8
0
 10
3301.1248870211711619
 20
163.8470373499818891
 30
0.0
 11
3301.1248870211711619
 21
163.965147586281887
 31
0.0
  0
LINE
  5
2AD66
  8
0
 10
3301.1145626397569686
 20
163.8470373499818891
 30
0.0
 11
3301.1145626397569686
 21
163.965147586281887
 31
0.0
  0
LINE
  5
2AD67
  8
0
 10
3301.0996762373802085
 20
163.8470373499818891
 30
0.0
 11
3301.0996762373802085
 21
163.965147586281887
 31
0.0
  0
LINE
  5
2AD68
  8
0
 10
3301.0972441753629028
 20
163.8470373499818891
 30
0.0
 11
3301.0972441753629028
 21
163.965147586281887
 31
0.0
  0
LINE
  5
2AD69
  8
0
 10
3301.086555664116986
 20
163.8470373499818891
 30
0.0
 11
3301.086555664116986
 21
163.965147586281887
 31
0.0
  0
LINE
  5
2AD6A
  8
0
 10
3301.0716975546702088
 20
163.8470373499818891
 30
0.0
 11
3301.0716975546702088
 21
163.965147586281887
 31
0.0
  0
LINE
  5
2AD6B
  8
0
 10
3301.068652435128115
 20
163.8470373499818891
 30
0.0
 11
3301.068652435128115
 21
163.965147586281887
 31
0.0
  0
LINE
  5
2AD6C
  8
0
 10
3301.0576185453310245
 20
163.8470373499818891
 30
0.0
 11
3301.0576185453310245
 21
163.965147586281887
 31
0.0
  0
LINE
  5
2AD6D
  8
0
 10
3301.0428147949869526
 20
163.8470373499818891
 30
0.0
 11
3301.0428147949869526
 21
163.965147586281887
 31
0.0
  0
LINE
  5
2AD6E
  8
0
 10
3301.0391619600932245
 20
163.8470373499818891
 30
0.0
 11
3301.0391619600932245
 21
163.965147586281887
 31
0.0
  0
LINE
  5
2AD6F
  8
0
 10
3301.0278020489367918
 20
163.8470373499818891
 30
0.0
 11
3301.0278020489367918
 21
163.965147586281887
 31
0.0
  0
LINE
  5
2AD70
  8
0
 10
3301.0130786285039903
 20
163.8470373499818891
 30
0.0
 11
3301.0130786285039903
 21
163.965147586281887
 31
0.0
  0
LINE
  5
2AD71
  8
0
 10
3301.0088244865742126
 20
163.8470373499818891
 30
0.0
 11
3301.0088244865742126
 21
163.965147586281887
 31
0.0
  0
LINE
  5
2AD72
  8
0
 10
3300.9971584832019289
 20
163.8470373499818891
 30
0.0
 11
3300.9971584832019289
 21
163.965147586281887
 31
0.0
  0
LINE
  5
2AD73
  8
0
 10
3300.9825412225632135
 20
163.8470373499818891
 30
0.0
 11
3300.9825412225632135
 21
163.965147586281887
 31
0.0
  0
LINE
  5
2AD74
  8
0
 10
3300.9776932368131384
 20
163.8470373499818891
 30
0.0
 11
3300.9776932368131384
 21
163.965147586281887
 31
0.0
  0
LINE
  5
2AD75
  8
0
 10
3300.9657416073528111
 20
163.8470373499818891
 30
0.0
 11
3300.9657416073528111
 21
163.965147586281887
 31
0.0
  0
LINE
  5
2AD76
  8
0
 10
3300.951256150151039
 20
163.8470373499818891
 30
0.0
 11
3300.951256150151039
 21
163.965147586281887
 31
0.0
  0
LINE
  5
2AD77
  8
0
 10
3300.9458228255812173
 20
163.8470373499818891
 30
0.0
 11
3300.9458228255812173
 21
163.965147586281887
 31
0.0
  0
LINE
  5
2AD78
  8
0
 10
3300.9336065372658595
 20
163.8470373499818891
 30
0.0
 11
3300.9336065372658595
 21
163.965147586281887
 31
0.0
  0
LINE
  5
2AD79
  8
0
 10
3300.9192782958639327
 20
163.8470373499818891
 30
0.0
 11
3300.9192782958639327
 21
163.965147586281887
 31
0.0
  0
LINE
  5
2AD7A
  8
0
 10
3300.9132691644281294
 20
163.8470373499818891
 30
0.0
 11
3300.9132691644281294
 21
163.965147586281887
 31
0.0
  0
LINE
  5
2AD7B
  8
0
 10
3300.9008096487727926
 20
163.8470373499818891
 30
0.0
 11
3300.9008096487727926
 21
163.965147586281887
 31
0.0
  0
LINE
  5
2AD7C
  8
0
 10
3300.8866637598748639
 20
163.8470373499818891
 30
0.0
 11
3300.8866637598748639
 21
163.965147586281887
 31
0.0
  0
LINE
  5
2AD7D
  8
0
 10
3300.8800893635329885
 20
163.8470373499818891
 30
0.0
 11
3300.8800893635329885
 21
163.965147586281887
 31
0.0
  0
LINE
  5
2AD7E
  8
0
 10
3300.8674084787608081
 20
163.8470373499818891
 30
0.0
 11
3300.8674084787608081
 21
163.965147586281887
 31
0.0
  0
LINE
  5
2AD7F
  8
0
 10
3300.8534697590139331
 20
163.8470373499818891
 30
0.0
 11
3300.8534697590139331
 21
163.965147586281887
 31
0.0
  0
LINE
  5
2AD80
  8
0
 10
3300.8463416315398717
 20
163.8470373499818891
 30
0.0
 11
3300.8463416315398717
 21
163.965147586281887
 31
0.0
  0
LINE
  5
2AD81
  8
0
 10
3300.8334616242318589
 20
163.8470373499818891
 30
0.0
 11
3300.8334616242318589
 21
163.965147586281887
 31
0.0
  0
LINE
  5
2AD82
  8
0
 10
3300.8197545268858448
 20
163.8470373499818891
 30
0.0
 11
3300.8197545268858448
 21
163.965147586281887
 31
0.0
  0
LINE
  5
2AD83
  8
0
 10
3300.8120851734388452
 20
163.8470373499818891
 30
0.0
 11
3300.8120851734388452
 21
163.965147586281887
 31
0.0
  0
LINE
  5
2AD84
  8
0
 10
3300.7990286395051953
 20
163.8470373499818891
 30
0.0
 11
3300.7990286395051953
 21
163.965147586281887
 31
0.0
  0
LINE
  5
2AD85
  8
0
 10
3300.7855772114671709
 20
163.8470373499818891
 30
0.0
 11
3300.7855772114671709
 21
163.965147586281887
 31
0.0
  0
LINE
  5
2AD86
  8
0
 10
3300.7773800867098544
 20
163.8470373499818891
 30
0.0
 11
3300.7773800867098544
 21
163.965147586281887
 31
0.0
  0
LINE
  5
2AD87
  8
0
 10
3300.764169931734159
 20
163.8470373499818891
 30
0.0
 11
3300.764169931734159
 21
163.965147586281887
 31
0.0
  0
LINE
  5
2AD88
  8
0
 10
3300.750997771378934
 20
163.8470373499818891
 30
0.0
 11
3300.750997771378934
 21
163.965147586281887
 31
0.0
  0
LINE
  5
2AD89
  8
0
 10
3300.7422872558299787
 20
163.8470373499818891
 30
0.0
 11
3300.7422872558299787
 21
163.965147586281887
 31
0.0
  0
LINE
  5
2AD8A
  8
0
 10
3300.7289466549050303
 20
163.8470373499818891
 30
0.0
 11
3300.7289466549050303
 21
163.965147586281887
 31
0.0
  0
LINE
  5
2AD8B
  8
0
 10
3300.7068682456019815
 20
163.8470373499818891
 30
0.0
 11
3300.7068682456019815
 21
163.965147586281887
 31
0.0
  0
LINE
  5
2AD8C
  8
0
 10
3300.7160768706507952
 20
163.8470373499818891
 30
0.0
 11
3300.7160768706507952
 21
163.965147586281887
 31
0.0
  0
LINE
  5
2AD8D
  8
0
 10
3300.693420602714923
 20
163.8470373499818891
 30
0.0
 11
3300.693420602714923
 21
163.965147586281887
 31
0.0
  0
LINE
  5
2AD8E
  8
0
 10
3300.6808757725921168
 20
163.8470373499818891
 30
0.0
 11
3300.6808757725921168
 21
163.965147586281887
 31
0.0
  0
LINE
  5
2AD8F
  8
0
 10
3300.6711851929649129
 20
163.8470373499818891
 30
0.0
 11
3300.6711851929649129
 21
163.965147586281887
 31
0.0
  0
LINE
  5
2AD90
  8
0
 10
3300.6576540998298697
 20
163.8470373499818891
 30
0.0
 11
3300.6576540998298697
 21
163.965147586281887
 31
0.0
  0
LINE
  5
2AD91
  8
0
 10
3300.645456231704884
 20
163.8470373499818891
 30
0.0
 11
3300.645456231704884
 21
163.965147586281887
 31
0.0
  0
LINE
  5
2AD92
  8
0
 10
3300.635300698114861
 20
163.8470373499818891
 30
0.0
 11
3300.635300698114861
 21
163.965147586281887
 31
0.0
  0
LINE
  5
2AD93
  8
0
 10
3300.6217098928841551
 20
163.8470373499818891
 30
0.0
 11
3300.6217098928841551
 21
163.965147586281887
 31
0.0
  0
LINE
  5
2AD94
  8
0
 10
3300.6098803858972133
 20
163.8470373499818891
 30
0.0
 11
3300.6098803858972133
 21
163.965147586281887
 31
0.0
  0
LINE
  5
2AD95
  8
0
 10
3300.5992777146980188
 20
163.8470373499818891
 30
0.0
 11
3300.5992777146980188
 21
163.965147586281887
 31
0.0
  0
LINE
  5
2AD96
  8
0
 10
3300.5856510402300046
 20
163.8470373499818891
 30
0.0
 11
3300.5856510402300046
 21
163.965147586281887
 31
0.0
  0
LINE
  5
2AD97
  8
0
 10
3300.5742106474867796
 20
163.8470373499818891
 30
0.0
 11
3300.5742106474867796
 21
163.965147586281887
 31
0.0
  0
LINE
  5
2AD98
  8
0
 10
3300.563179439220221
 20
163.8470373499818891
 30
0.0
 11
3300.563179439220221
 21
163.965147586281887
 31
0.0
  0
LINE
  5
2AD99
  8
0
 10
3299.6942286399789737
 20
163.8470373499818891
 30
0.0
 11
3299.6942286399789737
 21
163.965147586281887
 31
0.0
  0
LINE
  5
2AD9A
  8
0
 10
3299.6945142660761121
 20
163.8470373499818891
 30
0.0
 11
3299.6945142660761121
 21
163.965147586281887
 31
0.0
  0
LINE
  5
2AD9B
  8
0
 10
3299.6954554854410162
 20
163.8470373499818891
 30
0.0
 11
3299.6954554854410162
 21
163.965147586281887
 31
0.0
  0
LINE
  5
2AD9C
  8
0
 10
3299.6963118626158575
 20
163.8470373499818891
 30
0.0
 11
3299.6963118626158575
 21
163.965147586281887
 31
0.0
  0
LINE
  5
2AD9D
  8
0
 10
3299.6981926501680391
 20
163.8470373499818891
 30
0.0
 11
3299.6981926501680391
 21
163.965147586281887
 31
0.0
  0
LINE
  5
2AD9E
  8
0
 10
3299.6996182760440206
 20
163.8470373499818891
 30
0.0
 11
3299.6996182760440206
 21
163.965147586281887
 31
0.0
  0
LINE
  5
2AD9F
  8
0
 10
3299.7024353322449315
 20
163.8470373499818891
 30
0.0
 11
3299.7024353322449315
 21
163.965147586281887
 31
0.0
  0
LINE
  5
2ADA0
  8
0
 10
3299.7044277057871113
 20
163.8470373499818891
 30
0.0
 11
3299.7044277057871113
 21
163.965147586281887
 31
0.0
  0
LINE
  5
2ADA1
  8
0
 10
3299.7081760885630501
 20
163.8470373499818891
 30
0.0
 11
3299.7081760885630501
 21
163.965147586281887
 31
0.0
  0
LINE
  5
2ADA2
  8
0
 10
3299.7107317144741501
 20
163.8470373499818891
 30
0.0
 11
3299.7107317144741501
 21
163.965147586281887
 31
0.0
  0
LINE
  5
2ADA3
  8
0
 10
3299.7154048478860204
 20
163.8470373499818891
 30
0.0
 11
3299.7154048478860204
 21
163.965147586281887
 31
0.0
  0
LINE
  5
2ADA4
  8
0
 10
3299.7185192427300535
 20
163.8470373499818891
 30
0.0
 11
3299.7185192427300535
 21
163.965147586281887
 31
0.0
  0
LINE
  5
2ADA5
  8
0
 10
3299.7241089285162161
 20
163.8470373499818891
 30
0.0
 11
3299.7241089285162161
 21
163.965147586281887
 31
0.0
  0
LINE
  5
2ADA6
  8
0
 10
3299.727776628583797
 20
163.8470373499818891
 30
0.0
 11
3299.727776628583797
 21
163.965147586281887
 31
0.0
  0
LINE
  5
2ADA7
  8
0
 10
3299.734273060535088
 20
163.8470373499818891
 30
0.0
 11
3299.734273060535088
 21
163.965147586281887
 31
0.0
  0
LINE
  5
2ADA8
  8
0
 10
3299.7384876314358735
 20
163.8470373499818891
 30
0.0
 11
3299.7384876314358735
 21
163.965147586281887
 31
0.0
  0
LINE
  5
2ADA9
  8
0
 10
3299.7458794126027897
 20
163.8470373499818891
 30
0.0
 11
3299.7458794126027897
 21
163.965147586281887
 31
0.0
  0
LINE
  5
2ADAA
  8
0
 10
3299.750633460546851
 20
163.8470373499818891
 30
0.0
 11
3299.750633460546851
 21
163.965147586281887
 31
0.0
  0
LINE
  5
2ADAB
  8
0
 10
3299.7589076232420666
 20
163.8470373499818891
 30
0.0
 11
3299.7589076232420666
 21
163.965147586281887
 31
0.0
  0
LINE
  5
2ADAC
  8
0
 10
3299.7641928080061007
 20
163.8470373499818891
 30
0.0
 11
3299.7641928080061007
 21
163.965147586281887
 31
0.0
  0
LINE
  5
2ADAD
  8
0
 10
3299.7733348365190977
 20
163.8470373499818891
 30
0.0
 11
3299.7733348365190977
 21
163.965147586281887
 31
0.0
  0
LINE
  5
2ADAE
  8
0
 10
3299.7791418861088459
 20
163.8470373499818891
 30
0.0
 11
3299.7791418861088459
 21
163.965147586281887
 31
0.0
  0
LINE
  5
2ADAF
  8
0
 10
3299.7891357422258807
 20
163.8470373499818891
 30
0.0
 11
3299.7891357422258807
 21
163.965147586281887
 31
0.0
  0
LINE
  5
2ADB0
  8
0
 10
3299.7954544690960574
 20
163.8470373499818891
 30
0.0
 11
3299.7954544690960574
 21
163.965147586281887
 31
0.0
  0
LINE
  5
2ADB1
  8
0
 10
3299.8062826201949065
 20
163.8470373499818891
 30
0.0
 11
3299.8062826201949065
 21
163.965147586281887
 31
0.0
  0
LINE
  5
2ADB2
  8
0
 10
3299.8131019391489644
 20
163.8470373499818891
 30
0.0
 11
3299.8131019391489644
 21
163.965147586281887
 31
0.0
  0
LINE
  5
2ADB3
  8
0
 10
3299.8247453889748613
 20
163.8470373499818891
 30
0.0
 11
3299.8247453889748613
 21
163.965147586281887
 31
0.0
  0
LINE
  5
2ADB4
  8
0
 10
3299.8320533366140808
 20
163.8470373499818891
 30
0.0
 11
3299.8320533366140808
 21
163.965147586281887
 31
0.0
  0
LINE
  5
2ADB5
  8
0
 10
3299.8444916586017825
 20
163.8470373499818891
 30
0.0
 11
3299.8444916586017825
 21
163.965147586281887
 31
0.0
  0
LINE
  5
2ADB6
  8
0
 10
3299.8522754142950362
 20
163.8470373499818891
 30
0.0
 11
3299.8522754142950362
 21
163.965147586281887
 31
0.0
  0
LINE
  5
2ADB7
  8
0
 10
3299.8654867873979128
 20
163.8470373499818891
 30
0.0
 11
3299.8654867873979128
 21
163.965147586281887
 31
0.0
  0
LINE
  5
2ADB8
  8
0
 10
3299.8737326957630103
 20
163.8470373499818891
 30
0.0
 11
3299.8737326957630103
 21
163.965147586281887
 31
0.0
  0
LINE
  5
2ADB9
  8
0
 10
3299.8876939427800608
 20
163.8470373499818891
 30
0.0
 11
3299.8876939427800608
 21
163.965147586281887
 31
0.0
  0
LINE
  5
2ADBA
  8
0
 10
3299.8963875377648947
 20
163.8470373499818891
 30
0.0
 11
3299.8963875377648947
 21
163.965147586281887
 31
0.0
  0
LINE
  5
2ADBB
  8
0
 10
3299.9110741658510051
 20
163.8470373499818891
 30
0.0
 11
3299.9110741658510051
 21
163.965147586281887
 31
0.0
  0
LINE
  5
2ADBC
  8
0
 10
3299.9202001958601613
 20
163.8470373499818891
 30
0.0
 11
3299.9202001958601613
 21
163.965147586281887
 31
0.0
  0
LINE
  5
2ADBD
  8
0
 10
3299.9350148127509783
 20
163.8470373499818891
 30
0.0
 11
3299.9350148127509783
 21
163.965147586281887
 31
0.0
  0
LINE
  5
2ADBE
  8
0
 10
3299.935586439754843
 20
163.8470373499818891
 30
0.0
 11
3299.935586439754843
 21
163.965147586281887
 31
0.0
  0
LINE
  5
2ADBF
  8
0
 10
3299.9451288946679597
 20
163.8470373499818891
 30
0.0
 11
3299.9451288946679597
 21
163.965147586281887
 31
0.0
  0
LINE
  5
2ADC0
  8
0
 10
3299.9599935316909978
 20
163.8470373499818891
 30
0.0
 11
3299.9599935316909978
 21
163.965147586281887
 31
0.0
  0
LINE
  5
2ADC1
  8
0
 10
3299.9611877616330275
 20
163.8470373499818891
 30
0.0
 11
3299.9611877616330275
 21
163.965147586281887
 31
0.0
  0
LINE
  5
2ADC2
  8
0
 10
3299.9711299007421985
 20
163.8470373499818891
 30
0.0
 11
3299.9711299007421985
 21
163.965147586281887
 31
0.0
  0
LINE
  5
2ADC3
  8
0
 10
3299.9860184802741969
 20
163.8470373499818891
 30
0.0
 11
3299.9860184802741969
 21
163.965147586281887
 31
0.0
  0
LINE
  5
2ADC4
  8
0
 10
3299.9878332180678626
 20
163.8470373499818891
 30
0.0
 11
3299.9878332180678626
 21
163.965147586281887
 31
0.0
  0
LINE
  5
2ADC5
  8
0
 10
3299.9981575994838749
 20
163.8470373499818891
 30
0.0
 11
3299.9981575994838749
 21
163.965147586281887
 31
0.0
  0
LINE
  5
2ADC6
  8
0
 10
3300.0130440018610898
 20
163.8470373499818891
 30
0.0
 11
3300.0130440018610898
 21
163.965147586281887
 31
0.0
  0
LINE
  5
2ADC7
  8
0
 10
3300.0154760638761218
 20
163.8470373499818891
 30
0.0
 11
3300.0154760638761218
 21
163.965147586281887
 31
0.0
  0
LINE
  5
2ADC8
  8
0
 10
3300.026164575122948
 20
163.8470373499818891
 30
0.0
 11
3300.026164575122948
 21
163.965147586281887
 31
0.0
  0
LINE
  5
2ADC9
  8
0
 10
3300.04102268457018
 20
163.8470373499818891
 30
0.0
 11
3300.04102268457018
 21
163.965147586281887
 31
0.0
  0
LINE
  5
2ADCA
  8
0
 10
3300.044067804111819
 20
163.8470373499818891
 30
0.0
 11
3300.044067804111819
 21
163.965147586281887
 31
0.0
  0
LINE
  5
2ADCB
  8
0
 10
3300.0551016939089095
 20
163.8470373499818891
 30
0.0
 11
3300.0551016939089095
 21
163.965147586281887
 31
0.0
  0
LINE
  5
2ADCC
  8
0
 10
3300.0699054442529814
 20
163.8470373499818891
 30
0.0
 11
3300.0699054442529814
 21
163.965147586281887
 31
0.0
  0
LINE
  5
2ADCD
  8
0
 10
3300.0735582791471643
 20
163.8470373499818891
 30
0.0
 11
3300.0735582791471643
 21
163.965147586281887
 31
0.0
  0
LINE
  5
2ADCE
  8
0
 10
3300.0849181903040517
 20
163.8470373499818891
 30
0.0
 11
3300.0849181903040517
 21
163.965147586281887
 31
0.0
  0
LINE
  5
2ADCF
  8
0
 10
3300.0996416107350342
 20
163.8470373499818891
 30
0.0
 11
3300.0996416107350342
 21
163.965147586281887
 31
0.0
  0
LINE
  5
2ADD0
  8
0
 10
3300.1038957526661761
 20
163.8470373499818891
 30
0.0
 11
3300.1038957526661761
 21
163.965147586281887
 31
0.0
  0
LINE
  5
2ADD1
  8
0
 10
3300.1155617560380051
 20
163.8470373499818891
 30
0.0
 11
3300.1155617560380051
 21
163.965147586281887
 31
0.0
  0
LINE
  5
2ADD2
  8
0
 10
3300.130179016675811
 20
163.8470373499818891
 30
0.0
 11
3300.130179016675811
 21
163.965147586281887
 31
0.0
  0
LINE
  5
2ADD3
  8
0
 10
3300.1350270024258862
 20
163.8470373499818891
 30
0.0
 11
3300.1350270024258862
 21
163.965147586281887
 31
0.0
  0
LINE
  5
2ADD4
  8
0
 10
3300.1469786318871229
 20
163.8470373499818891
 30
0.0
 11
3300.1469786318871229
 21
163.965147586281887
 31
0.0
  0
LINE
  5
2ADD5
  8
0
 10
3300.161464089088895
 20
163.8470373499818891
 30
0.0
 11
3300.161464089088895
 21
163.965147586281887
 31
0.0
  0
LINE
  5
2ADD6
  8
0
 10
3300.1668974136600809
 20
163.8470373499818891
 30
0.0
 11
3300.1668974136600809
 21
163.965147586281887
 31
0.0
  0
LINE
  5
2ADD7
  8
0
 10
3300.1791137019740745
 20
163.8470373499818891
 30
0.0
 11
3300.1791137019740745
 21
163.965147586281887
 31
0.0
  0
LINE
  5
2ADD8
  8
0
 10
3300.1934419433760013
 20
163.8470373499818891
 30
0.0
 11
3300.1934419433760013
 21
163.965147586281887
 31
0.0
  0
LINE
  5
2ADD9
  8
0
 10
3300.1994510748118046
 20
163.8470373499818891
 30
0.0
 11
3300.1994510748118046
 21
163.965147586281887
 31
0.0
  0
LINE
  5
2ADDA
  8
0
 10
3300.2119105904671414
 20
163.8470373499818891
 30
0.0
 11
3300.2119105904671414
 21
163.965147586281887
 31
0.0
  0
LINE
  5
2ADDB
  8
0
 10
3300.2260564793650701
 20
163.8470373499818891
 30
0.0
 11
3300.2260564793650701
 21
163.965147586281887
 31
0.0
  0
LINE
  5
2ADDC
  8
0
 10
3300.2326308757069455
 20
163.8470373499818891
 30
0.0
 11
3300.2326308757069455
 21
163.965147586281887
 31
0.0
  0
LINE
  5
2ADDD
  8
0
 10
3300.245311760479126
 20
163.8470373499818891
 30
0.0
 11
3300.245311760479126
 21
163.965147586281887
 31
0.0
  0
LINE
  5
2ADDE
  8
0
 10
3300.2592504802260009
 20
163.8470373499818891
 30
0.0
 11
3300.2592504802260009
 21
163.965147586281887
 31
0.0
  0
LINE
  5
2ADDF
  8
0
 10
3300.2663786077000623
 20
163.8470373499818891
 30
0.0
 11
3300.2663786077000623
 21
163.965147586281887
 31
0.0
  0
LINE
  5
2ADE0
  8
0
 10
3300.2792586150080751
 20
163.8470373499818891
 30
0.0
 11
3300.2792586150080751
 21
163.965147586281887
 31
0.0
  0
LINE
  5
2ADE1
  8
0
 10
3300.2929657123540892
 20
163.8470373499818891
 30
0.0
 11
3300.2929657123540892
 21
163.965147586281887
 31
0.0
  0
LINE
  5
2ADE2
  8
0
 10
3300.3006350658010888
 20
163.8470373499818891
 30
0.0
 11
3300.3006350658010888
 21
163.965147586281887
 31
0.0
  0
LINE
  5
2ADE3
  8
0
 10
3300.3136915997351934
 20
163.8470373499818891
 30
0.0
 11
3300.3136915997351934
 21
163.965147586281887
 31
0.0
  0
LINE
  5
2ADE4
  8
0
 10
3300.3271430277741274
 20
163.8470373499818891
 30
0.0
 11
3300.3271430277741274
 21
163.965147586281887
 31
0.0
  0
LINE
  5
2ADE5
  8
0
 10
3300.3353401525300796
 20
163.8470373499818891
 30
0.0
 11
3300.3353401525300796
 21
163.965147586281887
 31
0.0
  0
LINE
  5
2ADE6
  8
0
 10
3300.348550307505775
 20
163.8470373499818891
 30
0.0
 11
3300.348550307505775
 21
163.965147586281887
 31
0.0
  0
LINE
  5
2ADE7
  8
0
 10
3300.3617224678619095
 20
163.8470373499818891
 30
0.0
 11
3300.3617224678619095
 21
163.965147586281887
 31
0.0
  0
LINE
  5
2ADE8
  8
0
 10
3300.3704329834099553
 20
163.8470373499818891
 30
0.0
 11
3300.3704329834099553
 21
163.965147586281887
 31
0.0
  0
LINE
  5
2ADE9
  8
0
 10
3300.3837735843349037
 20
163.8470373499818891
 30
0.0
 11
3300.3837735843349037
 21
163.965147586281887
 31
0.0
  0
LINE
  5
2ADEA
  8
0
 10
3300.4058519936379525
 20
163.8470373499818891
 30
0.0
 11
3300.4058519936379525
 21
163.965147586281887
 31
0.0
  0
LINE
  5
2ADEB
  8
0
 10
3300.3966433685891388
 20
163.8470373499818891
 30
0.0
 11
3300.3966433685891388
 21
163.965147586281887
 31
0.0
  0
LINE
  5
2ADEC
  8
0
 10
3300.419299636525011
 20
163.8470373499818891
 30
0.0
 11
3300.419299636525011
 21
163.965147586281887
 31
0.0
  0
LINE
  5
2ADED
  8
0
 10
3300.4318444666478172
 20
163.8470373499818891
 30
0.0
 11
3300.4318444666478172
 21
163.965147586281887
 31
0.0
  0
LINE
  5
2ADEE
  8
0
 10
3300.4415350462750212
 20
163.8470373499818891
 30
0.0
 11
3300.4415350462750212
 21
163.965147586281887
 31
0.0
  0
LINE
  5
2ADEF
  8
0
 10
3300.4550661394100644
 20
163.8470373499818891
 30
0.0
 11
3300.4550661394100644
 21
163.965147586281887
 31
0.0
  0
LINE
  5
2ADF0
  8
0
 10
3300.46726400753505
 20
163.8470373499818891
 30
0.0
 11
3300.46726400753505
 21
163.965147586281887
 31
0.0
  0
LINE
  5
2ADF1
  8
0
 10
3300.4774195411241635
 20
163.8470373499818891
 30
0.0
 11
3300.4774195411241635
 21
163.965147586281887
 31
0.0
  0
LINE
  5
2ADF2
  8
0
 10
3300.4910103463548694
 20
163.8470373499818891
 30
0.0
 11
3300.4910103463548694
 21
163.965147586281887
 31
0.0
  0
LINE
  5
2ADF3
  8
0
 10
3300.5028398533431755
 20
163.8470373499818891
 30
0.0
 11
3300.5028398533431755
 21
163.965147586281887
 31
0.0
  0
LINE
  5
2ADF4
  8
0
 10
3300.5134425245419152
 20
163.8470373499818891
 30
0.0
 11
3300.5134425245419152
 21
163.965147586281887
 31
0.0
  0
LINE
  5
2ADF5
  8
0
 10
3300.5270691990090199
 20
163.8470373499818891
 30
0.0
 11
3300.5270691990090199
 21
163.965147586281887
 31
0.0
  0
LINE
  5
2ADF6
  8
0
 10
3300.5385095917531544
 20
163.8470373499818891
 30
0.0
 11
3300.5385095917531544
 21
163.965147586281887
 31
0.0
  0
LINE
  5
2ADF7
  8
0
 10
3300.5495408000201678
 20
163.8470373499818891
 30
0.0
 11
3300.5495408000201678
 21
163.965147586281887
 31
0.0
  0
LINE
  5
2ADF8
  8
0
 10
3301.1813601190201553
 20
163.689557035181906
 30
0.0
 11
3301.1813601190201553
 21
157.6915255390819084
 31
0.0
  0
LINE
  5
2ADF9
  8
0
 10
3301.4382498833701902
 20
157.230895617781897
 30
0.0
 11
3301.692186891270012
 21
155.4789271138818947
 31
0.0
  0
ARC
  5
2ADFA
  8
0
 10
3301.1616619597020872
 20
157.4959715712828086
 30
0.0
 40
0.2480314958060961
 50
8.8300028231443246
 51
52.0384687032168429
  0
LINE
  5
2ADFB
  8
0
 10
3301.406753819720052
 20
157.4159349878819114
 30
0.0
 11
3301.406753819720052
 21
157.2781397122818987
 31
0.0
  0
LINE
  5
2ADFC
  8
0
 10
3301.3142341347202091
 20
157.2781397122818987
 30
0.0
 11
3301.3142341347202091
 21
157.230895617781897
 31
0.0
  0
ARC
  5
2ADFD
  8
0
 10
3301.1616619597020872
 20
163.8851110028809899
 30
0.0
 40
0.2480314958060961
 50
307.961531296783221
 51
351.169997176855702
  0
LINE
  5
2ADFE
  8
0
 10
3301.406753819720052
 20
163.965147586281887
 30
0.0
 11
3301.406753819720052
 21
164.1029428618818997
 31
0.0
  0
LINE
  5
2AE00
  8
0
 10
3299.7985071455209436
 20
157.2689653083006931
 30
0.0
 11
3299.8400102283699198
 21
157.2678407625818977
 31
0.0
  0
LINE
  5
2AE01
  8
0
 10
3299.8400102283699198
 20
157.2678407625818977
 30
0.0
 11
3300.1756129060700005
 21
157.2781395958818962
 31
0.0
  0
LINE
  5
2AE02
  8
0
 10
3299.8231488831711431
 20
157.2781397122818987
 30
0.0
 11
3299.8400102283699198
 21
157.2678407625818977
 31
0.0
  0
LINE
  5
2AE03
  8
0
 10
3299.4835254739700758
 20
155.4789271138818947
 30
0.0
 11
3299.5819506707698565
 21
155.3805019170818866
 31
0.0
  0
LINE
  5
2AE04
  8
0
 10
3299.5819506707698565
 20
155.3805019170818866
 30
0.0
 11
3299.5819506707698565
 21
154.1305019170818866
 31
0.0
  0
ARC
  5
2AE05
  8
0
 10
3300.556360119619967
 20
154.1305019170818866
 30
0.0
 40
0.97440944885
 50
180.0
 51
0.0
  0
LINE
  5
2AE06
  8
0
 10
3301.530769568470987
 20
154.1305019170818866
 30
0.0
 11
3301.530769568470987
 21
155.3805019170818866
 31
0.0
  0
LINE
  5
2AE07
  8
0
 10
3301.530769568470987
 20
155.3805019170818866
 30
0.0
 11
3301.6291947652712224
 21
155.4789271138818947
 31
0.0
  0
LINE
  5
2AE08
  8
0
 10
3299.5819506707698565
 20
155.3805019170818866
 30
0.0
 11
3301.530769568470987
 21
155.3805019170818866
 31
0.0
  0
ARC
  5
2AE09
  8
0
 10
3300.556360119619967
 20
156.4238090042819067
 30
0.0
 40
1.2795275583814461
 50
328.8336952801125221
 51
48.3471745005184701
  0
ARC
  5
2AE0A
  8
0
 10
3300.556360119619967
 20
156.4238090042819067
 30
0.0
 40
1.2795275583814461
 50
131.6528254994815086
 51
211.1663047198888989
  0
ENDSEC
  0
EOF
