  0
SECTION
  2
HEADER
  9
$ACADVER
  1
AC1009
  9
$INSBASE
 10
3336.7241841823911273
 20
164.8050117486220074
 30
0.0
  9
$EXTMIN
 10
3335.4446566245910617
 20
152.5274526934219921
 30
0.0
  9
$EXTMAX
 10
3338.0037117401911928
 20
164.8096939289376905
 30
0.0
  9
$LIMMIN
 10
0.0
 20
0.0
  9
$LIMMAX
 10
11.6929133858000007
 20
8.2677165353999982
  9
$ORTHOMODE
 70
     0
  9
$REGENMODE
 70
     1
  9
$FILLMODE
 70
     1
  9
$QTEXTMODE
 70
     0
  9
$MIRRTEXT
 70
     0
  9
$DRAGMODE
 70
     2
  9
$LTSCALE
 40
0.6431102362
  9
$OSMODE
 70
  4095
  9
$ATTMODE
 70
     1
  9
$TEXTSIZE
 40
0.2
  9
$TRACEWID
 40
0.05
  9
$TEXTSTYLE
  7
STANDARD
  9
$CLAYER
  8
0
  9
$CELTYPE
  6
BYLAYER
  9
$CECOLOR
 62
   256
  9
$DIMSCALE
 40
1.0
  9
$DIMASZ
 40
0.1875
  9
$DIMEXO
 40
0.0625
  9
$DIMDLI
 40
0.4443307087
  9
$DIMRND
 40
0.0
  9
$DIMDLE
 40
0.0
  9
$DIMEXE
 40
0.125
  9
$DIMTP
 40
0.01
  9
$DIMTM
 40
0.01
  9
$DIMTXT
 40
2.0
  9
$DIMCEN
 40
0.1052362205
  9
$DIMTSZ
 40
0.0
  9
$DIMTOL
 70
     1
  9
$DIMLIM
 70
     0
  9
$DIMTIH
 70
     1
  9
$DIMTOH
 70
     1
  9
$DIMSE1
 70
     0
  9
$DIMSE2
 70
     0
  9
$DIMTAD
 70
     0
  9
$DIMZIN
 70
     0
  9
$DIMBLK
  1

  9
$DIMASO
 70
     1
  9
$DIMSHO
 70
     1
  9
$DIMPOST
  1
\X
  9
$DIMAPOST
  1

  9
$DIMALT
 70
     1
  9
$DIMALTD
 70
     2
  9
$DIMALTF
 40
25.3999999999999986
  9
$DIMLFAC
 40
1.0
  9
$DIMTOFL
 70
     0
  9
$DIMTVP
 40
0.0
  9
$DIMTIX
 70
     0
  9
$DIMSOXD
 70
     0
  9
$DIMSAH
 70
     0
  9
$DIMBLK1
  1

  9
$DIMBLK2
  1

  9
$DIMSTYLE
  2
STANDARD
  9
$DIMCLRD
 70
     0
  9
$DIMCLRE
 70
     0
  9
$DIMCLRT
 70
     0
  9
$DIMTFAC
 40
1.0
  9
$DIMGAP
 40
0.09
  9
$LUNITS
 70
     2
  9
$LUPREC
 70
     4
  9
$SKETCHINC
 40
0.1
  9
$FILLETRAD
 40
0.0
  9
$AUNITS
 70
     0
  9
$AUPREC
 70
     0
  9
$MENU
  1
.
  9
$ELEVATION
 40
0.0
  9
$PELEVATION
 40
0.0
  9
$THICKNESS
 40
0.0
  9
$LIMCHECK
 70
     0
  9
$BLIPMODE
 70
     0
  9
$CHAMFERA
 40
0.0
  9
$CHAMFERB
 40
0.0
  9
$SKPOLY
 70
     0
  9
$TDCREATE
 40
2458060.468368056230247
  9
$TDUPDATE
 40
2460578.6995833329856396
  9
$TDINDWG
 40
0.9724028935
  9
$TDUSRTIMER
 40
0.9724028935
  9
$USRTIMER
 70
     1
  9
$ANGBASE
 50
0.0
  9
$ANGDIR
 70
     0
  9
$PDMODE
 70
     0
  9
$PDSIZE
 40
0.3125
  9
$PLINEWID
 40
0.0
  9
$COORDS
 70
     1
  9
$SPLFRAME
 70
     0
  9
$SPLINETYPE
 70
     6
  9
$SPLINESEGS
 70
     8
  9
$ATTDIA
 70
     1
  9
$ATTREQ
 70
     1
  9
$HANDLING
 70
     1
  9
$HANDSEED
  5
2B91F
  9
$SURFTAB1
 70
     6
  9
$SURFTAB2
 70
     6
  9
$SURFTYPE
 70
     6
  9
$SURFU
 70
     6
  9
$SURFV
 70
     6
  9
$UCSNAME
  2

  9
$UCSORG
 10
0.0
 20
0.0
 30
0.0
  9
$UCSXDIR
 10
1.0
 20
0.0
 30
0.0
  9
$UCSYDIR
 10
0.0
 20
1.0
 30
0.0
  9
$PUCSNAME
  2

  9
$PUCSORG
 10
0.0
 20
0.0
 30
0.0
  9
$PUCSXDIR
 10
1.0
 20
0.0
 30
0.0
  9
$PUCSYDIR
 10
0.0
 20
1.0
 30
0.0
  9
$USERI1
 70
     0
  9
$USERI2
 70
     0
  9
$USERI3
 70
     0
  9
$USERI4
 70
     0
  9
$USERI5
 70
     0
  9
$USERR1
 40
0.0
  9
$USERR2
 40
0.0
  9
$USERR3
 40
0.0
  9
$USERR4
 40
0.0
  9
$USERR5
 40
0.0
  9
$WORLDVIEW
 70
     1
  9
$SHADEDGE
 70
     3
  9
$SHADEDIF
 70
    70
  9
$TILEMODE
 70
     1
  9
$MAXACTVP
 70
    64
  9
$PLIMCHECK
 70
     0
  9
$PEXTMIN
 10
1.0000000000000000E+20
 20
1.0000000000000000E+20
 30
1.0000000000000000E+20
  9
$PEXTMAX
 10
-1.0000000000000000E+20
 20
-1.0000000000000000E+20
 30
-1.0000000000000000E+20
  9
$PLIMMIN
 10
0.0
 20
0.0
  9
$PLIMMAX
 10
12.0
 20
9.0
  9
$UNITMODE
 70
     0
  9
$VISRETAIN
 70
     1
  9
$PLINEGEN
 70
     0
  9
$PSLTSCALE
 70
     1
  0
ENDSEC
  0
SECTION
  2
TABLES
  0
TABLE
  2
VPORT
 70
     1
  0
VPORT
  2
*ACTIVE
 70
     0
 10
0.0
 20
0.0
 11
1.0
 21
1.0
 12
73.335146096453613
 22
6.9468707354962751
 13
0.0
 23
0.0
 14
1.0
 24
1.0
 15
0.0
 25
0.0
 16
0.0
 26
0.0
 36
92.3385285193394054
 17
3263.3890380859379547
 27
151.7217025756835938
 37
0.0
 40
12.3803300600126498
 41
2.4792207792207792
 42
50.0
 43
0.0
 44
0.0
 50
0.0
 51
0.0
 71
     0
 72
   100
 73
     1
 74
     1
 75
     0
 76
     0
 77
     0
 78
     0
  0
ENDTAB
  0
TABLE
  2
LTYPE
 70
     2
  0
LTYPE
  2
CONTINUOUS
 70
     0
  3
Solid line
 72
    65
 73
     0
 40
0.0
  0
LTYPE
  2
PHANTOM2
 70
     0
  3
___ _ _ ___ _ _ ___ _ _ ___ _ _
 72
    65
 73
     6
 40
1.25
 49
0.625
 49
-0.125
 49
0.125
 49
-0.125
 49
0.125
 49
-0.125
  0
ENDTAB
  0
TABLE
  2
LAYER
 70
     2
  0
LAYER
  2
0
 70
     0
 62
   255
  6
CONTINUOUS
  0
LAYER
  2
DEFPOINTS
 70
     0
 62
     7
  6
CONTINUOUS
  0
ENDTAB
  0
TABLE
  2
STYLE
 70
     1
  0
STYLE
  2
STANDARD
 70
     0
 40
0.0
 41
0.8
 50
0.0
 71
     0
 42
0.2
  3
txt
  4

  0
ENDTAB
  0
TABLE
  2
VIEW
 70
     1
  0
ENDTAB
  0
TABLE
  2
UCS
 70
     0
  0
ENDTAB
  0
TABLE
  2
APPID
 70
    10
  0
APPID
  2
ACAD
 70
     0
  0
APPID
  2
ACAD_MLEADERVER
 70
     0
  0
APPID
  2
ACAD_EXEMPT_FROM_CAD_STANDARDS
 70
     0
  0
APPID
  2
ACAD_NAV_VCDISPLAY
 70
     0
  0
APPID
  2
ACAECLAYERSTANDARD
 70
     0
  0
APPID
  2
ACCMTRANSPARENCY
 70
     0
  0
APPID
  2
ACAD_DSTYLE_DIMJAG
 70
     0
  0
APPID
  2
ACAD_DSTYLE_DIMTALN
 70
     0
  0
APPID
  2
ACDBATTR
 70
     0
  0
APPID
  2
ACADANNOTATIVE
 70
     0
  0
ENDTAB
  0
TABLE
  2
DIMSTYLE
 70
     1
  0
DIMSTYLE
  2
STANDARD
 70
     0
  3

  4

  5

  6

  7

 40
1.0
 41
0.1875
 42
0.0625
 43
0.38
 44
0.125
 45
0.0
 46
0.0
 47
0.01
 48
0.01
140
0.15625
141
0.09
142
0.0
143
25.3999999999999986
144
1.0
145
0.0
146
1.0
147
0.09
 71
     1
 72
     0
 73
     1
 74
     1
 75
     0
 76
     0
 77
     0
 78
     4
170
     0
171
     2
172
     0
173
     0
174
     0
175
     0
176
     0
177
     0
178
     0
  0
ENDTAB
  0
ENDSEC
  0
SECTION
  2
BLOCKS
  0
BLOCK
  8
0
  2
$MODEL_SPACE
 70
     0
 10
0.0
 20
0.0
 30
0.0
  3
$MODEL_SPACE
  1

  0
ENDBLK
  5
21
  8
0
  0
BLOCK
 67
     1
  8
0
  2
$PAPER_SPACE
 70
     0
 10
0.0
 20
0.0
 30
0.0
  3
$PAPER_SPACE
  1

  0
ENDBLK
  5
1D
 67
     1
  8
0
  0
BLOCK
  8
0
  2
_FILLED
 70
     0
 10
0.0
 20
0.0
 30
0.0
  3
_FILLED
  1

  0
SOLID
  5
2AAC1
  8
0
  6
BYBLOCK
 62
     0
 10
0.0
 20
0.0
 30
0.0
 11
-1.0
 21
0.1666666667
 31
0.0
 12
-1.0
 22
-0.1666666667
 32
0.0
 13
-1.0
 23
-0.1666666667
 33
0.0
  0
ENDBLK
  5
2AAC2
  8
0
  6
BYBLOCK
 62
     0
  0
ENDSEC
  0
SECTION
  2
ENTITIES
  0
ATTDEF
  5
2143C
  8
DEFPOINTS
 10
3336.7226371322371961
 20
164.8086939289376005
 30
0.0
 40
0.001
  1
K-7314IN
  3

  2
MODELNUMBER
 70
     0
1001
ACDBATTR
1070
     0
1070
     1
  0
ATTDEF
  5
2143D
  8
DEFPOINTS
 10
3336.7226371322371961
 20
164.8070272622709922
 30
0.0
 40
0.001
  1
COMPLEMENTARY
  3

  2
TRADENAME
 70
     0
1001
ACDBATTR
1070
     0
1070
     1
  0
ATTDEF
  5
2143E
  8
DEFPOINTS
 10
3336.7226371322371961
 20
164.8053605956042986
 30
0.0
 40
0.001
  1
BOTTLE TRAP
  3

  2
PRODUCT
 70
     0
1001
ACDBATTR
1070
     0
1070
     1
  0
LINE
  5
2B5ED
  8
0
 10
3338.0037117401911928
 20
164.8050117486220074
 30
0.0
 11
3335.4446566245910617
 21
164.8050117486220074
 31
0.0
  0
LINE
  5
2B5EE
  8
0
 10
3336.0041640256818027
 20
164.3325708040219979
 30
0.0
 11
3337.4442043391009065
 21
164.3325708040219979
 31
0.0
  0
LINE
  5
2B5EF
  8
0
 10
3336.099184182990939
 20
164.3325708040219979
 30
0.0
 11
3336.099184182990939
 21
155.4546180478220094
 31
0.0
  0
LINE
  5
2B5F0
  8
0
 10
3335.4446566245910617
 20
164.6320126597653939
 30
0.0
 11
3335.4446566245910617
 21
164.8050117486220074
 31
0.0
  0
ARC
  5
2B5F1
  8
0
 10
3335.6969505527399633
 20
164.6397720468937109
 30
0.0
 40
0.252413221265009
 50
181.7615962539742043
 51
218.3149223915021935
  0
ARC
  5
2B5F2
  8
0
 10
3335.7665848953029126
 20
164.7222567809533871
 30
0.0
 40
0.3588360085157659
 50
221.7573675168814873
 51
251.8919782601456063
  0
ARC
  5
2B5F3
  8
0
 10
3335.9224473099520765
 20
165.1791944350266022
 30
0.0
 40
0.8416083463997392
 50
251.4751729971758039
 51
262.9281002443203192
  0
ARC
  5
2B5F4
  8
0
 10
3336.0098433958360147
 20
165.9345824306982138
 30
0.0
 40
1.6020216937517411
 50
263.1522813880413878
 51
269.796878766962493
  0
LINE
  5
2B5F5
  8
0
 10
3338.0037117401911928
 20
164.6320126597653939
 30
0.0
 11
3338.0037117401911928
 21
164.8050117486220074
 31
0.0
  0
ARC
  5
2B5F6
  8
0
 10
3337.7514178120418364
 20
164.6397720468937109
 30
0.0
 40
0.252413221265009
 50
321.6850776084978065
 51
358.2384037460258241
  0
ARC
  5
2B5F7
  8
0
 10
3337.6817834694788871
 20
164.7222567809533871
 30
0.0
 40
0.3588360085157659
 50
288.1080217398535979
 51
318.2426324831184274
  0
ARC
  5
2B5F8
  8
0
 10
3337.5259210548310875
 20
165.1791944350266022
 30
0.0
 40
0.8416083463997392
 50
277.0718997556797945
 51
288.5248270028242246
  0
ARC
  5
2B5F9
  8
0
 10
3337.4385249689457851
 20
165.9345824306982138
 30
0.0
 40
1.6020216937517411
 50
270.203121233037507
 51
276.8477186119586122
  0
LINE
  5
2B5FA
  8
0
 10
3335.9663101672908851
 20
155.4546180478220094
 30
0.0
 11
3337.4820581974909146
 21
155.4546180478220094
 31
0.0
  0
LINE
  5
2B5FB
  8
0
 10
3335.8737904822910423
 20
155.0412322210218861
 30
0.0
 11
3337.5745778824921217
 21
155.0412322210218861
 31
0.0
  0
CIRCLE
  5
2B5FC
  8
0
 10
3336.7241841823911273
 20
153.6632794651218887
 30
0.0
 40
0.8503937000999998
  0
ARC
  5
2B5FD
  8
0
 10
3336.7241841823911273
 20
153.6632794651218887
 30
0.0
 40
0.8622047243999997
 50
269.5468335782566101
 51
270.4531665089003809
  0
LINE
  5
2B5FE
  8
0
 10
3336.7063336558908304
 20
152.8111041975220132
 30
0.0
 11
3336.717364864090996
 21
152.8011017087220011
 31
0.0
  0
LINE
  5
2B5FF
  8
0
 10
3336.7310035019909265
 20
152.8011017087220011
 30
0.0
 11
3336.742034710191092
 21
152.8111041975220132
 31
0.0
  0
ARC
  5
2B600
  8
0
 10
3336.7241841823911273
 20
153.6632794651218887
 30
0.0
 40
0.8622047243999995
 50
271.9468335782599979
 51
272.8531665088959244
  0
LINE
  5
2B601
  8
0
 10
3336.7420347102588494
 20
152.8111041975506055
 30
0.0
 11
3336.753475102972061
 21
152.8015724216874958
 31
0.0
  0
LINE
  5
2B602
  8
0
 10
3336.7671017774691791
 20
152.8021435485655104
 30
0.0
 11
3336.7777044486679188
 21
152.8125992025381947
 31
0.0
  0
ARC
  5
2B603
  8
0
 10
3336.7241841823911273
 20
153.6632794651218887
 30
0.0
 40
0.8622047243999995
 50
274.3468335782516192
 51
275.2531665088881141
  0
LINE
  5
2B604
  8
0
 10
3336.7777044487338571
 20
152.812599202569686
 30
0.0
 11
3336.7895339556248473
 21
152.8035548616171866
 31
0.0
  0
LINE
  5
2B605
  8
0
 10
3336.8031247609019374
 20
152.8046961134226933
 30
0.0
 11
3336.8132802944119248
 21
152.8155865897981869
 31
0.0
  0
ARC
  5
2B606
  8
0
 10
3336.7241841823911273
 20
153.6632794651218887
 30
0.0
 40
0.8622047243999997
 50
276.746833578271719
 51
277.6531665089009948
  0
LINE
  5
2B607
  8
0
 10
3336.8132802944769537
 20
152.8155865898322929
 30
0.0
 11
3336.8254781625701071
 21
152.8070455506378948
 31
0.0
  0
LINE
  5
2B608
  8
0
 10
3336.8390092557360731
 20
152.8087549252273902
 30
0.0
 11
3336.8486998353000672
 21
152.8200611184093987
 31
0.0
  0
ARC
  5
2B609
  8
0
 10
3336.7241841823911273
 20
153.6632794651218887
 30
0.0
 40
0.8622047243999995
 50
279.1468335782615213
 51
280.0531665088798263
  0
LINE
  5
2B60A
  8
0
 10
3336.8486998353628223
 20
152.8200611184462048
 30
0.0
 11
3336.8612446654528867
 21
152.812038364894903
 31
0.0
  0
LINE
  5
2B60B
  8
0
 10
3336.8746923083740512
 20
152.8143128634443997
 30
0.0
 11
3336.8839009334219554
 21
152.8260149385282887
 31
0.0
  0
ARC
  5
2B60C
  8
0
 10
3336.7241841823911273
 20
153.6632794651218887
 30
0.0
 40
0.8622047243999995
 50
281.546833578266785
 51
282.4531665088875911
  0
LINE
  5
2B60D
  8
0
 10
3336.8839009334828916
 20
152.8260149385677096
 30
0.0
 11
3336.8967707176761905
 21
152.8185245452951904
 31
0.0
  0
LINE
  5
2B60E
  8
0
 10
3336.9101113186147813
 20
152.8213601775615018
 30
0.0
 11
3336.9188218340900676
 21
152.8334376051311949
 31
0.0
  0
ARC
  5
2B60F
  8
0
 10
3336.7241841823911273
 20
153.6632794651220024
 30
0.0
 40
0.8622047243999995
 50
283.9468335782462987
 51
284.8531665088883074
  0
LINE
  5
2B610
  8
0
 10
3336.9188218341500942
 20
152.8334376051732022
 30
0.0
 11
3336.9319939944712132
 21
152.8264927128747104
 31
0.0
  0
LINE
  5
2B611
  8
0
 10
3336.9452041494810146
 20
152.8298845041950926
 30
0.0
 11
3336.9534012741792139
 21
152.842316096338692
 31
0.0
  0
ARC
  5
2B612
  8
0
 10
3336.7241841823911273
 20
153.6632794651220024
 30
0.0
 40
0.8622047243999997
 50
286.3468335782603731
 51
287.2531665088882846
  0
LINE
  5
2B613
  8
0
 10
3336.9534012742378764
 20
152.8423160963832004
 30
0.0
 11
3336.9668527022408853
 21
152.8359288887596108
 31
0.0
  0
LINE
  5
2B614
  8
0
 10
3336.9799092362218289
 20
152.8398708887797
 30
0.0
 11
3336.9875785896019806
 21
152.8526348362603073
 31
0.0
  0
ARC
  5
2B615
  8
0
 10
3336.7241841823911273
 20
153.6632794651220024
 30
0.0
 40
0.8622047243999995
 50
288.7468335782513122
 51
289.6531665088758132
  0
LINE
  5
2B616
  8
0
 10
3336.9875785896579146
 20
152.8526348363070895
 30
0.0
 11
3337.0012856869670941
 21
152.8468165186910994
 31
0.0
  0
LINE
  5
2B617
  8
0
 10
3337.0141656943228554
 20
152.851301811803296
 30
0.0
 11
3337.0212938217309784
 21
152.8643757223198065
 31
0.0
  0
ARC
  5
2B618
  8
0
 10
3336.7241841823911273
 20
153.6632794651220024
 30
0.0
 40
0.8622047243999997
 50
291.1468335782470263
 51
292.0531665088867044
  0
LINE
  5
2B619
  8
0
 10
3337.0212938217850933
 20
152.8643757223688908
 30
0.0
 11
3337.0352325414951338
 21
152.8591365020664909
 31
0.0
  0
LINE
  5
2B61A
  8
0
 10
3337.0479134263141532
 20
152.8641572195427045
 30
0.0
 11
3337.0544878225941829
 21
152.8775181570134976
 31
0.0
  0
ARC
  5
2B61B
  8
0
 10
3336.7241841823911273
 20
153.6632794651220024
 30
0.0
 40
0.8622047243999995
 50
293.5468335782572922
 51
294.4531665088902059
  0
LINE
  5
2B61C
  8
0
 10
3337.0544878226469336
 20
152.8775181570649124
 30
0.0
 11
3337.0686337115071183
 21
152.8728672254488004
 31
0.0
  0
LINE
  5
2B61D
  8
0
 10
3337.0810932272088394
 20
152.8784145592443906
 30
0.0
 11
3337.0871023586360025
 21
152.8920390840451091
 31
0.0
  0
ARC
  5
2B61E
  8
0
 10
3336.7241841823911273
 20
153.6632794651220024
 30
0.0
 40
0.8622047243999997
 50
295.9468335782522104
 51
296.8531665088793829
  0
LINE
  5
2B61F
  8
0
 10
3337.0871023586842057
 20
152.8920390840985988
 30
0.0
 11
3337.101430599998821
 21
152.8879846004834064
 31
0.0
  0
LINE
  5
2B620
  8
0
 10
3337.1136468883601083
 20
152.8940488186898961
 30
0.0
 11
3337.1190802128739961
 21
152.9079130287744022
 31
0.0
  0
ARC
  5
2B621
  8
0
 10
3336.7241841823911273
 20
153.6632794651220024
 30
0.0
 40
0.8622047243999997
 50
298.3468335782624763
 51
299.2531665088778254
  0
LINE
  5
2B622
  8
0
 10
3337.1190802129221993
 20
152.9079130288299098
 30
0.0
 11
3337.1335656700862273
 21
152.9044621061574958
 31
0.0
  0
LINE
  5
2B623
  8
0
 10
3337.1455172995838439
 20
152.911032570075605
 30
0.0
 11
3337.150365285288899
 21
152.9251121429082048
 31
0.0
  0
ARC
  5
2B624
  8
0
 10
3336.7241841823911273
 20
153.6632794651220024
 30
0.0
 40
0.8622047243999997
 50
300.7468335782644999
 51
301.6531665088899103
  0
LINE
  5
2B625
  8
0
 10
3337.150365285333919
 20
152.9251121429657019
 30
0.0
 11
3337.1649825459339809
 21
152.9222708353271116
 31
0.0
  0
LINE
  5
2B626
  8
0
 10
3337.1766485493521941
 20
152.9293360181304138
 30
0.0
 11
3337.1809026912328591
 21
152.9436062533561937
 31
0.0
  0
ARC
  5
2B627
  8
0
 10
3336.7241841823911273
 20
153.6632794651220024
 30
0.0
 40
0.8622047243999995
 50
303.146833578262715
 51
304.0531665088764726
  0
LINE
  5
2B628
  8
0
 10
3337.1809026912751506
 20
152.9436062534155099
 30
0.0
 11
3337.1956261116688438
 21
152.9413795454298111
 31
0.0
  0
LINE
  5
2B629
  8
0
 10
3337.2069860228712059
 20
152.9489270523868072
 30
0.0
 11
3337.2106388577180951
 21
152.9633629151641969
 31
0.0
  0
ARC
  5
2B62A
  8
0
 10
3336.7241841823911273
 20
153.6632794651220024
 30
0.0
 40
0.8622047243999995
 50
305.546833578247174
 51
306.4531665088977093
  0
LINE
  5
2B62B
  8
0
 10
3337.2106388577581129
 20
152.9633629152251899
 30
0.0
 11
3337.2254426080630765
 21
152.9617547132947948
 31
0.0
  0
LINE
  5
2B62C
  8
0
 10
3337.2364764979038227
 20
152.9697713035139088
 30
0.0
 11
3337.2395216174040797
 21
152.9843474684340094
 31
0.0
  0
ARC
  5
2B62D
  8
0
 10
3336.7241841823911273
 20
153.6632794651220024
 30
0.0
 40
0.8622047243999995
 50
307.946833578243627
 51
308.853166508873926
  0
LINE
  5
2B62E
  8
0
 10
3337.2395216174409143
 20
152.984347468496594
 30
0.0
 11
3337.254379726849038
 21
152.9833605939543872
 31
0.0
  0
LINE
  5
2B62F
  8
0
 10
3337.2650682381390652
 20
152.991832203612006
 30
0.0
 11
3337.2675003001158984
 21
153.0065230991287137
 31
0.0
  0
ARC
  5
2B630
  8
0
 10
3336.7241841823911273
 20
153.6632794651220024
 30
0.0
 40
0.8622047243999995
 50
310.3468335782415011
 51
311.2531665088931732
  0
LINE
  5
2B631
  8
0
 10
3337.2675003001500045
 20
153.00652309919289
 30
0.0
 11
3337.2823867024890205
 21
153.0061592833519057
 31
0.0
  0
LINE
  5
2B632
  8
0
 10
3337.2927110839450506
 20
153.0150710503660889
 30
0.0
 11
3337.2945258217368973
 21
153.0298509036566941
 31
0.0
  0
ARC
  5
2B633
  8
0
 10
3336.7241841823911273
 20
153.6632794651220024
 30
0.0
 40
0.8622047243999997
 50
312.7468335782511986
 51
313.6531665088912746
  0
LINE
  5
2B634
  8
0
 10
3337.2945258217691844
 20
153.0298509037222914
 30
0.0
 11
3337.3094144012297875
 21
153.0301107848391098
 31
0.0
  0
LINE
  5
2B635
  8
0
 10
3337.3193565403798857
 20
153.0394470749423874
 30
0.0
 11
3337.3205507703200965
 21
153.0542899571219095
 31
0.0
  0
ARC
  5
2B636
  8
0
 10
3336.7241841823911273
 20
153.6632794651220024
 30
0.0
 40
0.8622047243999997
 50
315.1468335782507779
 51
316.053166508870504
  0
LINE
  5
2B637
  8
0
 10
3337.3205507703501098
 20
153.0542899571887858
 30
0.0
 11
3337.3354154073040263
 21
153.0551730793438026
 31
0.0
  0
LINE
  5
2B638
  8
0
 10
3337.3449578622571607
 20
153.064917513510693
 30
0.0
 11
3337.3455294892610254
 21
153.0797973851202016
 31
0.0
  0
ARC
  5
2B639
  8
0
 10
3336.7241841823911273
 20
153.6632794651220024
 30
0.0
 40
0.8622047243999997
 50
317.5468335782563827
 51
318.4531665088708792
  0
LINE
  5
2B63A
  8
0
 10
3337.345529489286946
 20
153.0797973851881864
 30
0.0
 11
3337.3603441061118247
 21
153.0813021990850018
 31
0.0
  0
LINE
  5
2B63B
  8
0
 10
3337.3694701361600892
 20
153.0914376822668999
 30
0.0
 11
3337.3694181573978312
 21
153.1063284389553871
 31
0.0
  0
ARC
  5
2B63C
  8
0
 10
3336.7241841823911273
 20
153.6632794651220024
 30
0.0
 40
0.8622047243999997
 50
319.946833578240728
 51
320.853166508883703
  0
LINE
  5
2B63D
  8
0
 10
3337.3694181574219328
 20
153.106328439024395
 30
0.0
 11
3337.3841567642461996
 21
153.1084523047080097
 31
0.0
  0
LINE
  5
2B63E
  8
0
 10
3337.392850359230124
 20
153.1189610558234051
 30
0.0
 11
3337.392174865891775
 21
153.1338365741436007
 31
0.0
  0
ARC
  5
2B63F
  8
0
 10
3336.7241841823911273
 20
153.6632794651220024
 30
0.0
 40
0.8622047243999995
 50
322.3468335782637268
 51
323.2531665088728232
  0
LINE
  5
2B640
  8
0
 10
3337.3921748659131481
 20
153.1338365742136887
 30
0.0
 11
3337.4068116062107947
 21
153.1365757657019913
 31
0.0
  0
LINE
  5
2B641
  8
0
 10
3337.4150575146131814
 20
153.1474393488304884
 30
0.0
 11
3337.4137596917430528
 21
153.1622735320686104
 31
0.0
  0
ARC
  5
2B642
  8
0
 10
3336.7241841823911273
 20
153.6632794651220024
 30
0.0
 40
0.8622047243999997
 50
324.7468335782676263
 51
325.6531665088717205
  0
LINE
  5
2B643
  8
0
 10
3337.413759691760788
 20
153.1622735321394089
 30
0.0
 11
3337.4282688877151486
 21
153.1656232439599137
 31
0.0
  0
LINE
  5
2B644
  8
0
 10
3337.4360526434102212
 20
153.1768226006851137
 30
0.0
 11
3337.4341347678300735
 21
153.191589424643098
 31
0.0
  0
ARC
  5
2B645
  8
0
 10
3336.7241841823911273
 20
153.6632794651220024
 30
0.0
 40
0.8622047243999997
 50
327.1468335782581107
 51
328.0531665088805084
  0
LINE
  5
2B646
  8
0
 10
3337.4341347678450802
 20
153.191589424714607
 30
0.0
 11
3337.4484909653970135
 21
153.1955437803343898
 31
0.0
  0
LINE
  5
2B647
  8
0
 10
3337.455798913030776
 20
153.2070592631791897
 30
0.0
 11
3337.4532643493480464
 21
153.2217328218299031
 31
0.0
  0
ARC
  5
2B648
  8
0
 10
3336.7241841823911273
 20
153.6632794651220024
 30
0.0
 40
0.8622047243999997
 50
329.5468335782438771
 51
330.4531665088945829
  0
LINE
  5
2B649
  8
0
 10
3337.4532643493598698
 20
153.2217328219020942
 30
0.0
 11
3337.4674423628612203
 21
153.2262848840377103
 31
0.0
  0
LINE
  5
2B64A
  8
0
 10
3337.4742616818111856
 20
153.2380962909321056
 30
0.0
 11
3337.4711148765090911
 21
153.2526508418677054
 31
0.0
  0
ARC
  5
2B64B
  8
0
 10
3336.7241841823911273
 20
153.6632794651220024
 30
0.0
 40
0.8622047243999995
 50
331.9468335782449913
 51
332.8531665088815998
  0
LINE
  5
2B64C
  8
0
 10
3337.4711148765181861
 20
153.2526508419402091
 30
0.0
 11
3337.4850898329159463
 21
153.2577926247278981
 31
0.0
  0
LINE
  5
2B64D
  8
0
 10
3337.4914085597802114
 20
153.2698792344507126
 30
0.0
 11
3337.4876550334251988
 21
153.2842892440432081
 31
0.0
  0
ARC
  5
2B64E
  8
0
 10
3336.7241841823911273
 20
153.6632794651220024
 30
0.0
 40
0.8622047243999995
 50
334.3468335782661143
 51
335.2531665088843056
  0
LINE
  5
2B64F
  8
0
 10
3337.4876550334311105
 20
153.2842892441159961
 30
0.0
 11
3337.5014024159008841
 21
153.2900117271215947
 31
0.0
  0
LINE
  5
2B650
  8
0
 10
3337.5072094654838111
 20
153.3023523356523015
 30
0.0
 11
3337.5028558030389831
 21
153.3165925238481861
 31
0.0
  0
ARC
  5
2B651
  8
0
 10
3336.7241841823911273
 20
153.6632794651220024
 30
0.0
 40
0.8622047243999997
 50
336.7468335782585882
 51
337.6531665088851923
  0
LINE
  5
2B652
  8
0
 10
3337.5028558030408021
 20
153.3165925239210878
 30
0.0
 11
3337.5163514940049936
 21
153.322885667964897
 31
0.0
  0
LINE
  5
2B653
  8
0
 10
3337.5216366787699371
 20
153.3354586256828043
 30
0.0
 11
3337.5166905180358299
 21
153.3495040103532006
 31
0.0
  0
ARC
  5
2B654
  8
0
 10
3336.7241841823911273
 20
153.6632794651220024
 30
0.0
 40
0.8622047243999995
 50
339.1468335782437862
 51
340.0531665088728914
  0
LINE
  5
2B655
  8
0
 10
3337.5166905180349204
 20
153.3495040104261875
 30
0.0
 11
3337.5299108414637885
 21
153.3563567751951098
 31
0.0
  0
LINE
  5
2B656
  8
0
 10
3337.5346648894001191
 20
153.3691400248598882
 30
0.0
 11
3337.5291349076242113
 21
153.3829659656275055
 31
0.0
  0
ARC
  5
2B657
  8
0
 10
3336.7241841823911273
 20
153.6632794651220877
 30
0.0
 40
0.8622047243999997
 50
341.5468335782568943
 51
342.4531665088762793
  0
LINE
  5
2B658
  8
0
 10
3337.5291349076210281
 20
153.3829659657004072
 30
0.0
 11
3337.5420566705761303
 21
153.3903663291164037
 31
0.0
  0
LINE
  5
2B659
  8
0
 10
3337.5462712414669113
 20
153.4033374445646132
 30
0.0
 11
3337.5401671401168642
 21
153.416919686031008
 31
0.0
  0
ARC
  5
2B65A
  8
0
 10
3336.7241841823911273
 20
153.6632794651220877
 30
0.0
 40
0.8622047243999995
 50
343.9468335782580084
 51
344.8531665088801788
  0
LINE
  5
2B65B
  8
0
 10
3337.540167140110043
 20
153.416919686103796
 30
0.0
 11
3337.5527676734282068
 21
153.4248546654148129
 31
0.0
  0
LINE
  5
2B65C
  8
0
 10
3337.5564353734848737
 20
153.4379908909021992
 30
0.0
 11
3337.5497678612277923
 21
153.4513056052007016
 31
0.0
  0
ARC
  5
2B65D
  8
0
 10
3336.7241841823911273
 20
153.6632794651220877
 30
0.0
 40
0.8622047243999997
 50
346.3468335782574172
 51
347.2531665088852151
  0
LINE
  5
2B65E
  8
0
 10
3337.5497678612191521
 20
153.4513056052730917
 30
0.0
 11
3337.5620250592810407
 21
153.4597612798291095
 31
0.0
  0
LINE
  5
2B65F
  8
0
 10
3337.5651394541127956
 20
153.4730395699525047
 30
0.0
 11
3337.5579202280318896
 21
153.4860633985499874
 31
0.0
  0
ARC
  5
2B660
  8
0
 10
3336.7241841823911273
 20
153.6632794651220877
 30
0.0
 40
0.8622047243999997
 50
348.7468335782442068
 51
349.6531665088866134
  0
LINE
  5
2B661
  8
0
 10
3337.5579202280191566
 20
153.4860633986218943
 30
0.0
 11
3337.5698125875369442
 21
153.4950249342963957
 31
0.0
  0
LINE
  5
2B662
  8
0
 10
3337.5723682134362207
 20
153.5084219944228892
 30
0.0
 11
3337.5646099385071466
 21
153.5211320890983018
 31
0.0
  0
ARC
  5
2B663
  8
0
 10
3336.7241841823911273
 20
153.6632794651220877
 30
0.0
 40
0.8622047243999997
 50
351.1468335782503232
 51
352.0531665088847717
  0
LINE
  5
2B664
  8
0
 10
3337.5646099384898662
 20
153.5211320891696971
 30
0.0
 11
3337.5761165962239829
 21
153.530583764384005
 31
0.0
  0
LINE
  5
2B665
  8
0
 10
3337.5781089697529751
 20
153.5440760915178089
 30
0.0
 11
3337.5698252566248811
 21
153.5564501544463099
 31
0.0
  0
ARC
  5
2B666
  8
0
 10
3336.7241841823911273
 20
153.6632794651220877
 30
0.0
 40
0.8622047243999995
 50
353.5468335782481972
 51
354.4531665088833847
  0
LINE
  5
2B667
  8
0
 10
3337.5698252566080555
 20
153.5564501545169094
 30
0.0
 11
3337.5809260259679832
 21
153.5663753878210969
 31
0.0
  0
LINE
  5
2B668
  8
0
 10
3337.582351651828958
 20
153.5799393118356022
 30
0.0
 11
3337.5735570329497932
 21
153.5919556347060109
 31
0.0
  0
ARC
  5
2B669
  8
0
 10
3336.7241841823911273
 20
153.6632794651220877
 30
0.0
 40
0.8622047243999995
 50
355.9468335782494819
 51
356.8531665088830209
  0
LINE
  5
2B66A
  8
0
 10
3337.5735570329288748
 20
153.5919556347757862
 30
0.0
 11
3337.5842324393961462
 21
153.6023370139378983
 31
0.0
  0
LINE
  5
2B66B
  8
0
 10
3337.5850888165550714
 20
153.6159487391014977
 30
0.0
 11
3337.5757987206761754
 21
153.627586241200305
 31
0.0
  0
ARC
  5
2B66C
  8
0
 10
3336.7241841823911273
 20
153.6632794651220877
 30
0.0
 40
0.8622047243999997
 50
358.3468335782517897
 51
359.2531665088832824
  0
LINE
  5
2B66D
  8
0
 10
3337.5757987206520738
 20
153.627586241269114
 30
0.0
 11
3337.5860300359349822
 21
153.6384055538225084
 31
0.0
  0
LINE
  5
2B66E
  8
0
 10
3337.5863156620162044
 20
153.6520412005438914
 30
0.0
 11
3337.5765463871211978
 21
153.6632794657379009
 31
0.0
  0
ARC
  5
2B66F
  8
0
 10
3336.7241841823911273
 20
153.6632794651220877
 30
0.0
 40
0.8622047243999997
 50
0.7468335782507609
 51
1.653166508882181
  0
LINE
  5
2B670
  8
0
 10
3337.5765463870939129
 20
153.6632794658056866
 30
0.0
 11
3337.5863156619889196
 21
153.6745177309998098
 31
0.0
  0
LINE
  5
2B671
  8
0
 10
3337.5860300359067878
 20
153.6881533777211075
 30
0.0
 11
3337.5757987206238795
 21
153.6989726902745019
 31
0.0
  0
ARC
  5
2B672
  8
0
 10
3336.7241841823911273
 20
153.6632794651220877
 30
0.0
 40
0.8622047243999997
 50
3.1468335782501091
 51
4.0531665088825513
  0
LINE
  5
2B673
  8
0
 10
3337.5757987205947757
 20
153.698972690341094
 30
0.0
 11
3337.5850888164732169
 21
153.7106101924399013
 31
0.0
  0
LINE
  5
2B674
  8
0
 10
3337.5842324393138369
 20
153.7242219176033871
 30
0.0
 11
3337.5735570328470203
 21
153.7346032967656129
 31
0.0
  0
ARC
  5
2B675
  8
0
 10
3336.7241841823911273
 20
153.6632794651220877
 30
0.0
 40
0.8622047243999997
 50
5.5468335782485898
 51
6.4531665088792618
  0
LINE
  5
2B676
  8
0
 10
3337.573557032815188
 20
153.7346032968308123
 30
0.0
 11
3337.582351651692079
 21
153.7466196197011925
 31
0.0
  0
LINE
  5
2B677
  8
0
 10
3337.5809260258320137
 20
153.7601835437156979
 30
0.0
 11
3337.5698252564711765
 21
153.7701087770199138
 31
0.0
  0
ARC
  5
2B678
  8
0
 10
3336.7241841823911273
 20
153.6632794651220877
 30
0.0
 40
0.8622047243999997
 50
7.946833578246868
 51
8.8531665088865399
  0
LINE
  5
2B679
  8
0
 10
3337.569825256436161
 20
153.7701087770836921
 30
0.0
 11
3337.5781089695638002
 21
153.782482840012193
 31
0.0
  0
LINE
  5
2B67A
  8
0
 10
3337.5761165960338985
 20
153.7959751671459117
 30
0.0
 11
3337.564609938301146
 21
153.8054268423603048
 31
0.0
  0
ARC
  5
2B67B
  8
0
 10
3336.7241841823911273
 20
153.6632794651220877
 30
0.0
 40
0.8622047243999997
 50
10.3468335782532908
 51
11.2531665088806694
  0
LINE
  5
2B67C
  8
0
 10
3337.5646099382629473
 20
153.8054268424224915
 30
0.0
 11
3337.5723682131920214
 21
153.8181369370979894
 31
0.0
  0
LINE
  5
2B67D
  8
0
 10
3337.5698125872931996
 20
153.8315339972245113
 30
0.0
 11
3337.5579202277758668
 21
153.8404955328990127
 31
0.0
  0
ARC
  5
2B67E
  8
0
 10
3336.7241841823911273
 20
153.6632794651220877
 30
0.0
 40
0.8622047243999995
 50
12.7468335782528008
 51
13.6531665088874501
  0
LINE
  5
2B67F
  8
0
 10
3337.5579202277349395
 20
153.8404955329596078
 30
0.0
 11
3337.5651394538158456
 21
153.8535193615570904
 31
0.0
  0
LINE
  5
2B680
  8
0
 10
3337.5620250589850002
 20
153.866797651680514
 30
0.0
 11
3337.5497678609222021
 21
153.8752533262363897
 31
0.0
  0
ARC
  5
2B681
  8
0
 10
3336.7241841823911273
 20
153.6632794651220877
 30
0.0
 40
0.8622047243999997
 50
15.1468335782573202
 51
16.053166508880949
  0
LINE
  5
2B682
  8
0
 10
3337.5497678608790011
 20
153.8752533262953079
 30
0.0
 11
3337.556435373135173
 21
153.8885680405938956
 31
0.0
  0
LINE
  5
2B683
  8
0
 10
3337.5527676730780513
 20
153.9017042660813104
 30
0.0
 11
3337.5401671397598875
 21
153.9096392453922135
 31
0.0
  0
ARC
  5
2B684
  8
0
 10
3336.7241841823911273
 20
153.6632794651220877
 30
0.0
 40
0.8622047243999995
 50
17.5468335782545708
 51
18.4531665088881098
  0
LINE
  5
2B685
  8
0
 10
3337.540167139713958
 20
153.9096392454493127
 30
0.0
 11
3337.5462712410649146
 21
153.9232214869157076
 31
0.0
  0
LINE
  5
2B686
  8
0
 10
3337.5420566701732241
 20
153.9361926023638887
 30
0.0
 11
3337.5291349072190314
 21
153.9435929657799136
 31
0.0
  0
ARC
  5
2B687
  8
0
 10
3336.7241841823911273
 20
153.6632794651220877
 30
0.0
 40
0.8622047243999997
 50
19.9468335782400885
 51
20.85316650887885
  0
LINE
  5
2B688
  8
0
 10
3337.5291349071708282
 20
153.9435929658349096
 30
0.0
 11
3337.5346648889458265
 21
153.9574189066024985
 31
0.0
  0
LINE
  5
2B689
  8
0
 10
3337.5299108410108602
 20
153.9702021562673053
 30
0.0
 11
3337.516690517581992
 21
153.9770549210361992
 31
0.0
  0
ARC
  5
2B68A
  8
0
 10
3336.7241841823911273
 20
153.6632794651220877
 30
0.0
 40
0.8622047243999995
 50
22.3468335782625509
 51
23.2531665088677499
  0
LINE
  5
2B68B
  8
0
 10
3337.5166905175310603
 20
153.977054921089092
 30
0.0
 11
3337.5216366782660771
 21
153.9911003057594883
 31
0.0
  0
LINE
  5
2B68C
  8
0
 10
3337.516351493502043
 20
154.0036732634773955
 30
0.0
 11
3337.5028558025378516
 21
154.0099664075212047
 31
0.0
  0
ARC
  5
2B68D
  8
0
 10
3336.7241841823911273
 20
153.6632794651220877
 30
0.0
 40
0.8622047243999997
 50
24.7468335782541402
 51
25.6531665088758913
  0
LINE
  5
2B68E
  8
0
 10
3337.5028558024851009
 20
154.0099664075719943
 30
0.0
 11
3337.5072094649308383
 21
154.0242065957679074
 31
0.0
  0
LINE
  5
2B68F
  8
0
 10
3337.5014024153479113
 20
154.0365472042986141
 30
0.0
 11
3337.4876550328767735
 21
154.0422696873042128
 31
0.0
  0
ARC
  5
2B690
  8
0
 10
3336.7241841823911273
 20
153.6632794651220877
 30
0.0
 40
0.8622047243999995
 50
27.1468335782567713
 51
28.0531665088668802
  0
LINE
  5
2B691
  8
0
 10
3337.4876550328222038
 20
154.0422696873528139
 30
0.0
 11
3337.4914085591772164
 21
154.0566796969451957
 31
0.0
  0
LINE
  5
2B692
  8
0
 10
3337.4850898323129513
 20
154.0687663066680955
 30
0.0
 11
3337.4711148759161006
 21
154.0739080894558128
 31
0.0
  0
ARC
  5
2B693
  8
0
 10
3336.7241841823911273
 20
153.6632794651220877
 30
0.0
 40
0.8622047243999997
 50
29.5468335782347182
 51
30.4531665088923909
  0
LINE
  5
2B694
  8
0
 10
3337.4711148758588024
 20
154.0739080895019981
 30
0.0
 11
3337.4742616811618063
 21
154.0884626404377116
 31
0.0
  0
LINE
  5
2B695
  8
0
 10
3337.4674423622118411
 20
154.1002740473321069
 30
0.0
 11
3337.4532643487100358
 21
154.1048261094676946
 31
0.0
  0
ARC
  5
2B696
  8
0
 10
3336.7241841823911273
 20
153.6632794651220877
 30
0.0
 40
0.8622047243999995
 50
31.9468335782375483
 51
32.8531665088706788
  0
LINE
  5
2B697
  8
0
 10
3337.4532643486509187
 20
154.1048261095116061
 30
0.0
 11
3337.4557989123359221
 21
154.1194996681624048
 31
0.0
  0
LINE
  5
2B698
  8
0
 10
3337.4484909647007953
 20
154.1310151510072046
 30
0.0
 11
3337.434134767148862
 21
154.1349695066269021
 31
0.0
  0
ARC
  5
2B699
  8
0
 10
3336.7241841823911273
 20
153.6632794651220877
 30
0.0
 40
0.8622047243999995
 50
34.3468335782361578
 51
35.2531665088897768
  0
LINE
  5
2B69A
  8
0
 10
3337.4341347670879259
 20
154.1349695066683125
 30
0.0
 11
3337.4360526426680735
 21
154.1497363306262969
 31
0.0
  0
LINE
  5
2B69B
  8
0
 10
3337.4282688869739104
 20
154.1609356873514969
 30
0.0
 11
3337.4137596910181855
 21
154.1642853991720017
 31
0.0
  0
ARC
  5
2B69C
  8
0
 10
3336.7241841823911273
 20
153.6632794651220877
 30
0.0
 40
0.8622047243999997
 50
36.7468335782360214
 51
37.6531665088714007
  0
LINE
  5
2B69D
  8
0
 10
3337.4137596909558852
 20
154.1642853992107973
 30
0.0
 11
3337.4150575138269232
 21
154.1791195824490046
 31
0.0
  0
LINE
  5
2B69E
  8
0
 10
3337.4068116054249913
 20
154.189983165577388
 30
0.0
 11
3337.3921748651268899
 21
154.1927223570658043
 31
0.0
  0
ARC
  5
2B69F
  8
0
 10
3336.7241841823911273
 20
153.6632794651220877
 30
0.0
 40
0.8622047243999995
 50
39.1468335782430614
 51
40.0531665088930566
  0
LINE
  5
2B6A0
  8
0
 10
3337.3921748650641348
 20
154.1927223571018999
 30
0.0
 11
3337.3928503584020291
 21
154.2075978754222092
 31
0.0
  0
LINE
  5
2B6A1
  8
0
 10
3337.3841567634171952
 20
154.2181066265374909
 30
0.0
 11
3337.3694181565938379
 21
154.2202304922211056
 31
0.0
  0
ARC
  5
2B6A2
  8
0
 10
3336.7241841823911273
 20
153.6632794651220877
 30
0.0
 40
0.8622047243999997
 50
41.5468335782648808
 51
42.4531665088671488
  0
LINE
  5
2B6A3
  8
0
 10
3337.369418156528809
 20
154.2202304922547
 30
0.0
 11
3337.3694701352901575
 21
154.235121248943102
 31
0.0
  0
LINE
  5
2B6A4
  8
0
 10
3337.360344105241893
 20
154.2452567321250001
 30
0.0
 11
3337.3455294884179239
 21
154.2467615460217871
 31
0.0
  0
ARC
  5
2B6A5
  8
0
 10
3336.7241841823902178
 20
153.6632794651220877
 30
0.0
 40
0.8622047243999995
 50
43.9468335782355908
 51
44.8531665088938283
  0
LINE
  5
2B6A6
  8
0
 10
3337.345529488351076
 20
154.246761546052511
 30
0.0
 11
3337.3449578613472113
 21
154.2616414176619912
 31
0.0
  0
LINE
  5
2B6A7
  8
0
 10
3337.3354154063949863
 20
154.2713858518289953
 30
0.0
 11
3337.3205507694401604
 21
154.2722689739840121
 31
0.0
  0
ARC
  5
2B6A8
  8
0
 10
3336.7241841823902178
 20
153.6632794651220877
 30
0.0
 40
0.8622047243999995
 50
46.3468335782528413
 51
47.2531665088876025
  0
LINE
  5
2B6A9
  8
0
 10
3337.3205507693719483
 20
154.2722689740118938
 30
0.0
 11
3337.3193565394321922
 21
154.2871118561915011
 31
0.0
  0
LINE
  5
2B6AA
  8
0
 10
3337.309414400282094
 20
154.2964481462946935
 30
0.0
 11
3337.2945258208219457
 21
154.2967080274115972
 31
0.0
  0
ARC
  5
2B6AB
  8
0
 10
3336.7241841823902178
 20
153.6632794651220877
 30
0.0
 40
0.8622047243999997
 50
48.74683357823546
 51
49.6531665088674501
  0
LINE
  5
2B6AC
  8
0
 10
3337.2945258207528241
 20
154.2967080274366936
 30
0.0
 11
3337.2927110829609774
 21
154.3114878807272987
 31
0.0
  0
LINE
  5
2B6AD
  8
0
 10
3337.2823867015049473
 20
154.3203996477415103
 30
0.0
 11
3337.2675002991659312
 21
154.3200358319004977
 31
0.0
  0
ARC
  5
2B6AE
  8
0
 10
3336.7241841823902178
 20
153.6632794651220877
 30
0.0
 40
0.8622047243999995
 50
51.1468335782505505
 51
52.0531665088852478
  0
LINE
  5
2B6AF
  8
0
 10
3337.2675002990968096
 20
154.320035831922695
 30
0.0
 11
3337.2650682371190669
 21
154.3347267274394881
 31
0.0
  0
LINE
  5
2B6B0
  8
0
 10
3337.2543797258299492
 20
154.3431983370971068
 30
0.0
 11
3337.2395216164218255
 21
154.342211462554701
 31
0.0
  0
ARC
  5
2B6B1
  8
0
 10
3336.7241841823902178
 20
153.6632794651220877
 30
0.0
 40
0.8622047243999997
 50
53.5468335782389389
 51
54.4531665088874206
  0
LINE
  5
2B6B2
  8
0
 10
3337.2395216163517944
 20
154.3422114625739994
 30
0.0
 11
3337.2364764968519921
 21
154.3567876274942137
 31
0.0
  0
LINE
  5
2B6B3
  8
0
 10
3337.2254426070121553
 20
154.364804217713214
 30
0.0
 11
3337.2106388567058275
 21
154.3631960157829042
 31
0.0
  0
ARC
  5
2B6B4
  8
0
 10
3336.7241841823902178
 20
153.6632794651220877
 30
0.0
 40
0.8622047243999995
 50
55.9468335782347665
 51
56.8531665088706291
  0
LINE
  5
2B6B5
  8
0
 10
3337.2106388566348869
 20
154.3631960157991898
 30
0.0
 11
3337.2069860217879977
 21
154.3776318785764943
 31
0.0
  0
LINE
  5
2B6B6
  8
0
 10
3337.1956261105869999
 20
154.3851793855334904
 30
0.0
 11
3337.1809026901919424
 21
154.3829526775479053
 31
0.0
  0
ARC
  5
2B6B7
  8
0
 10
3336.7241841823902178
 20
153.6632794651220877
 30
0.0
 40
0.8622047243999997
 50
58.3468335782518679
 51
59.2531665088652204
  0
LINE
  5
2B6B8
  8
0
 10
3337.1809026901200923
 20
154.3829526775612067
 30
0.0
 11
3337.1766485482398821
 21
154.3972229127869866
 31
0.0
  0
LINE
  5
2B6B9
  8
0
 10
3337.1649825448221236
 20
154.4042880955902035
 30
0.0
 11
3337.1503652842229712
 21
154.4014467879516985
 31
0.0
  0
ARC
  5
2B6BA
  8
0
 10
3336.7241841823902178
 20
153.6632794651220024
 30
0.0
 40
0.8622047243999997
 50
60.7468335782343019
 51
61.6531665088651977
  0
LINE
  5
2B6BB
  8
0
 10
3337.1503652841511212
 20
154.4014467879619872
 30
0.0
 11
3337.1455172984451565
 21
154.4155263607945869
 31
0.0
  0
LINE
  5
2B6BC
  8
0
 10
3337.1335656689470852
 20
154.4220968247126962
 30
0.0
 11
3337.1190802117821477
 21
154.4186459020403106
 31
0.0
  0
ARC
  5
2B6BD
  8
0
 10
3336.7241841823902178
 20
153.6632794651220024
 30
0.0
 40
0.8622047243999995
 50
63.1468335782372989
 51
64.0531665088781637
  0
LINE
  5
2B6BE
  8
0
 10
3337.1190802117098428
 20
154.4186459020475866
 30
0.0
 11
3337.1136468871950456
 21
154.4325101121320074
 31
0.0
  0
LINE
  5
2B6BF
  8
0
 10
3337.1014305988351225
 20
154.438574330338497
 30
0.0
 11
3337.087102357520962
 21
154.4345198467233047
 31
0.0
  0
ARC
  5
2B6C0
  8
0
 10
3336.7241841823902178
 20
153.6632794651220024
 30
0.0
 40
0.8622047243999997
 50
65.5468335782372407
 51
66.4531665088835268
  0
LINE
  5
2B6C1
  8
0
 10
3337.0871023574468381
 20
154.4345198467275964
 30
0.0
 11
3337.0810932260210393
 21
154.4481443715282865
 31
0.0
  0
LINE
  5
2B6C2
  8
0
 10
3337.0686337103188635
 20
154.4536917053237914
 30
0.0
 11
3337.0544878214591336
 21
154.4490407737077931
 31
0.0
  0
ARC
  5
2B6C3
  8
0
 10
3336.7241841823902178
 20
153.6632794651220024
 30
0.0
 40
0.8622047243999997
 50
67.9468335782601542
 51
68.8531665088864031
  0
LINE
  5
2B6C4
  8
0
 10
3337.0544878213859192
 20
154.4490407737089868
 30
0.0
 11
3337.0479134251058895
 21
154.4624017111796945
 31
0.0
  0
LINE
  5
2B6C5
  8
0
 10
3337.0352325402859606
 20
154.4674224286559081
 30
0.0
 11
3337.0212938205759201
 21
154.4621832083535082
 31
0.0
  0
ARC
  5
2B6C6
  8
0
 10
3336.7241841823902178
 20
153.6632794651220024
 30
0.0
 40
0.8622047243999997
 50
70.3468335782470149
 51
71.2531665088878157
  0
LINE
  5
2B6C7
  8
0
 10
3337.0212938205031605
 20
154.462183208351604
 30
0.0
 11
3337.0141656930950376
 21
154.4752571188680861
 31
0.0
  0
LINE
  5
2B6C8
  8
0
 10
3337.0012856857401857
 20
154.4797424119803964
 30
0.0
 11
3336.9875785884300967
 21
154.4739240943642926
 31
0.0
  0
ARC
  5
2B6C9
  8
0
 10
3336.7241841823902178
 20
153.6632794651220024
 30
0.0
 40
0.8622047243999997
 50
72.7468335782526907
 51
73.6531665088728431
  0
LINE
  5
2B6CA
  8
0
 10
3336.9875785883568824
 20
154.4739240943594041
 30
0.0
 11
3336.9799092349771854
 21
154.4866880418400115
 31
0.0
  0
LINE
  5
2B6CB
  8
0
 10
3336.966852700995787
 20
154.4906300418601006
 30
0.0
 11
3336.9534012729927781
 21
154.484242834236511
 31
0.0
  0
ARC
  5
2B6CC
  8
0
 10
3336.7241841823902178
 20
153.6632794651220024
 30
0.0
 40
0.8622047243999997
 50
75.146833578259816
 51
76.0531665088707456
  0
LINE
  5
2B6CD
  8
0
 10
3336.9534012729200185
 20
154.4842428342284961
 30
0.0
 11
3336.9452041482218192
 21
154.4966744263720955
 31
0.0
  0
LINE
  5
2B6CE
  8
0
 10
3336.9319939932111083
 20
154.5000662176925061
 30
0.0
 11
3336.9188218328908988
 21
154.4931213253939859
 31
0.0
  0
ARC
  5
2B6CF
  8
0
 10
3336.7241841823902178
 20
153.6632794651220024
 30
0.0
 40
0.8622047243999997
 50
77.5468335782587843
 51
78.4531665088794909
  0
LINE
  5
2B6D0
  8
0
 10
3336.9188218328181392
 20
154.4931213253829867
 30
0.0
 11
3336.9101113173442172
 21
154.5051987529527082
 31
0.0
  0
LINE
  5
2B6D1
  8
0
 10
3336.8967707164051717
 20
154.508034385218906
 30
0.0
 11
3336.8839009322118727
 21
154.5005439919465005
 31
0.0
  0
ARC
  5
2B6D2
  8
0
 10
3336.7241841823902178
 20
153.6632794651220024
 30
0.0
 40
0.8622047243999997
 50
79.9468335782575821
 51
80.8531665088805624
  0
LINE
  5
2B6D3
  8
0
 10
3336.8839009321400226
 20
154.5005439919324033
 30
0.0
 11
3336.8746923070912089
 21
154.512246067016406
 31
0.0
  0
LINE
  5
2B6D4
  8
0
 10
3336.8612446641709539
 20
154.514520565565789
 30
0.0
 11
3336.8486998340808896
 21
154.5064978120144872
 31
0.0
  0
ARC
  5
2B6D5
  8
0
 10
3336.7241841823902178
 20
153.6632794651220024
 30
0.0
 40
0.8622047243999995
 50
82.3468335782478533
 51
83.2531665088868493
  0
LINE
  5
2B6D6
  8
0
 10
3336.848699834009949
 20
154.5064978119974057
 30
0.0
 11
3336.8390092544468644
 21
154.5178040051794994
 31
0.0
  0
LINE
  5
2B6D7
  8
0
 10
3336.8254781612799889
 20
154.5195133797689095
 30
0.0
 11
3336.8132802931868355
 21
154.5109723405745115
 31
0.0
  0
ARC
  5
2B6D8
  8
0
 10
3336.7241841823902178
 20
153.6632794651220024
 30
0.0
 40
0.8622047243999995
 50
84.7468335782413078
 51
85.6531665088666756
  0
LINE
  5
2B6D9
  8
0
 10
3336.8132802931158949
 20
154.5109723405545026
 30
0.0
 11
3336.803124759606817
 21
154.5218628169299961
 31
0.0
  0
LINE
  5
2B6DA
  8
0
 10
3336.7895339543301816
 20
154.5230040687353892
 30
0.0
 11
3336.7777044474378272
 21
154.5139597277830035
 31
0.0
  0
ARC
  5
2B6DB
  8
0
 10
3336.7241841823902178
 20
153.6632794651220024
 30
0.0
 40
0.8622047243999995
 50
87.1468335782361123
 51
88.0531665088663971
  0
LINE
  5
2B6DC
  8
0
 10
3336.7777044473691603
 20
154.5139597277600956
 30
0.0
 11
3336.7671017761708754
 21
154.5244153817328083
 31
0.0
  0
LINE
  5
2B6DD
  8
0
 10
3336.7534751016728478
 20
154.5249865086109082
 30
0.0
 11
3336.7420347089591814
 21
154.5154547327477133
 31
0.0
  0
ARC
  5
2B6DE
  8
0
 10
3336.7241841823902178
 20
153.6632794651218887
 30
0.0
 40
0.8622047243999997
 50
89.5468335782565958
 51
90.4531665088743893
  0
LINE
  5
2B6DF
  8
0
 10
3336.7420347088909693
 20
154.5154547327219916
 30
0.0
 11
3336.7310035006908038
 21
154.5254572215220037
 31
0.0
  0
LINE
  5
2B6E0
  8
0
 10
3336.7173648627908733
 20
154.5254572215220037
 30
0.0
 11
3336.7063336545911625
 21
154.5154547327219916
 31
0.0
  0
ARC
  5
2B6E1
  8
0
 10
3336.7241841823902178
 20
153.6632794651218887
 30
0.0
 40
0.8622047243999997
 50
91.9468335782339778
 51
92.8531665088698759
  0
LINE
  5
2B6E2
  8
0
 10
3336.7063336545238599
 20
154.5154547326933141
 30
0.0
 11
3336.6948932618101935
 21
154.5249865085563954
 31
0.0
  0
LINE
  5
2B6E3
  8
0
 10
3336.6812665873139849
 20
154.5244153816784092
 30
0.0
 11
3336.6706639161147905
 21
154.5139597277056964
 31
0.0
  0
ARC
  5
2B6E4
  8
0
 10
3336.7241841823902178
 20
153.6632794651218887
 30
0.0
 40
0.8622047243999995
 50
94.3468335782516192
 51
95.2531665088881425
  0
LINE
  5
2B6E5
  8
0
 10
3336.6706639160488521
 20
154.5139597276742904
 30
0.0
 11
3336.658834409157862
 21
154.5230040686267046
 31
0.0
  0
LINE
  5
2B6E6
  8
0
 10
3336.6452436038798623
 20
154.5218628168211978
 30
0.0
 11
3336.6350880703707844
 21
154.5109723404457895
 31
0.0
  0
ARC
  5
2B6E7
  8
0
 10
3336.7241841823902178
 20
153.6632794651218887
 30
0.0
 40
0.8622047243999997
 50
96.7468335782455284
 51
97.6531665088748042
  0
LINE
  5
2B6E8
  8
0
 10
3336.6350880703062103
 20
154.5109723404115982
 30
0.0
 11
3336.6228902022130569
 21
154.5195133796059963
 31
0.0
  0
LINE
  5
2B6E9
  8
0
 10
3336.6093591090461814
 20
154.5178040050165009
 30
0.0
 11
3336.5996685294821873
 21
154.5064978118344925
 31
0.0
  0
ARC
  5
2B6EA
  8
0
 10
3336.7241841823902178
 20
153.6632794651218887
 30
0.0
 40
0.8622047243999997
 50
99.1468335782350607
 51
100.0531665088797979
  0
LINE
  5
2B6EB
  8
0
 10
3336.5996685294189774
 20
154.5064978117976864
 30
0.0
 11
3336.5871236993298226
 21
154.5145205653489882
 31
0.0
  0
LINE
  5
2B6EC
  8
0
 10
3336.5736760564091128
 20
154.5122460667996052
 30
0.0
 11
3336.5644674313598443
 21
154.5005439917156025
 31
0.0
  0
ARC
  5
2B6ED
  8
0
 10
3336.7241841823902178
 20
153.6632794651218887
 30
0.0
 40
0.8622047243999997
 50
101.5468335782401965
 51
102.4531665088876053
  0
LINE
  5
2B6EE
  8
0
 10
3336.5644674312989082
 20
154.50054399167621
 30
0.0
 11
3336.551597647106064
 21
154.5080343849485871
 31
0.0
  0
LINE
  5
2B6EF
  8
0
 10
3336.5382570461670184
 20
154.5051987526823893
 30
0.0
 11
3336.5295465306908227
 21
154.4931213251126962
 31
0.0
  0
ARC
  5
2B6F0
  8
0
 10
3336.7241841823902178
 20
153.6632794651218887
 30
0.0
 40
0.8622047243999997
 50
103.9468335782462987
 51
104.8531665088882932
  0
LINE
  5
2B6F1
  8
0
 10
3336.5295465306330698
 20
154.493121325070689
 30
0.0
 11
3336.5163743703119508
 21
154.5000662173692092
 31
0.0
  0
LINE
  5
2B6F2
  8
0
 10
3336.5031642153007851
 20
154.4966744260487985
 30
0.0
 11
3336.4949670906030406
 21
154.4842428339051992
 31
0.0
  0
ARC
  5
2B6F3
  8
0
 10
3336.7241841823902178
 20
153.6632794651218887
 30
0.0
 40
0.8622047243999995
 50
106.3468335782332019
 51
107.2531665088882988
  0
LINE
  5
2B6F4
  8
0
 10
3336.4949670905448329
 20
154.4842428338608045
 30
0.0
 11
3336.481515662541824
 21
154.4906300414843088
 31
0.0
  0
LINE
  5
2B6F5
  8
0
 10
3336.4684591285599708
 20
154.4866880414641912
 30
0.0
 11
3336.4607897751811834
 21
154.4739240939836122
 31
0.0
  0
ARC
  5
2B6F6
  8
0
 10
3336.7241841823902178
 20
153.6632794651218887
 30
0.0
 40
0.8622047243999995
 50
108.746833578251298
 51
109.653166508875799
  0
LINE
  5
2B6F7
  8
0
 10
3336.4607897751247947
 20
154.4739240939368017
 30
0.0
 11
3336.4470826778137962
 21
154.4797424115529054
 31
0.0
  0
LINE
  5
2B6F8
  8
0
 10
3336.4342026704598538
 20
154.4752571184405951
 30
0.0
 11
3336.4270745430521856
 21
154.462183207924113
 31
0.0
  0
ARC
  5
2B6F9
  8
0
 10
3336.7241841823902178
 20
153.6632794651218887
 30
0.0
 40
0.8622047243999997
 50
111.1468335782469978
 51
112.0531665088867044
  0
LINE
  5
2B6FA
  8
0
 10
3336.4270745429971612
 20
154.4621832078750003
 30
0.0
 11
3336.4131358232871207
 21
154.4674224281774002
 31
0.0
  0
LINE
  5
2B6FB
  8
0
 10
3336.4004549384681013
 20
154.4624017107011866
 30
0.0
 11
3336.3938805421880716
 21
154.4490407732303936
 31
0.0
  0
ARC
  5
2B6FC
  8
0
 10
3336.7241841823902178
 20
153.6632794651218887
 30
0.0
 40
0.8622047243999995
 50
113.5468335782572069
 51
114.4531665088902059
  0
LINE
  5
2B6FD
  8
0
 10
3336.3938805421357756
 20
154.4490407731790071
 30
0.0
 11
3336.3797346532760457
 21
154.4536917047950908
 31
0.0
  0
LINE
  5
2B6FE
  8
0
 10
3336.3672751375738699
 20
154.4481443709995006
 30
0.0
 11
3336.3612660061471615
 21
154.4345198461988105
 31
0.0
  0
ARC
  5
2B6FF
  8
0
 10
3336.7241841823902178
 20
153.6632794651218887
 30
0.0
 40
0.8622047243999995
 50
115.9468335782522956
 51
116.8531665088793972
  0
LINE
  5
2B700
  8
0
 10
3336.3612660060971393
 20
154.4345198461452924
 30
0.0
 11
3336.3469377647829788
 21
154.4385743297605131
 31
0.0
  0
LINE
  5
2B701
  8
0
 10
3336.3347214764221462
 20
154.4325101115539951
 30
0.0
 11
3336.3292881519078037
 21
154.4186459014696027
 31
0.0
  0
ARC
  5
2B702
  8
0
 10
3336.7241841823902178
 20
153.6632794651218887
 30
0.0
 40
0.8622047243999997
 50
118.3468335782334009
 51
119.253166508877797
  0
LINE
  5
2B703
  8
0
 10
3336.3292881518609647
 20
154.4186459014140951
 30
0.0
 11
3336.3148026946960272
 21
154.4220968240863954
 31
0.0
  0
LINE
  5
2B704
  8
0
 10
3336.3028510651970464
 20
154.4155263601682861
 30
0.0
 11
3336.2980030794919912
 21
154.4014467873356864
 31
0.0
  0
ARC
  5
2B705
  8
0
 10
3336.7241841823902178
 20
153.6632794651218035
 30
0.0
 40
0.8622047243999997
 50
120.7468335782346998
 51
121.6531665088891998
  0
LINE
  5
2B706
  8
0
 10
3336.2980030794478807
 20
154.4014467872781893
 30
0.0
 11
3336.2833858188469094
 21
154.4042880949168079
 31
0.0
  0
LINE
  5
2B707
  8
0
 10
3336.2717198154309699
 20
154.3972229121135058
 30
0.0
 11
3336.2674656735489407
 21
154.3829526768878111
 31
0.0
  0
ARC
  5
2B708
  8
0
 10
3336.7241841823902178
 20
153.6632794651218035
 30
0.0
 40
0.8622047243999997
 50
123.1468335782327017
 51
124.053166508876501
  0
LINE
  5
2B709
  8
0
 10
3336.2674656735071039
 20
154.3829526768284097
 30
0.0
 11
3336.252742253112956
 21
154.3851793848141085
 31
0.0
  0
LINE
  5
2B70A
  8
0
 10
3336.2413823419119581
 20
154.3776318778571124
 30
0.0
 11
3336.2377295070650689
 21
154.3631960150796942
 31
0.0
  0
ARC
  5
2B70B
  8
0
 10
3336.7241841823902178
 20
153.6632794651218035
 30
0.0
 40
0.8622047243999995
 50
125.5468335782472025
 51
126.4531665088663033
  0
LINE
  5
2B70C
  8
0
 10
3336.2377295070250511
 20
154.3631960150187012
 30
0.0
 11
3336.222925756719178
 21
154.3648042169490111
 31
0.0
  0
LINE
  5
2B70D
  8
0
 10
3336.211891866877977
 20
154.356787626730096
 30
0.0
 11
3336.2088467473790843
 21
154.3422114618099101
 31
0.0
  0
ARC
  5
2B70E
  8
0
 10
3336.7241841823902178
 20
153.6632794651218035
 30
0.0
 40
0.8622047243999997
 50
127.9468335782424049
 51
128.8531665088717943
  0
LINE
  5
2B70F
  8
0
 10
3336.208846747341795
 20
154.3422114617472118
 30
0.0
 11
3336.1939886379332165
 21
154.3431983362895892
 31
0.0
  0
LINE
  5
2B710
  8
0
 10
3336.1833001266440988
 20
154.3347267266319989
 30
0.0
 11
3336.1808680646659013
 21
154.3200358311152058
 31
0.0
  0
ARC
  5
2B711
  8
0
 10
3336.7241841823902178
 20
153.6632794651218035
 30
0.0
 40
0.8622047243999997
 50
130.3468335782415011
 51
131.2531665088598061
  0
LINE
  5
2B712
  8
0
 10
3336.1808680646317953
 20
154.3200358310510012
 30
0.0
 11
3336.1659816622927792
 21
154.3203996468920991
 31
0.0
  0
LINE
  5
2B713
  8
0
 10
3336.1556572808372039
 20
154.3114878798778875
 30
0.0
 11
3336.1538425430449024
 21
154.2967080265873108
 31
0.0
  0
ARC
  5
2B714
  8
0
 10
3336.7241841823902178
 20
153.6632794651218035
 30
0.0
 40
0.8622047243999995
 50
132.746833578249209
 51
133.6531665088901946
  0
LINE
  5
2B715
  8
0
 10
3336.1538425430130701
 20
154.2967080265217135
 30
0.0
 11
3336.1389539635529218
 21
154.2964481454048098
 31
0.0
  0
LINE
  5
2B716
  8
0
 10
3336.1290118244019141
 20
154.287111855301589
 30
0.0
 11
3336.127817594462158
 21
154.27226897312201
 31
0.0
  0
ARC
  5
2B717
  8
0
 10
3336.7241841823902178
 20
153.6632794651218035
 30
0.0
 40
0.8622047243999997
 50
135.1468335782506927
 51
136.0531665088693103
  0
LINE
  5
2B718
  8
0
 10
3336.1278175944330542
 20
154.2722689730551906
 30
0.0
 11
3336.1129529574777735
 21
154.2713858509002023
 31
0.0
  0
LINE
  5
2B719
  8
0
 10
3336.1034105025250938
 20
154.2616414167331982
 30
0.0
 11
3336.1028388755221386
 21
154.2467615451236895
 31
0.0
  0
ARC
  5
2B71A
  8
0
 10
3336.7241841823902178
 20
153.6632794651218035
 30
0.0
 40
0.8622047243999997
 50
137.5468335782553027
 51
138.4531665088686054
  0
LINE
  5
2B71B
  8
0
 10
3336.1028388754948537
 20
154.2467615450557048
 30
0.0
 11
3336.0880242586699751
 21
154.245256731159003
 31
0.0
  0
LINE
  5
2B71C
  8
0
 10
3336.0788982286221653
 20
154.2351212479769913
 30
0.0
 11
3336.078950207383059
 21
154.2202304912885893
 31
0.0
  0
ARC
  5
2B71D
  8
0
 10
3336.7241841823902178
 20
153.6632794651218035
 30
0.0
 40
0.8622047243999997
 50
139.9468335782391932
 51
140.853166508881003
  0
LINE
  5
2B71E
  8
0
 10
3336.0789502073598669
 20
154.2202304912194961
 30
0.0
 11
3336.0642116005360549
 21
154.2181066255359099
 31
0.0
  0
LINE
  5
2B71F
  8
0
 10
3336.055518005551221
 20
154.2075978744204861
 30
0.0
 11
3336.0561934988900248
 21
154.1927223561002904
 31
0.0
  0
ARC
  5
2B720
  8
0
 10
3336.7241841823902178
 20
153.6632794651218035
 30
0.0
 40
0.8622047243999995
 50
142.3468335782297061
 51
143.2531665088702084
  0
LINE
  5
2B721
  8
0
 10
3336.0561934988691064
 20
154.1927223560302878
 30
0.0
 11
3336.0415567585719145
 21
154.1899831645418999
 31
0.0
  0
LINE
  5
2B722
  8
0
 10
3336.0333108501699826
 20
154.179119581413488
 30
0.0
 11
3336.0346086730401112
 21
154.1642853981753092
 31
0.0
  0
ARC
  5
2B723
  8
0
 10
3336.7241841823902178
 20
153.6632794651216898
 30
0.0
 40
0.8622047243999997
 50
144.7468335782324971
 51
145.6531665088687078
  0
LINE
  5
2B724
  8
0
 10
3336.0346086730219213
 20
154.1642853981045107
 30
0.0
 11
3336.0200994770671059
 21
154.1609356862840059
 31
0.0
  0
LINE
  5
2B725
  8
0
 10
3336.0123157213729428
 20
154.1497363295588059
 30
0.0
 11
3336.014233596952181
 21
154.1349695056007931
 31
0.0
  0
ARC
  5
2B726
  8
0
 10
3336.7241841823902178
 20
153.6632794651216898
 30
0.0
 40
0.8622047243999995
 50
147.1468335782537054
 51
148.0531665088747957
  0
LINE
  5
2B727
  8
0
 10
3336.0142335969371743
 20
154.1349695055293125
 30
0.0
 11
3335.9998773993838768
 21
154.1310151499095014
 31
0.0
  0
LINE
  5
2B728
  8
0
 10
3335.9925694517510237
 20
154.1194996670647868
 30
0.0
 11
3335.9951040154342081
 21
154.1048261084139028
 31
0.0
  0
ARC
  5
2B729
  8
0
 10
3336.7241841823902178
 20
153.6632794651216898
 30
0.0
 40
0.8622047243999995
 50
149.5468335782396991
 51
150.4531665088603063
  0
LINE
  5
2B72A
  8
0
 10
3335.9951040154219299
 20
154.1048261083419106
 30
0.0
 11
3335.9809260019210342
 21
154.1002740462062093
 31
0.0
  0
LINE
  5
2B72B
  8
0
 10
3335.9741066829710689
 20
154.0884626393118992
 30
0.0
 11
3335.9772534882731634
 21
154.0739080883762142
 31
0.0
  0
ARC
  5
2B72C
  8
0
 10
3336.7241841823902178
 20
153.6632794651216898
 30
0.0
 40
0.8622047243999997
 50
151.9468335782393922
 51
152.8531665088742955
  0
LINE
  5
2B72D
  8
0
 10
3335.9772534882640684
 20
154.0739080883037104
 30
0.0
 11
3335.9632785318672177
 21
154.0687663055159931
 31
0.0
  0
LINE
  5
2B72E
  8
0
 10
3335.9569598050029526
 20
154.056679695793207
 30
0.0
 11
3335.9607133313579652
 21
154.0422696862007115
 31
0.0
  0
ARC
  5
2B72F
  8
0
 10
3336.7241841823902178
 20
153.6632794651216898
 30
0.0
 40
0.8622047243999995
 50
154.3468335782312977
 51
155.2531665088781097
  0
LINE
  5
2B730
  8
0
 10
3335.960713331351144
 20
154.0422696861278951
 30
0.0
 11
3335.9469659488800062
 21
154.0365472031222964
 31
0.0
  0
LINE
  5
2B731
  8
0
 10
3335.9411588992979887
 20
154.0242065945915897
 30
0.0
 11
3335.9455125617428166
 21
154.009966406395705
 31
0.0
  0
ARC
  5
2B732
  8
0
 10
3336.7241841823911273
 20
153.6632794651216898
 30
0.0
 40
0.8622047243999995
 50
156.7468335782515112
 51
157.6531665088774048
  0
LINE
  5
2B733
  8
0
 10
3335.9455125617409976
 20
154.0099664063228033
 30
0.0
 11
3335.9320168707768062
 21
154.0036732622789941
 31
0.0
  0
LINE
  5
2B734
  8
0
 10
3335.9267316860132269
 20
153.9911003045610869
 30
0.0
 11
3335.9316778467468794
 21
153.9770549198906906
 31
0.0
  0
ARC
  5
2B735
  8
0
 10
3336.7241841823911273
 20
153.6632794651216898
 30
0.0
 40
0.8622047243999995
 50
159.1468335782361976
 51
160.053166508865587
  0
LINE
  5
2B736
  8
0
 10
3335.9316778467468794
 20
153.9770549198177036
 30
0.0
 11
3335.9184575233180112
 21
153.9702021550488098
 31
0.0
  0
LINE
  5
2B737
  8
0
 10
3335.9137034753830449
 20
153.957418905384003
 30
0.0
 11
3335.9192334571580432
 21
153.9435929646164993
 31
0.0
  0
ARC
  5
2B738
  8
0
 10
3336.7241841823911273
 20
153.6632794651216898
 30
0.0
 40
0.8622047243999997
 50
161.546833578247913
 51
162.453166508867298
  0
LINE
  5
2B739
  8
0
 10
3335.9192334571621359
 20
153.9435929645435124
 30
0.0
 11
3335.9063116942070337
 21
153.9361926011274875
 31
0.0
  0
LINE
  5
2B73A
  8
0
 10
3335.9020971233157979
 20
153.9232214856793064
 30
0.0
 11
3335.9082012246658451
 21
153.9096392442129115
 31
0.0
  0
ARC
  5
2B73B
  8
0
 10
3336.7241841823911273
 20
153.6632794651216898
 30
0.0
 40
0.8622047243999997
 50
163.9468335782482882
 51
164.8531665088721923
  0
LINE
  5
2B73C
  8
0
 10
3335.9082012246722115
 20
153.9096392441402088
 30
0.0
 11
3335.8956006913549572
 21
153.901704264829192
 31
0.0
  0
LINE
  5
2B73D
  8
0
 10
3335.891932991296926
 20
153.8885680393418056
 30
0.0
 11
3335.8986005035540074
 21
153.8752533250431895
 31
0.0
  0
ARC
  5
2B73E
  8
0
 10
3336.7241841823911273
 20
153.6632794651216898
 30
0.0
 40
0.8622047243999995
 50
166.3468335782465033
 51
167.2531665088727095
  0
LINE
  5
2B73F
  8
0
 10
3335.8986005035640119
 20
153.8752533249707994
 30
0.0
 11
3335.8863433055012138
 21
153.8667976504148101
 31
0.0
  0
LINE
  5
2B740
  8
0
 10
3335.8832289106690041
 20
153.8535193602915001
 30
0.0
 11
3335.8904481367499102
 21
153.8404955316939891
 31
0.0
  0
ARC
  5
2B741
  8
0
 10
3336.7241841823911273
 20
153.6632794651216898
 30
0.0
 40
0.8622047243999995
 50
168.7468335782344866
 51
169.6531665088770922
  0
LINE
  5
2B742
  8
0
 10
3335.8904481367621884
 20
153.8404955316219969
 30
0.0
 11
3335.8785557772448556
 21
153.8315339959474954
 31
0.0
  0
LINE
  5
2B743
  8
0
 10
3335.8760001513460338
 20
153.818136935821002
 30
0.0
 11
3335.8837584262760174
 21
153.8054268411455894
 31
0.0
  0
ARC
  5
2B744
  8
0
 10
3336.7241841823911273
 20
153.6632794651216898
 30
0.0
 40
0.8622047243999995
 50
171.146833578240404
 51
172.0531665088720104
  0
LINE
  5
2B745
  8
0
 10
3335.8837584262910241
 20
153.805426841074194
 30
0.0
 11
3335.8722517685591811
 21
153.7959751658598861
 31
0.0
  0
LINE
  5
2B746
  8
0
 10
3335.8702593950279152
 20
153.7824828387261107
 30
0.0
 11
3335.8785431081569186
 21
153.7701087757976097
 31
0.0
  0
ARC
  5
2B747
  8
0
 10
3336.7241841823911273
 20
153.6632794651216898
 30
0.0
 40
0.8622047243999995
 50
173.5468335782354927
 51
174.4531665088719024
  0
LINE
  5
2B748
  8
0
 10
3335.8785431081751085
 20
153.7701087757270102
 30
0.0
 11
3335.8674423388151808
 21
153.760183542422908
 31
0.0
  0
LINE
  5
2B749
  8
0
 10
3335.866016712954206
 20
153.7466196184082889
 30
0.0
 11
3335.8748113318320065
 21
153.7346032955379087
 31
0.0
  0
ARC
  5
2B74A
  8
0
 10
3336.7241841823911273
 20
153.6632794651216898
 30
0.0
 40
0.8622047243999995
 50
175.9468335782364079
 51
176.8531665088715101
  0
LINE
  5
2B74B
  8
0
 10
3335.8748113318538344
 20
153.734603295468105
 30
0.0
 11
3335.8641359253870178
 21
153.7242219163059929
 31
0.0
  0
LINE
  5
2B74C
  8
0
 10
3335.8632795482271831
 20
153.7106101911423934
 30
0.0
 11
3335.8725696441060791
 21
153.6989726890435861
 31
0.0
  0
ARC
  5
2B74D
  8
0
 10
3336.7241841823911273
 20
153.6632794651216045
 30
0.0
 40
0.8622047243999997
 50
178.346833578238801
 51
179.2531665088702084
  0
LINE
  5
2B74E
  8
0
 10
3335.8725696441310902
 20
153.6989726889748056
 30
0.0
 11
3335.8623383288481818
 21
153.6881533764214112
 31
0.0
  0
LINE
  5
2B74F
  8
0
 10
3335.8620527027660501
 20
153.6745177297001135
 30
0.0
 11
3335.8718219776610567
 21
153.6632794645059903
 31
0.0
  0
ARC
  5
2B750
  8
0
 10
3336.7241841823911273
 20
153.6632794651216045
 30
0.0
 40
0.8622047243999997
 50
180.7468335782376982
 51
181.6531665088691057
  0
LINE
  5
2B751
  8
0
 10
3335.8718219776887963
 20
153.6632794644382898
 30
0.0
 11
3335.8620527027928802
 21
153.6520411992441097
 31
0.0
  0
LINE
  5
2B752
  8
0
 10
3335.8623383288750119
 20
153.6384055525228121
 30
0.0
 11
3335.8725696441579203
 21
153.6275862399693892
 31
0.0
  0
ARC
  5
2B753
  8
0
 10
3336.7241841823911273
 20
153.6632794651216045
 30
0.0
 40
0.8622047243999997
 50
183.1468335782390966
 51
184.0531665088693956
  0
LINE
  5
2B754
  8
0
 10
3335.8725696441879336
 20
153.6275862399027972
 30
0.0
 11
3335.8632795483090376
 21
153.6159487378041035
 31
0.0
  0
LINE
  5
2B755
  8
0
 10
3335.8641359254688723
 20
153.6023370126405041
 30
0.0
 11
3335.8748113319347794
 21
153.591955633478392
 31
0.0
  0
ARC
  5
2B756
  8
0
 10
3336.7241841823911273
 20
153.6632794651216045
 30
0.0
 40
0.8622047243999995
 50
185.5468335782354927
 51
186.4531665088645127
  0
LINE
  5
2B757
  8
0
 10
3335.874811331967976
 20
153.5919556334131073
 30
0.0
 11
3335.8660167130888112
 21
153.5799393105428123
 31
0.0
  0
LINE
  5
2B758
  8
0
 10
3335.8674423389497861
 20
153.5663753865281933
 30
0.0
 11
3335.878543108311078
 21
153.5564501532240058
 31
0.0
  0
ARC
  5
2B759
  8
0
 10
3336.7241841823911273
 20
153.6632794651216045
 30
0.0
 40
0.8622047243999997
 50
187.9468335782337078
 51
188.8531665088650868
  0
LINE
  5
2B75A
  8
0
 10
3335.878543108347003
 20
153.5564501531601991
 30
0.0
 11
3335.870259395218909
 21
153.5440760902318118
 31
0.0
  0
LINE
  5
2B75B
  8
0
 10
3335.8722517687479012
 20
153.5305837630980079
 30
0.0
 11
3335.883758426482018
 21
153.5211320878835863
 31
0.0
  0
ARC
  5
2B75C
  8
0
 10
3336.7241841823911273
 20
153.6632794651216045
 30
0.0
 40
0.8622047243999995
 50
190.3468335782417
 51
191.2531665088694126
  0
LINE
  5
2B75D
  8
0
 10
3335.8837584265202167
 20
153.5211320878213996
 30
0.0
 11
3335.8760001515897784
 21
153.5084219931459018
 31
0.0
  0
LINE
  5
2B75E
  8
0
 10
3335.8785557774890549
 20
153.4950249330194083
 30
0.0
 11
3335.8904481370059329
 21
153.4860633973449069
 31
0.0
  0
ARC
  5
2B75F
  8
0
 10
3336.7241841823911273
 20
153.6632794651216045
 30
0.0
 40
0.8622047243999995
 50
192.7468335782415068
 51
193.6531665088778027
  0
LINE
  5
2B760
  8
0
 10
3335.8904481370468602
 20
153.4860633972843118
 30
0.0
 11
3335.8832289109659541
 21
153.4730395686868007
 31
0.0
  0
LINE
  5
2B761
  8
0
 10
3335.8863433057981638
 20
153.4597612785634908
 30
0.0
 11
3335.8986005038600524
 21
153.4513056040075014
 31
0.0
  0
ARC
  5
2B762
  8
0
 10
3336.7241841823911273
 20
153.6632794651216045
 30
0.0
 40
0.8622047243999995
 50
195.146833578246401
 51
196.0531665088699924
  0
LINE
  5
2B763
  8
0
 10
3335.8986005039041629
 20
153.4513056039486116
 30
0.0
 11
3335.891932991647991
 21
153.4379908896499956
 31
0.0
  0
LINE
  5
2B764
  8
0
 10
3335.8956006917051127
 20
153.4248546641626092
 30
0.0
 11
3335.9082012250219123
 21
153.4169196848515924
 31
0.0
  0
ARC
  5
2B765
  8
0
 10
3336.7241841823911273
 20
153.6632794651216045
 30
0.0
 40
0.8622047243999997
 50
197.546833578243394
 51
198.4531665088786951
  0
LINE
  5
2B766
  8
0
 10
3335.9082012250678417
 20
153.4169196847946921
 30
0.0
 11
3335.9020971237168851
 21
153.403337443328212
 31
0.0
  0
LINE
  5
2B767
  8
0
 10
3335.9063116946090304
 20
153.3903663278800025
 30
0.0
 11
3335.9192334575632231
 21
153.382965964464006
 31
0.0
  0
ARC
  5
2B768
  8
0
 10
3336.7241841823911273
 20
153.6632794651216045
 30
0.0
 40
0.8622047243999995
 50
199.9468335782322868
 51
200.8531665088727891
  0
LINE
  5
2B769
  8
0
 10
3335.9192334576109715
 20
153.38296596440901
 30
0.0
 11
3335.9137034758350637
 21
153.3691400236415063
 31
0.0
  0
LINE
  5
2B76A
  8
0
 10
3335.9184575237709396
 20
153.3563567739765858
 30
0.0
 11
3335.931677847201172
 21
153.349504009207692
 31
0.0
  0
ARC
  5
2B76B
  8
0
 10
3336.7241841823911273
 20
153.6632794651216045
 30
0.0
 40
0.8622047243999997
 50
202.3468335782299903
 51
203.2531665088602892
  0
LINE
  5
2B76C
  8
0
 10
3335.9316778472511942
 20
153.3495040091547992
 30
0.0
 11
3335.9267316865161774
 21
153.3354586244844029
 31
0.0
  0
LINE
  5
2B76D
  8
0
 10
3335.932016871281121
 20
153.3228856667664957
 30
0.0
 11
3335.9455125622448577
 21
153.3165925227228001
 31
0.0
  0
ARC
  5
2B76E
  8
0
 10
3336.7241841823911273
 20
153.6632794651216045
 30
0.0
 40
0.8622047243999997
 50
204.7468335782452016
 51
205.6531665088685941
  0
LINE
  5
2B76F
  8
0
 10
3335.9455125622971536
 20
153.3165925226718969
 30
0.0
 11
3335.9411588998509615
 21
153.3023523344760122
 31
0.0
  0
LINE
  5
2B770
  8
0
 10
3335.9469659494338885
 20
153.2900117259453054
 30
0.0
 11
3335.9607133319059358
 21
153.2842892429397068
 31
0.0
  0
ARC
  5
2B771
  8
0
 10
3336.7241841823911273
 20
153.6632794651216045
 30
0.0
 40
0.8622047243999997
 50
207.1468335782219867
 51
208.0531665088608122
  0
LINE
  5
2B772
  8
0
 10
3335.9607133319591412
 20
153.2842892428911057
 30
0.0
 11
3335.9569598056050381
 21
153.2698792332986955
 31
0.0
  0
LINE
  5
2B773
  8
0
 10
3335.9632785324688484
 20
153.2577926235759094
 30
0.0
 11
3335.9772534888661539
 21
153.2526508407881067
 31
0.0
  0
ARC
  5
2B774
  8
0
 10
3336.7241841823911273
 20
153.6632794651216898
 30
0.0
 40
0.8622047243999995
 50
209.5468335782290126
 51
210.4531665088564125
  0
LINE
  5
2B775
  8
0
 10
3335.9772534889220879
 20
153.252650840741893
 30
0.0
 11
3335.9741066836209029
 21
153.238096289806208
 31
0.0
  0
LINE
  5
2B776
  8
0
 10
3335.9809260025708681
 20
153.226284882911898
 30
0.0
 11
3335.9951040160731282
 21
153.2217328207761966
 31
0.0
  0
ARC
  5
2B777
  8
0
 10
3336.7241841823911273
 20
153.6632794651216898
 30
0.0
 40
0.8622047243999997
 50
211.9468335782318889
 51
212.8531665088667921
  0
LINE
  5
2B778
  8
0
 10
3335.9951040161308811
 20
153.2217328207323135
 30
0.0
 11
3335.9925694524467872
 21
153.2070592620816001
 31
0.0
  0
LINE
  5
2B779
  8
0
 10
3335.9998774000810045
 20
153.1955437792368002
 30
0.0
 11
3336.0142335976338472
 21
153.1915894236169891
 31
0.0
  0
ARC
  5
2B77A
  8
0
 10
3336.7241841823911273
 20
153.6632794651216898
 30
0.0
 40
0.8622047243999997
 50
214.3468335782320935
 51
215.2531665088534965
  0
LINE
  5
2B77B
  8
0
 10
3336.0142335976947834
 20
153.191589423575607
 30
0.0
 11
3336.012315722114181
 21
153.1768225996175943
 31
0.0
  0
LINE
  5
2B77C
  8
0
 10
3336.0200994778087988
 20
153.1656232428923943
 30
0.0
 11
3336.034608673764069
 21
153.1622735310718895
 31
0.0
  0
ARC
  5
2B77D
  8
0
 10
3336.7241841823911273
 20
153.6632794651216898
 30
0.0
 40
0.8622047243999997
 50
216.7468335782334066
 51
217.653166508868793
  0
LINE
  5
2B77E
  8
0
 10
3336.0346086738259146
 20
153.1622735310330938
 30
0.0
 11
3336.0333108509548765
 21
153.1474393477950002
 31
0.0
  0
LINE
  5
2B77F
  8
0
 10
3336.0415567593581727
 20
153.1365757646665031
 30
0.0
 11
3336.0561934996549098
 21
153.1338365731782005
 31
0.0
  0
ARC
  5
2B780
  8
0
 10
3336.7241841823911273
 20
153.6632794651216898
 30
0.0
 40
0.8622047243999997
 50
219.146833578240404
 51
220.053166508858709
  0
LINE
  5
2B781
  8
0
 10
3336.0561934997190292
 20
153.1338365731419913
 30
0.0
 11
3336.0555180063802254
 21
153.1189610548217104
 31
0.0
  0
LINE
  5
2B782
  8
0
 10
3336.0642116013650593
 20
153.1084523037064002
 30
0.0
 11
3336.0789502081888713
 21
153.106328438022814
 31
0.0
  0
ARC
  5
2B783
  8
0
 10
3336.7241841823911273
 20
153.6632794651216898
 30
0.0
 40
0.8622047243999995
 50
221.5468335782290978
 51
222.4531665088657064
  0
LINE
  5
2B784
  8
0
 10
3336.0789502082529907
 20
153.1063284379893048
 30
0.0
 11
3336.078898229492097
 21
153.0914376813007891
 31
0.0
  0
LINE
  5
2B785
  8
0
 10
3336.0880242595389973
 20
153.0813021981188911
 30
0.0
 11
3336.1028388763647854
 21
153.079797384222104
 31
0.0
  0
ARC
  5
2B786
  8
0
 10
3336.7241841823911273
 20
153.6632794651216898
 30
0.0
 40
0.8622047243999995
 50
223.9468335782345036
 51
224.8531665088603972
  0
LINE
  5
2B787
  8
0
 10
3336.1028388764311785
 20
153.0797973841914086
 30
0.0
 11
3336.1034105034341337
 21
153.0649175125818999
 31
0.0
  0
LINE
  5
2B788
  8
0
 10
3336.1129529583868134
 20
153.0551730784148958
 30
0.0
 11
3336.1278175953420941
 21
153.0542899562599075
 31
0.0
  0
ARC
  5
2B789
  8
0
 10
3336.7241841823911273
 20
153.6632794651216898
 30
0.0
 40
0.8622047243999997
 50
226.3468335782206111
 51
227.2531665088550028
  0
LINE
  5
2B78A
  8
0
 10
3336.1278175954098515
 20
153.0542899562319974
 30
0.0
 11
3336.1290118253500623
 21
153.0394470740525037
 31
0.0
  0
LINE
  5
2B78B
  8
0
 10
3336.1389539645001605
 20
153.0301107839491976
 30
0.0
 11
3336.1538425439612183
 21
153.029850902832294
 31
0.0
  0
ARC
  5
2B78C
  8
0
 10
3336.7241841823911273
 20
153.6632794651216898
 30
0.0
 40
0.8622047243999995
 50
228.7468335782334066
 51
229.6531665088674004
  0
LINE
  5
2B78D
  8
0
 10
3336.1538425440289757
 20
153.0298509028071976
 30
0.0
 11
3336.1556572818221866
 21
153.0150710495165924
 31
0.0
  0
LINE
  5
2B78E
  8
0
 10
3336.1659816632782167
 20
153.0061592825024093
 30
0.0
 11
3336.1808680656158685
 21
153.0065230983433935
 31
0.0
  0
ARC
  5
2B78F
  8
0
 10
3336.7241841823911273
 20
153.6632794651216898
 30
0.0
 40
0.8622047243999997
 50
231.1468335782493
 51
232.0531665088537068
  0
LINE
  5
2B790
  8
0
 10
3336.1808680656858996
 20
153.0065230983211961
 30
0.0
 11
3336.1833001276631876
 21
152.9918322028044884
 31
0.0
  0
LINE
  5
2B791
  8
0
 10
3336.1939886389518506
 20
152.9833605931468981
 30
0.0
 11
3336.2088467483599743
 21
152.9843474676891901
 31
0.0
  0
ARC
  5
2B792
  8
0
 10
3336.7241841823911273
 20
153.6632794651216898
 30
0.0
 40
0.8622047243999997
 50
233.5468335782389033
 51
234.4531665088547072
  0
LINE
  5
2B793
  8
0
 10
3336.2088467484300054
 20
152.9843474676698918
 30
0.0
 11
3336.2118918679298076
 21
152.9697713027497059
 31
0.0
  0
LINE
  5
2B794
  8
0
 10
3336.2229257577710086
 20
152.9617547125307055
 30
0.0
 11
3336.2377295080759723
 21
152.9633629144611007
 31
0.0
  0
ARC
  5
2B795
  8
0
 10
3336.7241841823911273
 20
153.6632794651216898
 30
0.0
 40
0.8622047243999997
 50
235.9468335782337931
 51
236.8531665088700038
  0
LINE
  5
2B796
  8
0
 10
3336.2377295081469128
 20
152.9633629144447866
 30
0.0
 11
3336.2413823429951663
 21
152.9489270516675106
 31
0.0
  0
LINE
  5
2B797
  8
0
 10
3336.2527422541961641
 20
152.9413795447104008
 30
0.0
 11
3336.2674656745898574
 21
152.9436062526959859
 31
0.0
  0
ARC
  5
2B798
  8
0
 10
3336.7241841823911273
 20
153.6632794651216898
 30
0.0
 40
0.8622047243999995
 50
238.346833578222089
 51
239.2531665088642967
  0
LINE
  5
2B799
  8
0
 10
3336.267465674660798
 20
152.9436062526827129
 30
0.0
 11
3336.2717198165428272
 21
152.9293360174569898
 31
0.0
  0
LINE
  5
2B79A
  8
0
 10
3336.2833858199601309
 20
152.9222708346536876
 30
0.0
 11
3336.2980030805601928
 21
152.9251121422921926
 31
0.0
  0
ARC
  5
2B79B
  8
0
 10
3336.7241841823911273
 20
153.6632794651218035
 30
0.0
 40
0.8622047243999997
 50
240.7468335782344866
 51
241.6531665088652119
  0
LINE
  5
2B79C
  8
0
 10
3336.2980030806320428
 20
152.925112142281904
 30
0.0
 11
3336.302851066337098
 21
152.9110325694493042
 31
0.0
  0
LINE
  5
2B79D
  8
0
 10
3336.3148026958351693
 20
152.904462105531195
 30
0.0
 11
3336.3292881530001068
 21
152.907913028203609
 31
0.0
  0
ARC
  5
2B79E
  8
0
 10
3336.7241841823920367
 20
153.6632794651218035
 30
0.0
 40
0.8622047243999995
 50
243.146833578237306
 51
244.0531665088776094
  0
LINE
  5
2B79F
  8
0
 10
3336.3292881530728664
 20
152.9079130281963899
 30
0.0
 11
3336.3347214775872089
 21
152.8940488181119122
 31
0.0
  0
LINE
  5
2B7A0
  8
0
 10
3336.3469377659480415
 20
152.8879845999053941
 30
0.0
 11
3336.361266007262202
 21
152.8920390835205865
 31
0.0
  0
ARC
  5
2B7A1
  8
0
 10
3336.7241841823920367
 20
153.6632794651218035
 30
0.0
 40
0.8622047243999997
 50
245.5468335782373117
 51
246.4531665088551051
  0
LINE
  5
2B7A2
  8
0
 10
3336.3612660073340521
 20
152.8920390835164085
 30
0.0
 11
3336.3672751387612152
 21
152.87841455871569
 31
0.0
  0
LINE
  5
2B7A3
  8
0
 10
3336.3797346544629363
 20
152.8728672249200997
 30
0.0
 11
3336.3938805433240304
 21
152.8775181565360981
 31
0.0
  0
ARC
  5
2B7A4
  8
0
 10
3336.7241841823920367
 20
153.6632794651218035
 30
0.0
 40
0.8622047243999997
 50
247.9468335782325141
 51
248.8531665088586067
  0
LINE
  5
2B7A5
  8
0
 10
3336.3938805433958805
 20
152.8775181565349044
 30
0.0
 11
3336.4004549396768198
 21
152.8641572190641114
 31
0.0
  0
LINE
  5
2B7A6
  8
0
 10
3336.4131358244949297
 20
152.8591365015880115
 30
0.0
 11
3336.4270745442058796
 21
152.8643757218904113
 31
0.0
  0
ARC
  5
2B7A7
  8
0
 10
3336.7241841823920367
 20
153.6632794651218035
 30
0.0
 40
0.8622047243999995
 50
250.3468335782469865
 51
251.2531665088602892
  0
LINE
  5
2B7A8
  8
0
 10
3336.4270745442800035
 20
152.8643757218922872
 30
0.0
 11
3336.4342026716881264
 21
152.8513018113758051
 31
0.0
  0
LINE
  5
2B7A9
  8
0
 10
3336.4470826790420688
 20
152.8468165182634948
 30
0.0
 11
3336.4607897763530673
 21
152.8526348358795985
 31
0.0
  0
ARC
  5
2B7AA
  8
0
 10
3336.7241841823920367
 20
153.6632794651218035
 30
0.0
 40
0.8622047243999997
 50
252.7468335782253916
 51
253.6531665088729142
  0
LINE
  5
2B7AB
  8
0
 10
3336.4607897764249174
 20
152.8526348358846008
 30
0.0
 11
3336.4684591298041596
 21
152.8398708884039934
 31
0.0
  0
LINE
  5
2B7AC
  8
0
 10
3336.4815156637860127
 20
152.8359288883839042
 30
0.0
 11
3336.4949670917890217
 21
152.8423160960074085
 31
0.0
  0
ARC
  5
2B7AD
  8
0
 10
3336.7241841823920367
 20
153.6632794651218887
 30
0.0
 40
0.8622047243999997
 50
255.1468335782329007
 51
256.0531665088706745
  0
LINE
  5
2B7AE
  8
0
 10
3336.4949670918617812
 20
152.842316096015395
 30
0.0
 11
3336.5031642165599806
 21
152.8298845038717957
 31
0.0
  0
LINE
  5
2B7AF
  8
0
 10
3336.5163743715711462
 20
152.8264927125514134
 30
0.0
 11
3336.5295465318918104
 21
152.8334376048499053
 31
0.0
  0
ARC
  5
2B7B0
  8
0
 10
3336.7241841823920367
 20
153.6632794651218887
 30
0.0
 40
0.8622047243999997
 50
257.5468335782321105
 51
258.4531665088529166
  0
LINE
  5
2B7B1
  8
0
 10
3336.5295465319632058
 20
152.8334376048609045
 30
0.0
 11
3336.5382570474389468
 21
152.8213601772912114
 31
0.0
  0
LINE
  5
2B7B2
  8
0
 10
3336.5515976483779923
 20
152.8185245450250136
 30
0.0
 11
3336.5644674325708365
 21
152.8260149382975044
 31
0.0
  0
ARC
  5
2B7B3
  8
0
 10
3336.7241841823920367
 20
153.6632794651218887
 30
0.0
 40
0.8622047243999995
 50
259.9468335782311215
 51
260.8531665088542013
  0
LINE
  5
2B7B4
  8
0
 10
3336.5644674326431414
 20
152.8260149383114879
 30
0.0
 11
3336.5736760576901361
 21
152.8143128632275989
 31
0.0
  0
LINE
  5
2B7B5
  8
0
 10
3336.5871237006108458
 20
152.8120383646781022
 30
0.0
 11
3336.5996685307018197
 21
152.820061118229404
 31
0.0
  0
ARC
  5
2B7B6
  8
0
 10
3336.7241841823920367
 20
153.6632794651218887
 30
0.0
 40
0.8622047243999997
 50
262.3468335782216059
 51
263.2531665088607156
  0
LINE
  5
2B7B7
  8
0
 10
3336.5996685307718508
 20
152.8200611182465138
 30
0.0
 11
3336.6093591103358449
 21
152.8087549250643917
 31
0.0
  0
LINE
  5
2B7B8
  8
0
 10
3336.6228902035031751
 20
152.80704555047501
 30
0.0
 11
3336.6350880715958738
 21
152.8155865896694081
 31
0.0
  0
ARC
  5
2B7B9
  8
0
 10
3336.7241841823920367
 20
153.6632794651218887
 30
0.0
 40
0.8622047243999995
 50
264.7468335782413078
 51
265.6531665088667182
  0
LINE
  5
2B7BA
  8
0
 10
3336.6350880716659049
 20
152.8155865896893886
 30
0.0
 11
3336.6452436051749828
 21
152.804696113313895
 31
0.0
  0
LINE
  5
2B7BB
  8
0
 10
3336.6588344104529824
 20
152.803554861508502
 30
0.0
 11
3336.6706639173439726
 21
152.8125992024608877
 31
0.0
  0
ARC
  5
2B7BC
  8
0
 10
3336.7241841823920367
 20
153.6632794651218887
 30
0.0
 40
0.8622047243999995
 50
267.1468335782361123
 51
268.0531665088662976
  0
LINE
  5
2B7BD
  8
0
 10
3336.6706639174130942
 20
152.8125992024837956
 30
0.0
 11
3336.6812665886118339
 21
152.8021435485111112
 31
0.0
  0
LINE
  5
2B7BE
  8
0
 10
3336.6948932631089519
 20
152.8015724216330966
 30
0.0
 11
3336.7063336558221636
 21
152.8111041974960926
 31
0.0
  0
ARC
  5
2B7BF
  8
0
 10
3336.1188823423090071
 20
155.2590640800227959
 30
0.0
 40
0.2480314958060961
 50
127.9615312967832068
 51
171.1699971768555884
  0
LINE
  5
2B7C0
  8
0
 10
3337.5863156620321206
 20
155.2971377329218967
 30
0.0
 11
3335.8620527027510434
 21
155.2971377329218967
 31
0.0
  0
LINE
  5
2B7C1
  8
0
 10
3337.5863156620321206
 20
155.1790274966220124
 30
0.0
 11
3335.8620527027510434
 21
155.1790274966220124
 31
0.0
  0
LINE
  5
2B7C2
  8
0
 10
3335.8737904822910423
 20
155.1790274966220124
 30
0.0
 11
3335.8737904822910423
 21
155.0412322210218861
 31
0.0
  0
LINE
  5
2B7C3
  8
0
 10
3337.5863156620321206
 20
155.2971377329218967
 30
0.0
 11
3337.5863156620321206
 21
155.1790274966220124
 31
0.0
  0
LINE
  5
2B7C4
  8
0
 10
3337.5860300359349822
 20
155.2971377329218967
 30
0.0
 11
3337.5860300359349822
 21
155.1790274966220124
 31
0.0
  0
LINE
  5
2B7C5
  8
0
 10
3337.5850888165691686
 20
155.2971377329218967
 30
0.0
 11
3337.5850888165691686
 21
155.1790274966220124
 31
0.0
  0
LINE
  5
2B7C6
  8
0
 10
3337.5842324393961462
 20
155.2971377329218967
 30
0.0
 11
3337.5842324393961462
 21
155.1790274966220124
 31
0.0
  0
LINE
  5
2B7C7
  8
0
 10
3337.5823516518430552
 20
155.2971377329218967
 30
0.0
 11
3337.5823516518430552
 21
155.1790274966220124
 31
0.0
  0
LINE
  5
2B7C8
  8
0
 10
3337.5809260259679832
 20
155.2971377329218967
 30
0.0
 11
3337.5809260259679832
 21
155.1790274966220124
 31
0.0
  0
LINE
  5
2B7C9
  8
0
 10
3337.5781089697670723
 20
155.2971377329218967
 30
0.0
 11
3337.5781089697670723
 21
155.1790274966220124
 31
0.0
  0
LINE
  5
2B7CA
  8
0
 10
3337.5761165962239829
 20
155.2971377329218967
 30
0.0
 11
3337.5761165962239829
 21
155.1790274966220124
 31
0.0
  0
LINE
  5
2B7CB
  8
0
 10
3337.5723682134480441
 20
155.2971377329218967
 30
0.0
 11
3337.5723682134480441
 21
155.1790274966220124
 31
0.0
  0
LINE
  5
2B7CC
  8
0
 10
3337.5698125875369442
 20
155.2971377329218967
 30
0.0
 11
3337.5698125875369442
 21
155.1790274966220124
 31
0.0
  0
LINE
  5
2B7CD
  8
0
 10
3337.5651394541241643
 20
155.2971377329218967
 30
0.0
 11
3337.5651394541241643
 21
155.1790274966220124
 31
0.0
  0
LINE
  5
2B7CE
  8
0
 10
3337.5620250592810407
 20
155.2971377329218967
 30
0.0
 11
3337.5620250592810407
 21
155.1790274966220124
 31
0.0
  0
LINE
  5
2B7CF
  8
0
 10
3337.5564353734948781
 20
155.2971377329218967
 30
0.0
 11
3337.5564353734948781
 21
155.1790274966220124
 31
0.0
  0
LINE
  5
2B7D0
  8
0
 10
3337.5527676734282068
 20
155.2971377329218967
 30
0.0
 11
3337.5527676734282068
 21
155.1790274966220124
 31
0.0
  0
LINE
  5
2B7D1
  8
0
 10
3337.5462712414760063
 20
155.2971377329218967
 30
0.0
 11
3337.5462712414760063
 21
155.1790274966220124
 31
0.0
  0
LINE
  5
2B7D2
  8
0
 10
3337.5420566705761303
 20
155.2971377329218967
 30
0.0
 11
3337.5420566705761303
 21
155.1790274966220124
 31
0.0
  0
LINE
  5
2B7D3
  8
0
 10
3337.5346648894078498
 20
155.2971377329218967
 30
0.0
 11
3337.5346648894078498
 21
155.1790274966220124
 31
0.0
  0
LINE
  5
2B7D4
  8
0
 10
3337.5299108414637885
 20
155.2971377329218967
 30
0.0
 11
3337.5299108414637885
 21
155.1790274966220124
 31
0.0
  0
LINE
  5
2B7D5
  8
0
 10
3337.5216366787699371
 20
155.2971377329218967
 30
0.0
 11
3337.5216366787699371
 21
155.1790274966220124
 31
0.0
  0
LINE
  5
2B7D6
  8
0
 10
3337.5163514940049936
 20
155.2971377329218967
 30
0.0
 11
3337.5163514940049936
 21
155.1790274966220124
 31
0.0
  0
LINE
  5
2B7D7
  8
0
 10
3337.507209465491087
 20
155.2971377329218967
 30
0.0
 11
3337.507209465491087
 21
155.1790274966220124
 31
0.0
  0
LINE
  5
2B7D8
  8
0
 10
3337.5014024159008841
 20
155.2971377329218967
 30
0.0
 11
3337.5014024159008841
 21
155.1790274966220124
 31
0.0
  0
LINE
  5
2B7D9
  8
0
 10
3337.4914085597852136
 20
155.2971377329218967
 30
0.0
 11
3337.4914085597852136
 21
155.1790274966220124
 31
0.0
  0
LINE
  5
2B7DA
  8
0
 10
3337.4850898329159463
 20
155.2971377329218967
 30
0.0
 11
3337.4850898329159463
 21
155.1790274966220124
 31
0.0
  0
LINE
  5
2B7DB
  8
0
 10
3337.4742616818161878
 20
155.2971377329218967
 30
0.0
 11
3337.4742616818161878
 21
155.1790274966220124
 31
0.0
  0
LINE
  5
2B7DC
  8
0
 10
3337.4674423628612203
 20
155.2971377329218967
 30
0.0
 11
3337.4674423628612203
 21
155.1790274966220124
 31
0.0
  0
LINE
  5
2B7DD
  8
0
 10
3337.4557989130357782
 20
155.2971377329218967
 30
0.0
 11
3337.4557989130357782
 21
155.1790274966220124
 31
0.0
  0
LINE
  5
2B7DE
  8
0
 10
3337.4484909653970135
 20
155.2971377329218967
 30
0.0
 11
3337.4484909653970135
 21
155.1790274966220124
 31
0.0
  0
LINE
  5
2B7DF
  8
0
 10
3337.4360526434102212
 20
155.2971377329218967
 30
0.0
 11
3337.4360526434102212
 21
155.1790274966220124
 31
0.0
  0
LINE
  5
2B7E0
  8
0
 10
3337.4282688877151486
 20
155.2971377329218967
 30
0.0
 11
3337.4282688877151486
 21
155.1790274966220124
 31
0.0
  0
LINE
  5
2B7E1
  8
0
 10
3337.4150575146131814
 20
155.2971377329218967
 30
0.0
 11
3337.4150575146131814
 21
155.1790274966220124
 31
0.0
  0
LINE
  5
2B7E2
  8
0
 10
3337.4068116062489935
 20
155.2971377329218967
 30
0.0
 11
3337.4068116062489935
 21
155.1790274966220124
 31
0.0
  0
LINE
  5
2B7E3
  8
0
 10
3337.392850359231943
 20
155.2971377329218967
 30
0.0
 11
3337.392850359231943
 21
155.1790274966220124
 31
0.0
  0
LINE
  5
2B7E4
  8
0
 10
3337.3841567642461996
 20
155.2971377329218967
 30
0.0
 11
3337.3841567642461996
 21
155.1790274966220124
 31
0.0
  0
LINE
  5
2B7E5
  8
0
 10
3337.3694701361609987
 20
155.2971377329218967
 30
0.0
 11
3337.3694701361609987
 21
155.1790274966220124
 31
0.0
  0
LINE
  5
2B7E6
  8
0
 10
3337.3603441061509329
 20
155.2971377329218967
 30
0.0
 11
3337.3603441061509329
 21
155.1790274966220124
 31
0.0
  0
LINE
  5
2B7E7
  8
0
 10
3337.3455294892610254
 20
155.2971377329218967
 30
0.0
 11
3337.3455294892610254
 21
155.1790274966220124
 31
0.0
  0
LINE
  5
2B7E8
  8
0
 10
3337.3449578622557965
 20
155.2971377329218967
 30
0.0
 11
3337.3449578622557965
 21
155.1790274966220124
 31
0.0
  0
LINE
  5
2B7E9
  8
0
 10
3337.3354154073440441
 20
155.2971377329218967
 30
0.0
 11
3337.3354154073440441
 21
155.1790274966220124
 31
0.0
  0
LINE
  5
2B7EA
  8
0
 10
3337.3205507703200965
 20
155.2971377329218967
 30
0.0
 11
3337.3205507703200965
 21
155.1790274966220124
 31
0.0
  0
LINE
  5
2B7EB
  8
0
 10
3337.3193565403780667
 20
155.2971377329218967
 30
0.0
 11
3337.3193565403780667
 21
155.1790274966220124
 31
0.0
  0
LINE
  5
2B7EC
  8
0
 10
3337.3094144012679862
 20
155.2971377329218967
 30
0.0
 11
3337.3094144012679862
 21
155.1790274966220124
 31
0.0
  0
LINE
  5
2B7ED
  8
0
 10
3337.2945258217368973
 20
155.2971377329218967
 30
0.0
 11
3337.2945258217368973
 21
155.1790274966220124
 31
0.0
  0
LINE
  5
2B7EE
  8
0
 10
3337.2927110839418674
 20
155.2971377329218967
 30
0.0
 11
3337.2927110839418674
 21
155.1790274966220124
 31
0.0
  0
LINE
  5
2B7EF
  8
0
 10
3337.2823867025281288
 20
155.2971377329218967
 30
0.0
 11
3337.2823867025281288
 21
155.1790274966220124
 31
0.0
  0
LINE
  5
2B7F0
  8
0
 10
3337.2675003001500045
 20
155.2971377329218967
 30
0.0
 11
3337.2675003001500045
 21
155.1790274966220124
 31
0.0
  0
LINE
  5
2B7F1
  8
0
 10
3337.2650682381349725
 20
155.2971377329218967
 30
0.0
 11
3337.2650682381349725
 21
155.1790274966220124
 31
0.0
  0
LINE
  5
2B7F2
  8
0
 10
3337.2543797268881463
 20
155.2971377329218967
 30
0.0
 11
3337.2543797268881463
 21
155.1790274966220124
 31
0.0
  0
LINE
  5
2B7F3
  8
0
 10
3337.2395216174409143
 20
155.2971377329218967
 30
0.0
 11
3337.2395216174409143
 21
155.1790274966220124
 31
0.0
  0
LINE
  5
2B7F4
  8
0
 10
3337.2364764979001848
 20
155.2971377329218967
 30
0.0
 11
3337.2364764979001848
 21
155.1790274966220124
 31
0.0
  0
LINE
  5
2B7F5
  8
0
 10
3337.2254426081008205
 20
155.2971377329218967
 30
0.0
 11
3337.2254426081008205
 21
155.1790274966220124
 31
0.0
  0
LINE
  5
2B7F6
  8
0
 10
3337.2106388577581129
 20
155.2971377329218967
 30
0.0
 11
3337.2106388577581129
 21
155.1790274966220124
 31
0.0
  0
LINE
  5
2B7F7
  8
0
 10
3337.2069860228648395
 20
155.2971377329218967
 30
0.0
 11
3337.2069860228648395
 21
155.1790274966220124
 31
0.0
  0
LINE
  5
2B7F8
  8
0
 10
3337.1956261117079521
 20
155.2971377329218967
 30
0.0
 11
3337.1956261117079521
 21
155.1790274966220124
 31
0.0
  0
LINE
  5
2B7F9
  8
0
 10
3337.1809026912751506
 20
155.2971377329218967
 30
0.0
 11
3337.1809026912751506
 21
155.1790274966220124
 31
0.0
  0
LINE
  5
2B7FA
  8
0
 10
3337.1766485493449181
 20
155.2971377329218967
 30
0.0
 11
3337.1766485493449181
 21
155.1790274966220124
 31
0.0
  0
LINE
  5
2B7FB
  8
0
 10
3337.1649825459730891
 20
155.2971377329218967
 30
0.0
 11
3337.1649825459730891
 21
155.1790274966220124
 31
0.0
  0
LINE
  5
2B7FC
  8
0
 10
3337.150365285333919
 20
155.2971377329218967
 30
0.0
 11
3337.150365285333919
 21
155.1790274966220124
 31
0.0
  0
LINE
  5
2B7FD
  8
0
 10
3337.1455172995838439
 20
155.2971377329218967
 30
0.0
 11
3337.1455172995838439
 21
155.1790274966220124
 31
0.0
  0
LINE
  5
2B7FE
  8
0
 10
3337.1335656701239714
 20
155.2971377329218967
 30
0.0
 11
3337.1335656701239714
 21
155.1790274966220124
 31
0.0
  0
LINE
  5
2B7FF
  8
0
 10
3337.1190802129221993
 20
155.2971377329218967
 30
0.0
 11
3337.1190802129221993
 21
155.1790274966220124
 31
0.0
  0
LINE
  5
2B800
  8
0
 10
3337.1136468883510133
 20
155.2971377329218967
 30
0.0
 11
3337.1136468883510133
 21
155.1790274966220124
 31
0.0
  0
LINE
  5
2B801
  8
0
 10
3337.1014306000370198
 20
155.2971377329218967
 30
0.0
 11
3337.1014306000370198
 21
155.1790274966220124
 31
0.0
  0
LINE
  5
2B802
  8
0
 10
3337.0871023586360025
 20
155.2971377329218967
 30
0.0
 11
3337.0871023586360025
 21
155.1790274966220124
 31
0.0
  0
LINE
  5
2B803
  8
0
 10
3337.0810932272001992
 20
155.2971377329218967
 30
0.0
 11
3337.0810932272001992
 21
155.1790274966220124
 31
0.0
  0
LINE
  5
2B804
  8
0
 10
3337.0686337115439528
 20
155.2971377329218967
 30
0.0
 11
3337.0686337115439528
 21
155.1790274966220124
 31
0.0
  0
LINE
  5
2B805
  8
0
 10
3337.0544878226469336
 20
155.2971377329218967
 30
0.0
 11
3337.0544878226469336
 21
155.1790274966220124
 31
0.0
  0
LINE
  5
2B806
  8
0
 10
3337.0479134263041487
 20
155.2971377329218967
 30
0.0
 11
3337.0479134263041487
 21
155.1790274966220124
 31
0.0
  0
LINE
  5
2B807
  8
0
 10
3337.0352325415319683
 20
155.2971377329218967
 30
0.0
 11
3337.0352325415319683
 21
155.1790274966220124
 31
0.0
  0
LINE
  5
2B808
  8
0
 10
3337.0212938217850933
 20
155.2971377329218967
 30
0.0
 11
3337.0212938217850933
 21
155.1790274966220124
 31
0.0
  0
LINE
  5
2B809
  8
0
 10
3337.014165694311032
 20
155.2971377329218967
 30
0.0
 11
3337.014165694311032
 21
155.1790274966220124
 31
0.0
  0
LINE
  5
2B80A
  8
0
 10
3337.0012856870039286
 20
155.2971377329218967
 30
0.0
 11
3337.0012856870039286
 21
155.1790274966220124
 31
0.0
  0
LINE
  5
2B80B
  8
0
 10
3336.9875785896579146
 20
155.2971377329218967
 30
0.0
 11
3336.9875785896579146
 21
155.1790274966220124
 31
0.0
  0
LINE
  5
2B80C
  8
0
 10
3336.979909236209096
 20
155.2971377329218967
 30
0.0
 11
3336.979909236209096
 21
155.1790274966220124
 31
0.0
  0
LINE
  5
2B80D
  8
0
 10
3336.9668527022749913
 20
155.2971377329218967
 30
0.0
 11
3336.9668527022749913
 21
155.1790274966220124
 31
0.0
  0
LINE
  5
2B80E
  8
0
 10
3336.9534012742378764
 20
155.2971377329218967
 30
0.0
 11
3336.9534012742378764
 21
155.1790274966220124
 31
0.0
  0
LINE
  5
2B80F
  8
0
 10
3336.9452041494810146
 20
155.2971377329218967
 30
0.0
 11
3336.9452041494810146
 21
155.1790274966220124
 31
0.0
  0
LINE
  5
2B810
  8
0
 10
3336.9319939945048645
 20
155.2971377329218967
 30
0.0
 11
3336.9319939945048645
 21
155.1790274966220124
 31
0.0
  0
LINE
  5
2B811
  8
0
 10
3336.9188218341500942
 20
155.2971377329218967
 30
0.0
 11
3336.9188218341500942
 21
155.1790274966220124
 31
0.0
  0
LINE
  5
2B812
  8
0
 10
3336.9101113186011389
 20
155.2971377329218967
 30
0.0
 11
3336.9101113186011389
 21
155.1790274966220124
 31
0.0
  0
LINE
  5
2B813
  8
0
 10
3336.8967707176761905
 20
155.2971377329218967
 30
0.0
 11
3336.8967707176761905
 21
155.1790274966220124
 31
0.0
  0
LINE
  5
2B814
  8
0
 10
3336.8746923083740512
 20
155.2971377329218967
 30
0.0
 11
3336.8746923083740512
 21
155.1790274966220124
 31
0.0
  0
LINE
  5
2B815
  8
0
 10
3336.8839009334219554
 20
155.2971377329218967
 30
0.0
 11
3336.8839009334219554
 21
155.1790274966220124
 31
0.0
  0
LINE
  5
2B816
  8
0
 10
3336.8612446654860832
 20
155.2971377329218967
 30
0.0
 11
3336.8612446654860832
 21
155.1790274966220124
 31
0.0
  0
LINE
  5
2B817
  8
0
 10
3336.8486998353628223
 20
155.2971377329218967
 30
0.0
 11
3336.8486998353628223
 21
155.1790274966220124
 31
0.0
  0
LINE
  5
2B818
  8
0
 10
3336.8390092557360731
 20
155.2971377329218967
 30
0.0
 11
3336.8390092557360731
 21
155.1790274966220124
 31
0.0
  0
LINE
  5
2B819
  8
0
 10
3336.8254781626019394
 20
155.2971377329218967
 30
0.0
 11
3336.8254781626019394
 21
155.1790274966220124
 31
0.0
  0
LINE
  5
2B81A
  8
0
 10
3336.8132802944769537
 20
155.2971377329218967
 30
0.0
 11
3336.8132802944769537
 21
155.1790274966220124
 31
0.0
  0
LINE
  5
2B81B
  8
0
 10
3336.8031247608860212
 20
155.2971377329218967
 30
0.0
 11
3336.8031247608860212
 21
155.1790274966220124
 31
0.0
  0
LINE
  5
2B81C
  8
0
 10
3336.7895339556562249
 20
155.2971377329218967
 30
0.0
 11
3336.7895339556562249
 21
155.1790274966220124
 31
0.0
  0
LINE
  5
2B81D
  8
0
 10
3336.7777044486679188
 20
155.2971377329218967
 30
0.0
 11
3336.7777044486679188
 21
155.1790274966220124
 31
0.0
  0
LINE
  5
2B81E
  8
0
 10
3336.7671017774691791
 20
155.2971377329218967
 30
0.0
 11
3336.7671017774691791
 21
155.1790274966220124
 31
0.0
  0
LINE
  5
2B81F
  8
0
 10
3336.7534751030020743
 20
155.2971377329218967
 30
0.0
 11
3336.7534751030020743
 21
155.1790274966220124
 31
0.0
  0
LINE
  5
2B820
  8
0
 10
3336.7420347102588494
 20
155.2971377329218967
 30
0.0
 11
3336.7420347102588494
 21
155.1790274966220124
 31
0.0
  0
LINE
  5
2B821
  8
0
 10
3336.7310035019909265
 20
155.2971377329218967
 30
0.0
 11
3336.7310035019909265
 21
155.1790274966220124
 31
0.0
  0
LINE
  5
2B822
  8
0
 10
3335.8620527027510434
 20
155.2971377329218967
 30
0.0
 11
3335.8620527027510434
 21
155.1790274966220124
 31
0.0
  0
LINE
  5
2B823
  8
0
 10
3335.8623383288481818
 20
155.2971377329218967
 30
0.0
 11
3335.8623383288481818
 21
155.1790274966220124
 31
0.0
  0
LINE
  5
2B824
  8
0
 10
3335.8632795482121765
 20
155.2971377329218967
 30
0.0
 11
3335.8632795482121765
 21
155.1790274966220124
 31
0.0
  0
LINE
  5
2B825
  8
0
 10
3335.8641359253870178
 20
155.2971377329218967
 30
0.0
 11
3335.8641359253870178
 21
155.1790274966220124
 31
0.0
  0
LINE
  5
2B826
  8
0
 10
3335.8660167129401088
 20
155.2971377329218967
 30
0.0
 11
3335.8660167129401088
 21
155.1790274966220124
 31
0.0
  0
LINE
  5
2B827
  8
0
 10
3335.8674423388151808
 20
155.2971377329218967
 30
0.0
 11
3335.8674423388151808
 21
155.1790274966220124
 31
0.0
  0
LINE
  5
2B828
  8
0
 10
3335.8702593950160917
 20
155.2971377329218967
 30
0.0
 11
3335.8702593950160917
 21
155.1790274966220124
 31
0.0
  0
LINE
  5
2B829
  8
0
 10
3335.8722517685591811
 20
155.2971377329218967
 30
0.0
 11
3335.8722517685591811
 21
155.1790274966220124
 31
0.0
  0
LINE
  5
2B82A
  8
0
 10
3335.8760001513342104
 20
155.2971377329218967
 30
0.0
 11
3335.8760001513342104
 21
155.1790274966220124
 31
0.0
  0
LINE
  5
2B82B
  8
0
 10
3335.8785557772448556
 20
155.2971377329218967
 30
0.0
 11
3335.8785557772448556
 21
155.1790274966220124
 31
0.0
  0
LINE
  5
2B82C
  8
0
 10
3335.8832289106580902
 20
155.2971377329218967
 30
0.0
 11
3335.8832289106580902
 21
155.1790274966220124
 31
0.0
  0
LINE
  5
2B82D
  8
0
 10
3335.8863433055012138
 20
155.2971377329218967
 30
0.0
 11
3335.8863433055012138
 21
155.1790274966220124
 31
0.0
  0
LINE
  5
2B82E
  8
0
 10
3335.8919329912869216
 20
155.2971377329218967
 30
0.0
 11
3335.8919329912869216
 21
155.1790274966220124
 31
0.0
  0
LINE
  5
2B82F
  8
0
 10
3335.8956006913549572
 20
155.2971377329218967
 30
0.0
 11
3335.8956006913549572
 21
155.1790274966220124
 31
0.0
  0
LINE
  5
2B830
  8
0
 10
3335.9020971233057935
 20
155.2971377329218967
 30
0.0
 11
3335.9020971233057935
 21
155.1790274966220124
 31
0.0
  0
LINE
  5
2B831
  8
0
 10
3335.9063116942070337
 20
155.2971377329218967
 30
0.0
 11
3335.9063116942070337
 21
155.1790274966220124
 31
0.0
  0
LINE
  5
2B832
  8
0
 10
3335.9137034753739499
 20
155.2971377329218967
 30
0.0
 11
3335.9137034753739499
 21
155.1790274966220124
 31
0.0
  0
LINE
  5
2B833
  8
0
 10
3335.9184575233180112
 20
155.2971377329218967
 30
0.0
 11
3335.9184575233180112
 21
155.1790274966220124
 31
0.0
  0
LINE
  5
2B834
  8
0
 10
3335.9267316860132269
 20
155.2971377329218967
 30
0.0
 11
3335.9267316860132269
 21
155.1790274966220124
 31
0.0
  0
LINE
  5
2B835
  8
0
 10
3335.9320168707768062
 20
155.2971377329218967
 30
0.0
 11
3335.9320168707768062
 21
155.1790274966220124
 31
0.0
  0
LINE
  5
2B836
  8
0
 10
3335.9411588992911675
 20
155.2971377329218967
 30
0.0
 11
3335.9411588992911675
 21
155.1790274966220124
 31
0.0
  0
LINE
  5
2B837
  8
0
 10
3335.9469659488800062
 20
155.2971377329218967
 30
0.0
 11
3335.9469659488800062
 21
155.1790274966220124
 31
0.0
  0
LINE
  5
2B838
  8
0
 10
3335.9569598049979504
 20
155.2971377329218967
 30
0.0
 11
3335.9569598049979504
 21
155.1790274966220124
 31
0.0
  0
LINE
  5
2B839
  8
0
 10
3335.9632785318672177
 20
155.2971377329218967
 30
0.0
 11
3335.9632785318672177
 21
155.1790274966220124
 31
0.0
  0
LINE
  5
2B83A
  8
0
 10
3335.9741066829660667
 20
155.2971377329218967
 30
0.0
 11
3335.9741066829660667
 21
155.1790274966220124
 31
0.0
  0
LINE
  5
2B83B
  8
0
 10
3335.9809260019210342
 20
155.2971377329218967
 30
0.0
 11
3335.9809260019210342
 21
155.1790274966220124
 31
0.0
  0
LINE
  5
2B83C
  8
0
 10
3335.992569451746931
 20
155.2971377329218967
 30
0.0
 11
3335.992569451746931
 21
155.1790274966220124
 31
0.0
  0
LINE
  5
2B83D
  8
0
 10
3335.9998773993838768
 20
155.2971377329218967
 30
0.0
 11
3335.9998773993838768
 21
155.1790274966220124
 31
0.0
  0
LINE
  5
2B83E
  8
0
 10
3336.0123157213729428
 20
155.2971377329218967
 30
0.0
 11
3336.0123157213729428
 21
155.1790274966220124
 31
0.0
  0
LINE
  5
2B83F
  8
0
 10
3336.0200994770671059
 20
155.2971377329218967
 30
0.0
 11
3336.0200994770671059
 21
155.1790274966220124
 31
0.0
  0
LINE
  5
2B840
  8
0
 10
3336.0333108501699826
 20
155.2971377329218967
 30
0.0
 11
3336.0333108501699826
 21
155.1790274966220124
 31
0.0
  0
LINE
  5
2B841
  8
0
 10
3336.0415567585341705
 20
155.2971377329218967
 30
0.0
 11
3336.0415567585341705
 21
155.1790274966220124
 31
0.0
  0
LINE
  5
2B842
  8
0
 10
3336.055518005551221
 20
155.2971377329218967
 30
0.0
 11
3336.055518005551221
 21
155.1790274966220124
 31
0.0
  0
LINE
  5
2B843
  8
0
 10
3336.0642116005360549
 20
155.2971377329218967
 30
0.0
 11
3336.0642116005360549
 21
155.1790274966220124
 31
0.0
  0
LINE
  5
2B844
  8
0
 10
3336.0788982286221653
 20
155.2971377329218967
 30
0.0
 11
3336.0788982286221653
 21
155.1790274966220124
 31
0.0
  0
LINE
  5
2B845
  8
0
 10
3336.0880242586308668
 20
155.2971377329218967
 30
0.0
 11
3336.0880242586308668
 21
155.1790274966220124
 31
0.0
  0
LINE
  5
2B846
  8
0
 10
3336.1028388755221386
 20
155.2971377329218967
 30
0.0
 11
3336.1028388755221386
 21
155.1790274966220124
 31
0.0
  0
LINE
  5
2B847
  8
0
 10
3336.1034105025260033
 20
155.2971377329218967
 30
0.0
 11
3336.1034105025260033
 21
155.1790274966220124
 31
0.0
  0
LINE
  5
2B848
  8
0
 10
3336.1129529574391199
 20
155.2971377329218967
 30
0.0
 11
3336.1129529574391199
 21
155.1790274966220124
 31
0.0
  0
LINE
  5
2B849
  8
0
 10
3336.127817594462158
 20
155.2971377329218967
 30
0.0
 11
3336.127817594462158
 21
155.1790274966220124
 31
0.0
  0
LINE
  5
2B84A
  8
0
 10
3336.1290118244050973
 20
155.2971377329218967
 30
0.0
 11
3336.1290118244050973
 21
155.1790274966220124
 31
0.0
  0
LINE
  5
2B84B
  8
0
 10
3336.1389539635138135
 20
155.2971377329218967
 30
0.0
 11
3336.1389539635138135
 21
155.1790274966220124
 31
0.0
  0
LINE
  5
2B84C
  8
0
 10
3336.1538425430449024
 20
155.2971377329218967
 30
0.0
 11
3336.1538425430449024
 21
155.1790274966220124
 31
0.0
  0
LINE
  5
2B84D
  8
0
 10
3336.1556572808399324
 20
155.2971377329218967
 30
0.0
 11
3336.1556572808399324
 21
155.1790274966220124
 31
0.0
  0
LINE
  5
2B84E
  8
0
 10
3336.1659816622550352
 20
155.2971377329218967
 30
0.0
 11
3336.1659816622550352
 21
155.1790274966220124
 31
0.0
  0
LINE
  5
2B84F
  8
0
 10
3336.1808680646317953
 20
155.2971377329218967
 30
0.0
 11
3336.1808680646317953
 21
155.1790274966220124
 31
0.0
  0
LINE
  5
2B850
  8
0
 10
3336.1833001266481915
 20
155.2971377329218967
 30
0.0
 11
3336.1833001266481915
 21
155.1790274966220124
 31
0.0
  0
LINE
  5
2B851
  8
0
 10
3336.1939886378941083
 20
155.2971377329218967
 30
0.0
 11
3336.1939886378941083
 21
155.1790274966220124
 31
0.0
  0
LINE
  5
2B852
  8
0
 10
3336.208846747341795
 20
155.2971377329218967
 30
0.0
 11
3336.208846747341795
 21
155.1790274966220124
 31
0.0
  0
LINE
  5
2B853
  8
0
 10
3336.2118918668829792
 20
155.2971377329218967
 30
0.0
 11
3336.2118918668829792
 21
155.1790274966220124
 31
0.0
  0
LINE
  5
2B854
  8
0
 10
3336.2229257566800698
 20
155.2971377329218967
 30
0.0
 11
3336.2229257566800698
 21
155.1790274966220124
 31
0.0
  0
LINE
  5
2B855
  8
0
 10
3336.2377295070250511
 20
155.2971377329218967
 30
0.0
 11
3336.2377295070250511
 21
155.1790274966220124
 31
0.0
  0
LINE
  5
2B856
  8
0
 10
3336.2413823419169603
 20
155.2971377329218967
 30
0.0
 11
3336.2413823419169603
 21
155.1790274966220124
 31
0.0
  0
LINE
  5
2B857
  8
0
 10
3336.2527422530752119
 20
155.2971377329218967
 30
0.0
 11
3336.2527422530752119
 21
155.1790274966220124
 31
0.0
  0
LINE
  5
2B858
  8
0
 10
3336.2674656735071039
 20
155.2971377329218967
 30
0.0
 11
3336.2674656735071039
 21
155.1790274966220124
 31
0.0
  0
LINE
  5
2B859
  8
0
 10
3336.2717198154368816
 20
155.2971377329218967
 30
0.0
 11
3336.2717198154368816
 21
155.1790274966220124
 31
0.0
  0
LINE
  5
2B85A
  8
0
 10
3336.2833858188091654
 20
155.2971377329218967
 30
0.0
 11
3336.2833858188091654
 21
155.1790274966220124
 31
0.0
  0
LINE
  5
2B85B
  8
0
 10
3336.2980030794478807
 20
155.2971377329218967
 30
0.0
 11
3336.2980030794478807
 21
155.1790274966220124
 31
0.0
  0
LINE
  5
2B85C
  8
0
 10
3336.3028510651970464
 20
155.2971377329218967
 30
0.0
 11
3336.3028510651970464
 21
155.1790274966220124
 31
0.0
  0
LINE
  5
2B85D
  8
0
 10
3336.3148026946578284
 20
155.2971377329218967
 30
0.0
 11
3336.3148026946578284
 21
155.1790274966220124
 31
0.0
  0
LINE
  5
2B85E
  8
0
 10
3336.3292881518609647
 20
155.2971377329218967
 30
0.0
 11
3336.3292881518609647
 21
155.1790274966220124
 31
0.0
  0
LINE
  5
2B85F
  8
0
 10
3336.3347214764307864
 20
155.2971377329218967
 30
0.0
 11
3336.3347214764307864
 21
155.1790274966220124
 31
0.0
  0
LINE
  5
2B860
  8
0
 10
3336.3469377647461442
 20
155.2971377329218967
 30
0.0
 11
3336.3469377647461442
 21
155.1790274966220124
 31
0.0
  0
LINE
  5
2B861
  8
0
 10
3336.3612660061471615
 20
155.2971377329218967
 30
0.0
 11
3336.3612660061471615
 21
155.1790274966220124
 31
0.0
  0
LINE
  5
2B862
  8
0
 10
3336.3672751375829648
 20
155.2971377329218967
 30
0.0
 11
3336.3672751375829648
 21
155.1790274966220124
 31
0.0
  0
LINE
  5
2B863
  8
0
 10
3336.3797346532392112
 20
155.2971377329218967
 30
0.0
 11
3336.3797346532392112
 21
155.1790274966220124
 31
0.0
  0
LINE
  5
2B864
  8
0
 10
3336.3938805421357756
 20
155.2971377329218967
 30
0.0
 11
3336.3938805421357756
 21
155.1790274966220124
 31
0.0
  0
LINE
  5
2B865
  8
0
 10
3336.4004549384781058
 20
155.2971377329218967
 30
0.0
 11
3336.4004549384781058
 21
155.1790274966220124
 31
0.0
  0
LINE
  5
2B866
  8
0
 10
3336.4131358232511957
 20
155.2971377329218967
 30
0.0
 11
3336.4131358232511957
 21
155.1790274966220124
 31
0.0
  0
LINE
  5
2B867
  8
0
 10
3336.4270745429971612
 20
155.2971377329218967
 30
0.0
 11
3336.4270745429971612
 21
155.1790274966220124
 31
0.0
  0
LINE
  5
2B868
  8
0
 10
3336.4342026704712225
 20
155.2971377329218967
 30
0.0
 11
3336.4342026704712225
 21
155.1790274966220124
 31
0.0
  0
LINE
  5
2B869
  8
0
 10
3336.4470826777787806
 20
155.2971377329218967
 30
0.0
 11
3336.4470826777787806
 21
155.1790274966220124
 31
0.0
  0
LINE
  5
2B86A
  8
0
 10
3336.4607897751247947
 20
155.2971377329218967
 30
0.0
 11
3336.4607897751247947
 21
155.1790274966220124
 31
0.0
  0
LINE
  5
2B86B
  8
0
 10
3336.4684591285717943
 20
155.2971377329218967
 30
0.0
 11
3336.4684591285717943
 21
155.1790274966220124
 31
0.0
  0
LINE
  5
2B86C
  8
0
 10
3336.4815156625058989
 20
155.2971377329218967
 30
0.0
 11
3336.4815156625058989
 21
155.1790274966220124
 31
0.0
  0
LINE
  5
2B86D
  8
0
 10
3336.4949670905448329
 20
155.2971377329218967
 30
0.0
 11
3336.4949670905448329
 21
155.1790274966220124
 31
0.0
  0
LINE
  5
2B86E
  8
0
 10
3336.5031642153007851
 20
155.2971377329218967
 30
0.0
 11
3336.5031642153007851
 21
155.1790274966220124
 31
0.0
  0
LINE
  5
2B86F
  8
0
 10
3336.5163743702769352
 20
155.2971377329218967
 30
0.0
 11
3336.5163743702769352
 21
155.1790274966220124
 31
0.0
  0
LINE
  5
2B870
  8
0
 10
3336.5295465306330698
 20
155.2971377329218967
 30
0.0
 11
3336.5295465306330698
 21
155.1790274966220124
 31
0.0
  0
LINE
  5
2B871
  8
0
 10
3336.5382570461811156
 20
155.2971377329218967
 30
0.0
 11
3336.5382570461811156
 21
155.1790274966220124
 31
0.0
  0
LINE
  5
2B872
  8
0
 10
3336.551597647106064
 20
155.2971377329218967
 30
0.0
 11
3336.551597647106064
 21
155.1790274966220124
 31
0.0
  0
LINE
  5
2B873
  8
0
 10
3336.5736760564091128
 20
155.2971377329218967
 30
0.0
 11
3336.5736760564091128
 21
155.1790274966220124
 31
0.0
  0
LINE
  5
2B874
  8
0
 10
3336.5644674313598443
 20
155.2971377329218967
 30
0.0
 11
3336.5644674313598443
 21
155.1790274966220124
 31
0.0
  0
LINE
  5
2B875
  8
0
 10
3336.5871236992961713
 20
155.2971377329218967
 30
0.0
 11
3336.5871236992961713
 21
155.1790274966220124
 31
0.0
  0
LINE
  5
2B876
  8
0
 10
3336.5996685294189774
 20
155.2971377329218967
 30
0.0
 11
3336.5996685294189774
 21
155.1790274966220124
 31
0.0
  0
LINE
  5
2B877
  8
0
 10
3336.6093591090461814
 20
155.2971377329218967
 30
0.0
 11
3336.6093591090461814
 21
155.1790274966220124
 31
0.0
  0
LINE
  5
2B878
  8
0
 10
3336.6228902021812246
 20
155.2971377329218967
 30
0.0
 11
3336.6228902021812246
 21
155.1790274966220124
 31
0.0
  0
LINE
  5
2B879
  8
0
 10
3336.6350880703062103
 20
155.2971377329218967
 30
0.0
 11
3336.6350880703062103
 21
155.1790274966220124
 31
0.0
  0
LINE
  5
2B87A
  8
0
 10
3336.6452436038957785
 20
155.2971377329218967
 30
0.0
 11
3336.6452436038957785
 21
155.1790274966220124
 31
0.0
  0
LINE
  5
2B87B
  8
0
 10
3336.6588344091269391
 20
155.2971377329218967
 30
0.0
 11
3336.6588344091269391
 21
155.1790274966220124
 31
0.0
  0
LINE
  5
2B87C
  8
0
 10
3336.6706639161147905
 20
155.2971377329218967
 30
0.0
 11
3336.6706639161147905
 21
155.1790274966220124
 31
0.0
  0
LINE
  5
2B87D
  8
0
 10
3336.6812665873139849
 20
155.2971377329218967
 30
0.0
 11
3336.6812665873139849
 21
155.1790274966220124
 31
0.0
  0
LINE
  5
2B87E
  8
0
 10
3336.6948932617810897
 20
155.2971377329218967
 30
0.0
 11
3336.6948932617810897
 21
155.1790274966220124
 31
0.0
  0
LINE
  5
2B87F
  8
0
 10
3336.7063336545238599
 20
155.2971377329218967
 30
0.0
 11
3336.7063336545238599
 21
155.1790274966220124
 31
0.0
  0
LINE
  5
2B880
  8
0
 10
3336.7173648627908733
 20
155.2971377329218967
 30
0.0
 11
3336.7173648627908733
 21
155.1790274966220124
 31
0.0
  0
LINE
  5
2B881
  8
0
 10
3336.0194597729419002
 20
154.4204790117219943
 30
0.0
 11
3336.0194597729419002
 21
154.935677237221995
 31
0.0
  0
ARC
  5
2B882
  8
0
 10
3335.8619794579408335
 20
154.935677237221995
 30
0.0
 40
0.1574803150000246
 50
0.0
 51
42.0896985228953326
  0
LINE
  5
2B883
  8
0
 10
3337.4289085918408091
 20
154.4135548697632032
 30
0.0
 11
3337.4289085918408091
 21
154.9356772372206876
 31
0.0
  0
ARC
  5
2B884
  8
0
 10
3337.5863889068409662
 20
154.9356772372219098
 30
0.0
 40
0.1574803150000182
 50
137.9117728780053937
 51
180.0000000004446008
  0
LINE
  5
2B885
  8
0
 10
3337.3491841817908607
 20
164.3325708040219979
 30
0.0
 11
3337.3491841817908607
 21
155.4546180478220094
 31
0.0
  0
ARC
  5
2B886
  8
0
 10
3337.3294860224727927
 20
155.2590640800227959
 30
0.0
 40
0.2480314958060961
 50
8.8300028231443868
 51
52.0384687032167719
  0
LINE
  5
2B887
  8
0
 10
3337.5745778824921217
 20
155.1790274966220124
 30
0.0
 11
3337.5745778824921217
 21
155.0412322210218861
 31
0.0
  0
CIRCLE
  5
2B888
  8
0
 10
3336.7241841823911273
 20
153.6632794651218887
 30
0.0
 40
0.4330699808999999
  0
CIRCLE
  5
2B889
  8
0
 10
3336.7241841823911273
 20
153.6632794651218887
 30
0.0
 40
0.8346456686999999
  0
ARC
  5
2B88A
  8
0
 10
3336.7241841823911273
 20
153.6632794651218887
 30
0.0
 40
0.79527559
 50
100.9605501672250938
 51
307.0264622172819031
  0
CIRCLE
  5
2B88B
  8
0
 10
3336.7241841823911273
 20
153.6632794651218887
 30
0.0
 40
0.6013779522
  0
CIRCLE
  5
2B88C
  8
0
 10
3336.7241841823911273
 20
153.6632794651218887
 30
0.0
 40
0.6446850388000001
  0
CIRCLE
  5
2B88D
  8
0
 10
3336.7241841823911273
 20
153.6632794651218887
 30
0.0
 40
0.7519685033
  0
CIRCLE
  5
2B88E
  8
0
 10
3336.7241841823911273
 20
153.6632794651218887
 30
0.0
 40
0.7736220465999999
  0
ARC
  5
2B88F
  8
0
 10
3336.7426451921960506
 20
153.673062888865303
 30
0.0
 40
0.7894336724569847
 50
102.4111397386075026
 51
167.6010566008619094
  0
ARC
  5
2B890
  8
0
 10
3336.7441630575322051
 20
153.6688386845468983
 30
0.0
 40
0.7877295933746565
 50
242.1287789565515141
 51
306.5647406038939948
  0
ARC
  5
2B891
  8
0
 10
3336.7161459722910877
 20
153.6600903716220046
 30
0.0
 40
0.8197528507000043
 50
89.438166103608097
 51
133.3137449473022969
  0
ARC
  5
2B892
  8
0
 10
3336.7175189481999951
 20
153.6700685210601875
 30
0.0
 40
0.8097627218717658
 50
359.5196377426645995
 51
89.5283851251069365
  0
ARC
  5
2B893
  8
0
 10
3336.72799825319089
 20
153.6711417927220111
 30
0.0
 40
0.7992936265999779
 50
306.468791191429716
 51
359.4364072500006841
  0
ARC
  5
2B894
  8
0
 10
3336.679548630114823
 20
153.6434867015628072
 30
0.0
 40
0.80762364868905
 50
97.5827692534820557
 51
130.6155742536695925
  0
ARC
  5
2B896
  8
0
 10
3336.3128918118300135
 20
154.2446473387990977
 30
0.0
 40
0.3442575533431182
 50
148.4695048229378074
 51
156.2845665153878087
  0
ARC
  5
2B897
  8
0
 10
3336.1354331764518975
 20
154.3226032524094933
 30
0.0
 40
0.150431105877224
 50
156.2845665153878087
 51
166.9447307868107089
  0
ARC
  5
2B898
  8
0
 10
3336.0473998825668787
 20
154.3430168054347007
 30
0.0
 40
0.0600620072912936
 50
166.9447307868107089
 51
181.6113114629951042
  0
ARC
  5
2B899
  8
0
 10
3336.0091618752589966
 20
154.3419411662131893
 30
0.0
 40
0.0218088740516818
 50
181.6113114629966958
 51
214.3827701242506976
  0
ARC
  5
2B89A
  8
0
 10
3335.9993525762129138
 20
154.3352289309011098
 30
0.0
 40
0.0099228969925182
 50
214.3827701242497881
 51
250.7660692478378053
  0
ARC
  5
2B89B
  8
0
 10
3336.0057486453561069
 20
154.3535609767762082
 30
0.0
 40
0.0293387051508478
 50
250.7660692478378053
 51
285.6711606582612717
  0
ARC
  5
2B89C
  8
0
 10
3335.9522096357991359
 20
154.5444007535454887
 30
0.0
 40
0.2275462881079775
 50
285.6711606582612717
 51
294.2872036668650253
  0
ARC
  5
2B89D
  8
0
 10
3335.832891150848809
 20
154.8088193449223979
 30
0.0
 40
0.5176395357309511
 50
294.2872036668650253
 51
299.6585970365707112
  0
ARC
  5
2B89E
  8
0
 10
3336.9316606590668925
 20
152.8792327768456119
 30
0.0
 40
1.7028556243384969
 50
116.4159229426256985
 51
119.6585970365705975
  0
ARC
  5
2B89F
  8
0
 10
3337.0713570257039464
 20
152.5980125325941117
 30
0.0
 40
2.0168618354689651
 50
111.7680610559311987
 51
116.4159229426256985
  0
ARC
  5
2B8A0
  8
0
 10
3336.7102252896120262
 20
153.5023679935110863
 30
0.0
 40
1.0430677450662449
 50
89.2332139178027433
 51
111.768061055931696
  0
ARC
  5
2B8A1
  8
0
 10
3336.708009576825134
 20
153.3368154162768917
 30
0.0
 40
1.208635148899345
 50
61.3308268954491496
 51
89.2332139178027433
  0
ARC
  5
2B8A2
  8
0
 10
3339.6720984331382169
 20
158.7577565901362959
 30
0.0
 40
4.9697486169865819
 50
241.3308268954490927
 51
242.6094096596735881
  0
ARC
  5
2B8A3
  8
0
 10
3337.5426885930651224
 20
154.6480567725677133
 30
0.0
 40
0.3411398781188422
 50
242.6094096596735881
 51
249.4551391302080106
  0
ARC
  5
2B8A4
  8
0
 10
3337.4467869498580512
 20
154.3921671353564022
 30
0.0
 40
0.0678696243368209
 50
249.4551391302080106
 51
268.7421454431441816
  0
ARC
  5
2B8A5
  8
0
 10
3337.4456362421087761
 20
154.3397603569848116
 30
0.0
 40
0.0154502143095584
 50
268.7421454431441816
 51
5.8229353296773469
  0
ARC
  5
2B8A6
  8
0
 10
3337.2920236521840707
 20
154.3240948314733032
 30
0.0
 40
0.1698595290320945
 50
5.8229353296773469
 51
36.3055029566083789
  0
ARC
  5
2B8A7
  8
0
 10
3337.0478226213440394
 20
153.0548319287564993
 30
0.0
 40
1.677889290602347
 50
113.1309192756711042
 51
125.7178994498018056
  0
ARC
  5
2B8A8
  8
0
 10
3336.7237494340270132
 20
153.7583648673586083
 30
0.0
 40
0.9038661483234223
 50
71.5416033270474117
 51
111.7584290630794044
  0
ARC
  5
2B8A9
  8
0
 10
3336.5570978061191454
 20
153.3600708344393126
 30
0.0
 40
1.3348169892039889
 50
56.662263674197888
 51
70.1691131144721538
  0
ARC
  5
2B8AA
  8
0
 10
3319.7368847223169723
 20
127.790459398873594
 30
0.0
 40
31.9407738791670717
 50
56.5029280751090894
 51
56.662263674197888
  0
ARC
  5
2B8AB
  8
0
 10
3337.4953075820590129
 20
154.6234889678009097
 30
0.0
 40
0.2364394605911305
 50
236.5029280751091108
 51
246.1886434957879999
  0
ARC
  5
2B8AC
  8
0
 10
3337.4187210435779889
 20
154.4499372141042954
 30
0.0
 40
0.0467404645799368
 50
246.1886434957879999
 51
266.2868383590353005
  0
ARC
  5
2B8AD
  8
0
 10
3337.4162091364742082
 20
154.416271401526302
 30
0.0
 40
0.0129867513811892
 50
267.7269522225615219
 51
347.9258639512513014
  0
ARC
  5
2B8AE
  8
0
 10
3337.5448085044167783
 20
154.4218157061164902
 30
0.0
 40
0.1161939376747241
 50
184.0768968262584906
 51
223.8444339156808951
  0
ARC
  5
2B8AF
  8
0
 10
3336.0464930002949586
 20
154.4197873278565112
 30
0.0
 40
0.027042074767522
 50
178.5343251521514105
 51
199.2728083697853947
  0
ARC
  5
2B8B0
  8
0
 10
3336.0316616331829209
 20
154.4146013575740994
 30
0.0
 40
0.0113301767856787
 50
199.272808369767688
 51
232.767979159848494
  0
ARC
  5
2B8B1
  8
0
 10
3336.0310132969148071
 20
154.4137481965871075
 30
0.0
 40
0.0102586248332032
 50
232.767979159848494
 51
258.5252118615275094
  0
ARC
  5
2B8B2
  8
0
 10
3336.0329613195790444
 20
154.4233446464340034
 30
0.0
 40
0.0200507973177024
 50
258.5252118615275094
 51
279.4825825159118153
  0
ARC
  5
2B8B3
  8
0
 10
3336.0275855165609755
 20
154.4555292789395082
 30
0.0
 40
0.0526813018740765
 50
279.4825825159118153
 51
292.9504964341332993
  0
ARC
  5
2B8B4
  8
0
 10
3335.9792191725819066
 20
154.5697475197391952
 30
0.0
 40
0.1767180293430096
 50
292.9504964341332993
 51
300.2628840018729761
  0
ARC
  5
2B8B5
  8
0
 10
3335.9033996436401139
 20
154.4216069040984962
 30
0.0
 40
0.1161650942066354
 50
316.2846063951345741
 51
358.227451587705616
  0
ARC
  5
2B8B6
  8
0
 10
3336.7241841824411495
 20
153.6632794651220024
 30
0.0
 40
1.1358267716999999
 50
128.349047626425488
 51
51.6509523800149211
  0
ENDSEC
  0
EOF
