  0
SECTION
  2
HEADER
  9
$ACADVER
  1
AC1009
  9
$INSBASE
 10
405.6269227613252042
 20
51.8307933701419969
 30
0.0
  9
$EXTMIN
 10
404.6229727612491729
 20
44.0216734132919996
 30
0.0
  9
$EXTMAX
 10
408.4761304604252246
 20
53.6487343855920003
 30
0.0
  9
$LIMMIN
 10
0.0
 20
0.0
  9
$LIMMAX
 10
11.6929133858000007
 20
8.2677165353999982
  9
$ORTHOMODE
 70
     0
  9
$REGENMODE
 70
     1
  9
$FILLMODE
 70
     1
  9
$QTEXTMODE
 70
     0
  9
$MIRRTEXT
 70
     0
  9
$DRAGMODE
 70
     2
  9
$LTSCALE
 40
0.6431102362
  9
$OSMODE
 70
  3839
  9
$ATTMODE
 70
     1
  9
$TEXTSIZE
 40
0.2
  9
$TRACEWID
 40
0.05
  9
$TEXTSTYLE
  7
STANDARD
  9
$CLAYER
  8
0
  9
$CELTYPE
  6
BYLAYER
  9
$CECOLOR
 62
   256
  9
$DIMSCALE
 40
1.0
  9
$DIMASZ
 40
0.1875
  9
$DIMEXO
 40
0.0625
  9
$DIMDLI
 40
0.4443307087
  9
$DIMRND
 40
0.0
  9
$DIMDLE
 40
0.0
  9
$DIMEXE
 40
0.125
  9
$DIMTP
 40
0.01
  9
$DIMTM
 40
0.01
  9
$DIMTXT
 40
1.0
  9
$DIMCEN
 40
0.1052362205
  9
$DIMTSZ
 40
0.0
  9
$DIMTOL
 70
     1
  9
$DIMLIM
 70
     0
  9
$DIMTIH
 70
     0
  9
$DIMTOH
 70
     1
  9
$DIMSE1
 70
     0
  9
$DIMSE2
 70
     0
  9
$DIMTAD
 70
     0
  9
$DIMZIN
 70
     0
  9
$DIMBLK
  1

  9
$DIMASO
 70
     1
  9
$DIMSHO
 70
     1
  9
$DIMPOST
  1
\X
  9
$DIMAPOST
  1

  9
$DIMALT
 70
     1
  9
$DIMALTD
 70
     2
  9
$DIMALTF
 40
25.3999999999999986
  9
$DIMLFAC
 40
1.0
  9
$DIMTOFL
 70
     0
  9
$DIMTVP
 40
0.0
  9
$DIMTIX
 70
     0
  9
$DIMSOXD
 70
     0
  9
$DIMSAH
 70
     0
  9
$DIMBLK1
  1

  9
$DIMBLK2
  1

  9
$DIMSTYLE
  2
STANDARD
  9
$DIMCLRD
 70
     0
  9
$DIMCLRE
 70
     0
  9
$DIMCLRT
 70
     0
  9
$DIMTFAC
 40
1.0
  9
$DIMGAP
 40
0.09
  9
$LUNITS
 70
     2
  9
$LUPREC
 70
     4
  9
$SKETCHINC
 40
0.1
  9
$FILLETRAD
 40
0.0
  9
$AUNITS
 70
     0
  9
$AUPREC
 70
     0
  9
$MENU
  1
.
  9
$ELEVATION
 40
0.0
  9
$PELEVATION
 40
0.0
  9
$THICKNESS
 40
0.0
  9
$LIMCHECK
 70
     0
  9
$BLIPMODE
 70
     0
  9
$CHAMFERA
 40
0.0
  9
$CHAMFERB
 40
0.0
  9
$SKPOLY
 70
     0
  9
$TDCREATE
 40
2458172.5207638889551163
  9
$TDUPDATE
 40
2459132.6600694442167878
  9
$TDINDWG
 40
0.0715358565
  9
$TDUSRTIMER
 40
0.0715358565
  9
$USRTIMER
 70
     1
  9
$ANGBASE
 50
0.0
  9
$ANGDIR
 70
     0
  9
$PDMODE
 70
     0
  9
$PDSIZE
 40
0.3125
  9
$PLINEWID
 40
0.0
  9
$COORDS
 70
     1
  9
$SPLFRAME
 70
     0
  9
$SPLINETYPE
 70
     6
  9
$SPLINESEGS
 70
     8
  9
$ATTDIA
 70
     1
  9
$ATTREQ
 70
     1
  9
$HANDLING
 70
     1
  9
$HANDSEED
  5
274D
  9
$SURFTAB1
 70
     6
  9
$SURFTAB2
 70
     6
  9
$SURFTYPE
 70
     6
  9
$SURFU
 70
     6
  9
$SURFV
 70
     6
  9
$UCSNAME
  2

  9
$UCSORG
 10
0.0
 20
0.0
 30
0.0
  9
$UCSXDIR
 10
1.0
 20
0.0
 30
0.0
  9
$UCSYDIR
 10
0.0
 20
1.0
 30
0.0
  9
$PUCSNAME
  2

  9
$PUCSORG
 10
0.0
 20
0.0
 30
0.0
  9
$PUCSXDIR
 10
1.0
 20
0.0
 30
0.0
  9
$PUCSYDIR
 10
0.0
 20
1.0
 30
0.0
  9
$USERI1
 70
     0
  9
$USERI2
 70
     0
  9
$USERI3
 70
     0
  9
$USERI4
 70
     0
  9
$USERI5
 70
     0
  9
$USERR1
 40
0.0
  9
$USERR2
 40
0.0
  9
$USERR3
 40
0.0
  9
$USERR4
 40
0.0
  9
$USERR5
 40
0.0
  9
$WORLDVIEW
 70
     1
  9
$SHADEDGE
 70
     3
  9
$SHADEDIF
 70
    70
  9
$TILEMODE
 70
     1
  9
$MAXACTVP
 70
    64
  9
$PLIMCHECK
 70
     0
  9
$PEXTMIN
 10
1.0000000000000000E+20
 20
1.0000000000000000E+20
 30
1.0000000000000000E+20
  9
$PEXTMAX
 10
-1.0000000000000000E+20
 20
-1.0000000000000000E+20
 30
-1.0000000000000000E+20
  9
$PLIMMIN
 10
0.0
 20
0.0
  9
$PLIMMAX
 10
12.0
 20
9.0
  9
$UNITMODE
 70
     0
  9
$VISRETAIN
 70
     1
  9
$PLINEGEN
 70
     0
  9
$PSLTSCALE
 70
     1
  0
ENDSEC
  0
SECTION
  2
TABLES
  0
TABLE
  2
VPORT
 70
     1
  0
VPORT
  2
*ACTIVE
 70
     0
 10
0.0
 20
0.0
 11
1.0
 21
1.0
 12
0.0
 22
0.0
 13
0.0
 23
0.0
 14
1.0
 24
1.0
 15
0.0
 25
0.0
 16
0.0
 26
0.0
 36
41.0028669334819966
 17
406.550323486328125
 27
48.835205078125
 37
0.0
 40
10.3689578491757892
 41
3.1396160558464219
 42
50.0
 43
0.0
 44
0.0
 50
0.0
 51
0.0
 71
     0
 72
   100
 73
     1
 74
     1
 75
     0
 76
     0
 77
     0
 78
     0
  0
ENDTAB
  0
TABLE
  2
LTYPE
 70
     2
  0
LTYPE
  2
CONTINUOUS
 70
     0
  3
Solid line
 72
    65
 73
     0
 40
0.0
  0
LTYPE
  2
PHANTOM2
 70
     0
  3
___ _ _ ___ _ _ ___ _ _ ___ _ _
 72
    65
 73
     6
 40
1.25
 49
0.625
 49
-0.125
 49
0.125
 49
-0.125
 49
0.125
 49
-0.125
  0
ENDTAB
  0
TABLE
  2
LAYER
 70
     2
  0
LAYER
  2
0
 70
     0
 62
   255
  6
CONTINUOUS
  0
LAYER
  2
DEFPOINTS
 70
     0
 62
     7
  6
CONTINUOUS
  0
ENDTAB
  0
TABLE
  2
STYLE
 70
     1
  0
STYLE
  2
STANDARD
 70
     0
 40
0.0
 41
0.8
 50
0.0
 71
     0
 42
0.2
  3
txt
  4

  0
ENDTAB
  0
TABLE
  2
VIEW
 70
     0
  0
ENDTAB
  0
TABLE
  2
UCS
 70
     0
  0
ENDTAB
  0
TABLE
  2
APPID
 70
    10
  0
APPID
  2
ACAD
 70
     0
  0
APPID
  2
ACAD_MLEADERVER
 70
     0
  0
APPID
  2
ACAD_EXEMPT_FROM_CAD_STANDARDS
 70
     0
  0
APPID
  2
ACAD_DSTYLE_DIMJAG
 70
     0
  0
APPID
  2
ACAD_DSTYLE_DIMTALN
 70
     0
  0
APPID
  2
ACAD_NAV_VCDISPLAY
 70
     0
  0
APPID
  2
ACAECLAYERSTANDARD
 70
     0
  0
APPID
  2
ACCMTRANSPARENCY
 70
     0
  0
APPID
  2
DCO15
 70
     0
  0
APPID
  2
ACDBATTR
 70
     0
  0
ENDTAB
  0
TABLE
  2
DIMSTYLE
 70
     1
  0
DIMSTYLE
  2
STANDARD
 70
     0
  3

  4

  5

  6

  7

 40
1.0
 41
0.1875
 42
0.0625
 43
0.38
 44
0.125
 45
0.0
 46
0.0
 47
0.01
 48
0.01
140
0.15625
141
0.09
142
0.0
143
25.3999999999999986
144
1.0
145
0.0
146
1.0
147
0.09
 71
     1
 72
     0
 73
     1
 74
     1
 75
     0
 76
     0
 77
     0
 78
     4
170
     0
171
     2
172
     0
173
     0
174
     0
175
     0
176
     0
177
     0
178
     0
  0
ENDTAB
  0
ENDSEC
  0
SECTION
  2
BLOCKS
  0
BLOCK
  8
0
  2
$MODEL_SPACE
 70
     0
 10
0.0
 20
0.0
 30
0.0
  3
$MODEL_SPACE
  1

  0
ENDBLK
  5
21
  8
0
  0
BLOCK
 67
     1
  8
0
  2
$PAPER_SPACE
 70
     0
 10
0.0
 20
0.0
 30
0.0
  3
$PAPER_SPACE
  1

  0
ENDBLK
  5
1D
 67
     1
  8
0
  0
BLOCK
  8
0
  2
_FILLED
 70
     0
 10
0.0
 20
0.0
 30
0.0
  3
_FILLED
  1

  0
SOLID
  5
1CD5
  8
0
  6
BYBLOCK
 62
     0
 10
0.0
 20
0.0
 30
0.0
 11
-1.0
 21
0.1666666667
 31
0.0
 12
-1.0
 22
-0.1666666667
 32
0.0
 13
-1.0
 23
-0.1666666667
 33
0.0
  0
ENDBLK
  5
1CD6
  8
0
  6
BYBLOCK
 62
     0
  0
ENDSEC
  0
SECTION
  2
ENTITIES
  0
ATTDEF
  5
829
  8
DEFPOINTS
 10
405.6278552987690773
 20
51.8350571285551709
 30
0.0
 40
0.001
  1
K-73159T-7ACH
  3

  2
MODELNUMBER
 70
     0
1001
ACDBATTR
1070
     0
1070
     1
  0
ATTDEF
  5
82A
  8
DEFPOINTS
 10
405.6278552987690773
 20
51.8333904618884986
 30
0.0
 40
0.001
  1
COMPOSED
  3

  2
TRADENAME
 70
     0
1001
ACDBATTR
1070
     0
1070
     1
  0
ATTDEF
  5
82B
  8
DEFPOINTS
 10
405.6278552987690773
 20
51.8317237952218335
 30
0.0
 40
0.001
  1
BATHROOM SINK FAUCET
  3

  2
PRODUCT
 70
     0
1001
ACDBATTR
1070
     0
1070
     1
  0
LINE
  5
2508
  8
0
 10
405.0874875816385838
 20
44.0216734132919996
 30
0.0
 11
406.1663579410038096
 21
44.0216734132919996
 31
0.0
  0
LINE
  5
2509
  8
0
 10
405.5186536436635265
 20
52.5112046402970094
 30
0.0
 11
405.5186536436635265
 21
53.6290490914444291
 31
0.0
  0
LINE
  5
250A
  8
0
 10
405.735191878986825
 20
52.5112046402970023
 30
0.0
 11
405.735191878986825
 21
53.6290490914444291
 31
0.0
  0
LINE
  5
250B
  8
0
 10
406.3158942399750799
 20
44.1712096979609186
 30
0.0
 11
406.3158942399750799
 21
51.8307933701419969
 31
0.0
  0
LINE
  5
250C
  8
0
 10
405.7155065848393178
 20
53.6487343855920003
 30
0.0
 11
405.5383389378110905
 21
53.6487343855920003
 31
0.0
  0
ARC
  5
250D
  8
0
 10
405.5383389378110905
 20
53.6290490914444291
 30
0.0
 40
0.0196852941475687
 50
90.0
 51
180.0
  0
ARC
  5
250E
  8
0
 10
406.166321972809385
 20
44.1712456804611833
 30
0.0
 40
0.1495722714938787
 50
270.0137781269917241
 51
359.9862164624382217
  0
ARC
  5
250F
  8
0
 10
405.626922761275182
 20
51.8307933701419969
 30
0.0
 40
1.003950000025984
 50
96.1909967559438144
 51
226.6651612790743116
  0
ARC
  5
2510
  8
0
 10
405.626922761275182
 20
51.8307933701419969
 30
0.0
 40
1.003950000025984
 50
313.3348387287707055
 51
318.1903482912509276
  0
ARC
  5
2511
  8
0
 10
405.626922761275182
 20
51.8307933701419969
 30
0.0
 40
1.003950000025984
 50
41.8096517087490724
 51
83.8090032383133234
  0
ARC
  5
2512
  8
0
 10
405.7155065848393178
 20
53.6290490914444291
 30
0.0
 40
0.0196852941475687
 50
0.0
 51
90.0
  0
LINE
  5
2513
  8
0
 10
404.9379512826751011
 20
44.1712096979609186
 30
0.0
 11
404.9379512826751011
 21
51.8307933701419969
 31
0.0
  0
ARC
  5
2514
  8
0
 10
405.0875235498409097
 20
44.1712456804611833
 30
0.0
 40
0.1495722714938787
 50
180.0137835375618067
 51
269.9862218730082759
  0
ARC
  5
2515
  8
0
 10
405.6269227613252042
 20
51.8307933701419969
 30
0.0
 40
0.6889714786500014
 50
0.0
 51
180.0
  0
LINE
  5
2516
  8
0
 10
406.9064474052946139
 20
52.5000847086920004
 30
0.0
 11
405.7904183347670823
 21
52.5000847086920004
 31
0.0
  0
LINE
  5
2517
  8
0
 10
406.9261304604751786
 20
52.4902421889920134
 30
0.0
 11
406.9261304604751786
 21
51.1713445512920089
 31
0.0
  0
LINE
  5
2518
  8
0
 10
407.0588076257250805
 20
52.4397069403439531
 30
0.0
 11
406.9384331229891245
 21
52.4902421889920134
 31
0.0
  0
LINE
  5
2519
  8
0
 10
406.9384331229891245
 20
52.4902421889920134
 30
0.0
 11
406.9261304604751786
 21
52.4902421889920134
 31
0.0
  0
ARC
  5
251A
  8
0
 10
406.9020504111620085
 20
52.4752559462480406
 30
0.0
 40
0.0252150947231919
 50
17.2566579327159992
 51
79.9574525361399253
  0
LINE
  5
251B
  8
0
 10
406.9384331229891245
 20
52.4902421889920134
 30
0.0
 11
406.9384331229891245
 21
51.1713445512920089
 31
0.0
  0
LINE
  5
251C
  8
0
 10
406.9064474052946139
 20
51.1615020315920006
 30
0.0
 11
406.3158942399750799
 21
51.1615020315920006
 31
0.0
  0
LINE
  5
251D
  8
0
 10
407.0588076257250805
 20
51.2218797999400621
 30
0.0
 11
406.9384331229891245
 21
51.1713445512920089
 31
0.0
  0
LINE
  5
251E
  8
0
 10
406.9384331229891245
 20
51.1713445512920089
 30
0.0
 11
406.9261304604751786
 21
51.1713445512920089
 31
0.0
  0
ARC
  5
251F
  8
0
 10
406.9020504111620085
 20
51.1863307940359604
 30
0.0
 40
0.0252150947231919
 50
280.0425474638601031
 51
342.7433420672836064
  0
LINE
  5
2521
  8
0
 10
408.4761304604252246
 20
52.5000847087420013
 30
0.0
 11
408.4761304604252246
 21
51.1615020315420068
 31
0.0
  0
LINE
  5
2522
  8
0
 10
407.0666816415251787
 20
52.5000847087420084
 30
0.0
 11
407.2753430589251025
 21
52.5000847087420084
 31
0.0
  0
LINE
  5
2523
  8
0
 10
407.0588076257250805
 20
52.4922106930419972
 30
0.0
 11
407.0588076257250805
 21
51.1693760473416503
 31
0.0
  0
ARC
  5
2524
  8
0
 10
407.0667531554839229
 20
52.4921391789823986
 30
0.0
 40
0.0079458515847699
 50
90.5156783115931347
 51
179.4843209607494998
  0
LINE
  5
2525
  8
0
 10
407.0666816415251787
 20
51.1615020316420015
 30
0.0
 11
407.2753430589251025
 21
51.1615020316420086
 31
0.0
  0
ARC
  5
2526
  8
0
 10
407.0667531554839229
 20
51.1694475614016113
 30
0.0
 40
0.0079458515847699
 50
180.5156790392503865
 51
269.4843216884069079
  0
LINE
  5
2527
  8
0
 10
408.4564454211251814
 20
52.5197697480420018
 30
0.0
 11
407.2950280982252025
 21
52.5197697480420018
 31
0.0
  0
LINE
  5
2528
  8
0
 10
407.2753430589251025
 20
52.5000847087420084
 30
0.0
 11
407.2753430589251025
 21
51.1615020315419997
 31
0.0
  0
LINE
  5
2529
  8
0
 10
407.2753430589251025
 20
52.5000847087420084
 30
0.0
 11
407.2950280982252025
 21
52.5197697480420018
 31
0.0
  0
LINE
  5
252A
  8
0
 10
408.4564454211251814
 20
52.5197697480420018
 30
0.0
 11
408.4761304604252246
 21
52.5000847087420013
 31
0.0
  0
ARC
  5
252B
  8
0
 10
407.4887480395190096
 20
52.4255448005216991
 30
0.0
 40
0.1937301999269753
 50
150.897597798969997
 51
208.320436652497591
  0
ARC
  5
252C
  8
0
 10
407.8545139582109869
 20
52.1742655837006026
 30
0.0
 40
0.5594875304442894
 50
163.4497804472858036
 51
196.5554590277847922
  0
ARC
  5
252D
  8
0
 10
408.2627256430548073
 20
52.4255448415457082
 30
0.0
 40
0.1937300363290777
 50
331.6795240430801073
 51
29.1024152480238705
  0
ARC
  5
252E
  8
0
 10
407.8969058091327042
 20
52.1742655897607008
 30
0.0
 40
0.5595390124563023
 50
343.4461074579484148
 51
16.5486525218955194
  0
LINE
  5
252F
  8
0
 10
407.3182057566211824
 20
52.3336387609610796
 30
0.0
 11
408.4332677188893967
 21
52.3336387626058368
 31
0.0
  0
LINE
  5
2530
  8
0
 10
407.3182203329175763
 20
52.0148433638179171
 30
0.0
 11
408.4332531410764204
 21
52.0148433642794004
 31
0.0
  0
LINE
  5
2531
  8
0
 10
408.4564454211251814
 20
51.1418169922419992
 30
0.0
 11
407.2950280982252025
 21
51.1418169922419992
 31
0.0
  0
LINE
  5
2532
  8
0
 10
407.2753430589251025
 20
51.1615020315419997
 30
0.0
 11
407.2950280982252025
 21
51.1418169922419992
 31
0.0
  0
LINE
  5
2533
  8
0
 10
408.4564454211251814
 20
51.1418169922419992
 30
0.0
 11
408.4761304604252246
 21
51.1615020315420068
 31
0.0
  0
ARC
  5
2534
  8
0
 10
407.4887480395190096
 20
51.2360419397623019
 30
0.0
 40
0.1937301999269753
 50
151.679563347502409
 51
209.1024022010298893
  0
ARC
  5
2535
  8
0
 10
407.8545139582109869
 20
51.4873211565834126
 30
0.0
 40
0.5594875304442894
 50
163.4445409722150941
 51
196.5502195527137133
  0
ARC
  5
2536
  8
0
 10
408.2627256430548073
 20
51.2360418987382928
 30
0.0
 40
0.1937300363290777
 50
330.897584751976126
 51
28.3204759569198998
  0
ARC
  5
2537
  8
0
 10
407.8969058091327042
 20
51.4873211505233073
 30
0.0
 40
0.5595390124563023
 50
343.4513474781044806
 51
16.5538925420516208
  0
LINE
  5
2538
  8
0
 10
407.3182057566211824
 20
51.3279479793229285
 30
0.0
 11
408.4332677188893967
 21
51.3279479776781571
 31
0.0
  0
LINE
  5
2539
  8
0
 10
407.3182203329175763
 20
51.646743376466091
 30
0.0
 11
408.4332531410764204
 21
51.6467433760046077
 31
0.0
  0
ARC
  5
253A
  8
0
 10
407.8013676827474114
 20
51.8307933701419969
 30
0.0
 40
0.6581440820895958
 50
343.7606831245507237
 51
16.2393168754492798
  0
ARC
  5
253B
  8
0
 10
407.9372058673716879
 20
51.8307933701419969
 30
0.0
 40
0.6457689153525258
 50
163.4406096556251953
 51
196.5593903443744068
  0
ENDSEC
  0
EOF
