  0
SECTION
  2
HEADER
  9
$ACADVER
  1
AC1009
  9
$INSBASE
 10
410.3049671812372026
 20
51.4899080786896306
 30
0.0
  9
$EXTMIN
 10
409.3010171811612281
 20
51.4848894586744592
 30
0.0
  9
$EXTMAX
 10
413.1541748803372229
 20
60.2376084492896311
 30
0.0
  9
$LIMMIN
 10
0.0
 20
0.0
  9
$LIMMAX
 10
11.6929133858000007
 20
8.2677165353999982
  9
$ORTHOMODE
 70
     0
  9
$REGENMODE
 70
     1
  9
$FILLMODE
 70
     1
  9
$QTEXTMODE
 70
     0
  9
$MIRRTEXT
 70
     0
  9
$DRAGMODE
 70
     2
  9
$LTSCALE
 40
0.6431102362
  9
$OSMODE
 70
  3839
  9
$ATTMODE
 70
     1
  9
$TEXTSIZE
 40
0.2
  9
$TRACEWID
 40
0.05
  9
$TEXTSTYLE
  7
STANDARD
  9
$CLAYER
  8
0
  9
$CELTYPE
  6
BYLAYER
  9
$CECOLOR
 62
   256
  9
$DIMSCALE
 40
1.0
  9
$DIMASZ
 40
0.1875
  9
$DIMEXO
 40
0.0625
  9
$DIMDLI
 40
0.4443307087
  9
$DIMRND
 40
0.0
  9
$DIMDLE
 40
0.0
  9
$DIMEXE
 40
0.125
  9
$DIMTP
 40
0.01
  9
$DIMTM
 40
0.01
  9
$DIMTXT
 40
1.0
  9
$DIMCEN
 40
0.1052362205
  9
$DIMTSZ
 40
0.0
  9
$DIMTOL
 70
     1
  9
$DIMLIM
 70
     0
  9
$DIMTIH
 70
     0
  9
$DIMTOH
 70
     1
  9
$DIMSE1
 70
     0
  9
$DIMSE2
 70
     0
  9
$DIMTAD
 70
     0
  9
$DIMZIN
 70
     0
  9
$DIMBLK
  1

  9
$DIMASO
 70
     1
  9
$DIMSHO
 70
     1
  9
$DIMPOST
  1
\X
  9
$DIMAPOST
  1

  9
$DIMALT
 70
     1
  9
$DIMALTD
 70
     2
  9
$DIMALTF
 40
25.3999999999999986
  9
$DIMLFAC
 40
1.0
  9
$DIMTOFL
 70
     0
  9
$DIMTVP
 40
0.0
  9
$DIMTIX
 70
     0
  9
$DIMSOXD
 70
     0
  9
$DIMSAH
 70
     0
  9
$DIMBLK1
  1

  9
$DIMBLK2
  1

  9
$DIMSTYLE
  2
STANDARD
  9
$DIMCLRD
 70
     0
  9
$DIMCLRE
 70
     0
  9
$DIMCLRT
 70
     0
  9
$DIMTFAC
 40
1.0
  9
$DIMGAP
 40
0.09
  9
$LUNITS
 70
     2
  9
$LUPREC
 70
     4
  9
$SKETCHINC
 40
0.1
  9
$FILLETRAD
 40
0.0
  9
$AUNITS
 70
     0
  9
$AUPREC
 70
     0
  9
$MENU
  1
.
  9
$ELEVATION
 40
0.0
  9
$PELEVATION
 40
0.0
  9
$THICKNESS
 40
0.0
  9
$LIMCHECK
 70
     0
  9
$BLIPMODE
 70
     0
  9
$CHAMFERA
 40
0.0
  9
$CHAMFERB
 40
0.0
  9
$SKPOLY
 70
     0
  9
$TDCREATE
 40
2458172.5207638889551163
  9
$TDUPDATE
 40
2459132.6695833331905305
  9
$TDINDWG
 40
0.0743252083
  9
$TDUSRTIMER
 40
0.0743252083
  9
$USRTIMER
 70
     1
  9
$ANGBASE
 50
0.0
  9
$ANGDIR
 70
     0
  9
$PDMODE
 70
     0
  9
$PDSIZE
 40
0.3125
  9
$PLINEWID
 40
0.0
  9
$COORDS
 70
     1
  9
$SPLFRAME
 70
     0
  9
$SPLINETYPE
 70
     6
  9
$SPLINESEGS
 70
     8
  9
$ATTDIA
 70
     1
  9
$ATTREQ
 70
     1
  9
$HANDLING
 70
     1
  9
$HANDSEED
  5
28A6
  9
$SURFTAB1
 70
     6
  9
$SURFTAB2
 70
     6
  9
$SURFTYPE
 70
     6
  9
$SURFU
 70
     6
  9
$SURFV
 70
     6
  9
$UCSNAME
  2

  9
$UCSORG
 10
0.0
 20
0.0
 30
0.0
  9
$UCSXDIR
 10
1.0
 20
0.0
 30
0.0
  9
$UCSYDIR
 10
0.0
 20
1.0
 30
0.0
  9
$PUCSNAME
  2

  9
$PUCSORG
 10
0.0
 20
0.0
 30
0.0
  9
$PUCSXDIR
 10
1.0
 20
0.0
 30
0.0
  9
$PUCSYDIR
 10
0.0
 20
1.0
 30
0.0
  9
$USERI1
 70
     0
  9
$USERI2
 70
     0
  9
$USERI3
 70
     0
  9
$USERI4
 70
     0
  9
$USERI5
 70
     0
  9
$USERR1
 40
0.0
  9
$USERR2
 40
0.0
  9
$USERR3
 40
0.0
  9
$USERR4
 40
0.0
  9
$USERR5
 40
0.0
  9
$WORLDVIEW
 70
     1
  9
$SHADEDGE
 70
     3
  9
$SHADEDIF
 70
    70
  9
$TILEMODE
 70
     1
  9
$MAXACTVP
 70
    64
  9
$PLIMCHECK
 70
     0
  9
$PEXTMIN
 10
1.0000000000000000E+20
 20
1.0000000000000000E+20
 30
1.0000000000000000E+20
  9
$PEXTMAX
 10
-1.0000000000000000E+20
 20
-1.0000000000000000E+20
 30
-1.0000000000000000E+20
  9
$PLIMMIN
 10
0.0
 20
0.0
  9
$PLIMMAX
 10
12.0
 20
9.0
  9
$UNITMODE
 70
     0
  9
$VISRETAIN
 70
     1
  9
$PLINEGEN
 70
     0
  9
$PSLTSCALE
 70
     1
  0
ENDSEC
  0
SECTION
  2
TABLES
  0
TABLE
  2
VPORT
 70
     1
  0
VPORT
  2
*ACTIVE
 70
     0
 10
0.0
 20
0.0
 11
1.0
 21
1.0
 12
0.0
 22
0.0
 13
0.0
 23
0.0
 14
1.0
 24
1.0
 15
0.0
 25
0.0
 16
0.0
 26
0.0
 36
37.8170191447220816
 17
411.2276000976561932
 27
55.8612496609778475
 37
0.0
 40
9.5633087834865105
 41
3.1396160558464219
 42
50.0
 43
0.0
 44
0.0
 50
0.0
 51
0.0
 71
     0
 72
   100
 73
     1
 74
     1
 75
     0
 76
     0
 77
     0
 78
     0
  0
ENDTAB
  0
TABLE
  2
LTYPE
 70
     2
  0
LTYPE
  2
CONTINUOUS
 70
     0
  3
Solid line
 72
    65
 73
     0
 40
0.0
  0
LTYPE
  2
PHANTOM2
 70
     0
  3
___ _ _ ___ _ _ ___ _ _ ___ _ _
 72
    65
 73
     6
 40
1.25
 49
0.625
 49
-0.125
 49
0.125
 49
-0.125
 49
0.125
 49
-0.125
  0
ENDTAB
  0
TABLE
  2
LAYER
 70
     2
  0
LAYER
  2
0
 70
     0
 62
   255
  6
CONTINUOUS
  0
LAYER
  2
DEFPOINTS
 70
     0
 62
     7
  6
CONTINUOUS
  0
ENDTAB
  0
TABLE
  2
STYLE
 70
     1
  0
STYLE
  2
STANDARD
 70
     0
 40
0.0
 41
0.8
 50
0.0
 71
     0
 42
0.2
  3
txt
  4

  0
ENDTAB
  0
TABLE
  2
VIEW
 70
     0
  0
ENDTAB
  0
TABLE
  2
UCS
 70
     0
  0
ENDTAB
  0
TABLE
  2
APPID
 70
    10
  0
APPID
  2
ACAD
 70
     0
  0
APPID
  2
ACAD_MLEADERVER
 70
     0
  0
APPID
  2
ACAD_EXEMPT_FROM_CAD_STANDARDS
 70
     0
  0
APPID
  2
ACAD_DSTYLE_DIMJAG
 70
     0
  0
APPID
  2
ACAD_DSTYLE_DIMTALN
 70
     0
  0
APPID
  2
ACAD_NAV_VCDISPLAY
 70
     0
  0
APPID
  2
ACAECLAYERSTANDARD
 70
     0
  0
APPID
  2
ACCMTRANSPARENCY
 70
     0
  0
APPID
  2
DCO15
 70
     0
  0
APPID
  2
ACDBATTR
 70
     0
  0
ENDTAB
  0
TABLE
  2
DIMSTYLE
 70
     1
  0
DIMSTYLE
  2
STANDARD
 70
     0
  3

  4

  5

  6

  7

 40
1.0
 41
0.1875
 42
0.0625
 43
0.38
 44
0.125
 45
0.0
 46
0.0
 47
0.01
 48
0.01
140
0.15625
141
0.09
142
0.0
143
25.3999999999999986
144
1.0
145
0.0
146
1.0
147
0.09
 71
     1
 72
     0
 73
     1
 74
     1
 75
     0
 76
     0
 77
     0
 78
     4
170
     0
171
     2
172
     0
173
     0
174
     0
175
     0
176
     0
177
     0
178
     0
  0
ENDTAB
  0
ENDSEC
  0
SECTION
  2
BLOCKS
  0
BLOCK
  8
0
  2
$MODEL_SPACE
 70
     0
 10
0.0
 20
0.0
 30
0.0
  3
$MODEL_SPACE
  1

  0
ENDBLK
  5
21
  8
0
  0
BLOCK
 67
     1
  8
0
  2
$PAPER_SPACE
 70
     0
 10
0.0
 20
0.0
 30
0.0
  3
$PAPER_SPACE
  1

  0
ENDBLK
  5
1D
 67
     1
  8
0
  0
BLOCK
  8
0
  2
_FILLED
 70
     0
 10
0.0
 20
0.0
 30
0.0
  3
_FILLED
  1

  0
SOLID
  5
1CD5
  8
0
  6
BYBLOCK
 62
     0
 10
0.0
 20
0.0
 30
0.0
 11
-1.0
 21
0.1666666667
 31
0.0
 12
-1.0
 22
-0.1666666667
 32
0.0
 13
-1.0
 23
-0.1666666667
 33
0.0
  0
ENDBLK
  5
1CD6
  8
0
  6
BYBLOCK
 62
     0
  0
ENDSEC
  0
SECTION
  2
ENTITIES
  0
ATTDEF
  5
829
  8
DEFPOINTS
 10
410.3053072580908065
 20
51.4882227920077824
 30
0.0
 40
0.001
  1
K-73159T-7GCH
  3

  2
MODELNUMBER
 70
     0
1001
ACDBATTR
1070
     0
1070
     1
  0
ATTDEF
  5
82A
  8
DEFPOINTS
 10
410.3053072580908065
 20
51.4865561253411173
 30
0.0
 40
0.001
  1
COMPOSED
  3

  2
TRADENAME
 70
     0
1001
ACDBATTR
1070
     0
1070
     1
  0
ATTDEF
  5
82B
  8
DEFPOINTS
 10
410.3053072580908065
 20
51.4848894586744592
 30
0.0
 40
0.001
  1
BATHROOM SINK FAUCET
  3

  2
PRODUCT
 70
     0
1001
ACDBATTR
1070
     0
1070
     1
  0
LINE
  5
22A9
  8
0
 10
410.993938659887192
 20
59.3839781470671113
 30
0.0
 11
410.993938659887192
 21
59.1246730681580317
 31
0.0
  0
LINE
  5
22AA
  8
0
 10
410.993938659887192
 20
57.555930490920872
 30
0.0
 11
410.993938659887192
 21
51.6788869022662922
 31
0.0
  0
LINE
  5
22AB
  8
0
 10
410.993938659887192
 20
59.4410671228239025
 30
0.0
 11
410.993938659887192
 21
60.2019899375501595
 31
0.0
  0
LINE
  5
22AC
  8
0
 10
409.3010171812612157
 20
51.4899080786896306
 30
0.0
 11
411.3089171812131895
 21
51.4899080786896306
 31
0.0
  0
LINE
  5
22AD
  8
0
 10
409.3207024753087921
 20
51.6473904316701891
 30
0.0
 11
411.2892318870656254
 21
51.6473904316701891
 31
0.0
  0
LINE
  5
22AE
  8
0
 10
410.881969254921728
 20
59.686736796154598
 30
0.0
 11
409.7279651075527909
 21
59.686736796154598
 31
0.0
  0
LINE
  5
22AF
  8
0
 10
410.9611143964035023
 20
60.2376084492896311
 30
0.0
 11
409.6488199660709029
 21
60.2376084492896311
 31
0.0
  0
ARC
  5
22B0
  8
0
 10
410.9624421892909822
 20
51.6788869022662922
 30
0.0
 40
0.0314964705961094
 50
270.0
 51
0.0
  0
ARC
  5
22B1
  8
0
 10
410.9624529070194967
 20
59.7141011700080213
 30
0.0
 40
0.0314857541918051
 50
269.9991383622460148
 51
359.9833832466252943
  0
ARC
  5
22B2
  8
0
 10
411.2892318870656254
 20
51.6277051375226179
 30
0.0
 40
0.0196852941475687
 50
0.0
 51
90.0
  0
ARC
  5
22B3
  8
0
 10
409.3207024753087921
 20
51.6277051375226179
 30
0.0
 40
0.0196852941475687
 50
90.0
 51
180.0
  0
ARC
  5
22B4
  8
0
 10
410.9559829316427226
 20
59.3800359311852901
 30
0.0
 40
0.0381599053017299
 50
5.9296804470854259
 51
80.2541069235418263
  0
ARC
  5
22B5
  8
0
 10
410.632891547717179
 20
56.2860485183424615
 30
0.0
 40
3.1488888787491049
 50
83.9926352823703724
 51
89.2255715161471414
  0
ARC
  5
22B6
  8
0
 10
410.9589378158713089
 20
59.4489053911713086
 30
0.0
 40
0.0358677784719209
 50
289.6299580658288733
 51
347.4652449781729047
  0
ARC
  5
22B7
  8
0
 10
410.8631498397135147
 20
58.531320436728123
 30
0.0
 40
1.155569614527451
 50
85.0702705855665045
 51
89.0668491787593695
  0
ARC
  5
22B8
  8
0
 10
410.9546106149442721
 20
60.1986810181749092
 30
0.0
 40
0.0394669997144424
 50
4.8093325703832406
 51
80.5149431829295565
  0
ARC
  5
22B9
  8
0
 10
410.1384366341275154
 20
59.6345959872007896
 30
0.0
 40
0.1577560745689066
 50
187.9381290946091099
 51
223.2973538256671873
  0
LINE
  5
22BA
  8
0
 10
409.938043067581475
 20
59.6643550529313274
 30
0.0
 11
409.9506509236928196
 21
59.6131689140229497
 31
0.0
  0
ARC
  5
22BB
  8
0
 10
409.986326104498005
 20
59.5034368013240709
 30
0.0
 40
0.115385679691976
 50
89.2381523629343008
 51
108.0099438355730967
  0
ARC
  5
22BC
  8
0
 10
410.2752785007867828
 20
53.6553380727697089
 30
0.0
 40
5.9703964562551786
 50
89.715087078056456
 51
92.7593170027759157
  0
ARC
  5
22BD
  8
0
 10
409.9819740564602171
 20
59.7116752550501673
 30
0.0
 40
0.1033665219930471
 50
252.3603310323931055
 51
270.5051900569624195
  0
ARC
  5
22BE
  8
0
 10
410.0078016978552
 20
59.5447447836289712
 30
0.0
 40
0.072722920331202
 50
93.0540024209970653
 51
110.6189662310607957
  0
ARC
  5
22BF
  8
0
 10
410.2759111249217199
 20
54.5195399461378472
 30
0.0
 40
5.1050748877144461
 50
89.6738934450110037
 51
93.0540024209970653
  0
ARC
  5
22C0
  8
0
 10
410.0495244063063751
 20
59.4523210333419101
 30
0.0
 40
0.0784859937795995
 50
90.5418313391944594
 51
109.2710679212730014
  0
ARC
  5
22C1
  8
0
 10
410.2796207008074134
 20
54.9581232429816282
 30
0.0
 40
4.5785031735037522
 50
89.6828103602792339
 51
92.8899580013635955
  0
ARC
  5
22C2
  8
0
 10
410.0477086847729993
 20
59.6094856204505703
 30
0.0
 40
0.0864979309326684
 50
253.8307155218832918
 51
267.2512319609244855
  0
ARC
  5
22C3
  8
0
 10
410.3012786153440743
 20
64.8931346083590483
 30
0.0
 40
5.3762280126030513
 50
267.252382257158672
 51
270.0393099537835724
  0
LINE
  5
22C4
  8
0
 10
410.1042157836116075
 20
59.5268694605099569
 30
0.0
 11
410.1042157836116075
 21
59.5283248473441589
 31
0.0
  0
LINE
  5
22C5
  8
0
 10
410.1132060971552278
 20
59.5288097698195173
 30
0.0
 11
410.1132060971552278
 21
59.5304372406806408
 31
0.0
  0
LINE
  5
22C6
  8
0
 10
410.1330799004423966
 20
59.5303541136049006
 30
0.0
 11
410.1330799004423966
 21
59.5323422090328478
 31
0.0
  0
LINE
  5
22C7
  8
0
 10
410.1672263776321756
 20
59.5268694605099569
 30
0.0
 11
410.1672263776321756
 21
59.5293487733947799
 31
0.0
  0
LINE
  5
22C8
  8
0
 10
410.1686642680400041
 20
59.5318775920202512
 30
0.0
 11
410.1686642680400041
 21
59.5343713834924415
 31
0.0
  0
LINE
  5
22C9
  8
0
 10
410.1876486755173232
 20
59.5292545945760025
 30
0.0
 11
410.1876486755173232
 21
59.5324213913146423
 31
0.0
  0
LINE
  5
22CA
  8
0
 10
410.208001075397874
 20
59.5328682401402176
 30
0.0
 11
410.208001075397874
 21
59.5350710866472781
 31
0.0
  0
LINE
  5
22CB
  8
0
 10
410.2360686518206876
 20
59.5279616543440611
 30
0.0
 11
410.2360686518206876
 21
59.5267320591318523
 31
0.0
  0
LINE
  5
22CC
  8
0
 10
410.2395063724083002
 20
59.530963817295067
 30
0.0
 11
410.2395063724083002
 21
59.5331382162340006
 31
0.0
  0
LINE
  5
22CD
  8
0
 10
410.2473653305111725
 20
59.5280513498048265
 30
0.0
 11
410.2473653305111725
 21
59.5310974490825231
 31
0.0
  0
LINE
  5
22CE
  8
0
 10
410.2606446943594847
 20
59.5335666728786705
 30
0.0
 11
410.2606446943594847
 21
59.5355972737566717
 31
0.0
  0
LINE
  5
22CF
  8
0
 10
410.2774077694905941
 20
59.5271287028086888
 30
0.0
 11
410.2774077694905941
 21
59.5267320591318523
 31
0.0
  0
LINE
  5
22D0
  8
0
 10
410.2833133577148033
 20
59.52732702453131
 30
0.0
 11
410.2833133577148033
 21
59.5290141377842872
 31
0.0
  0
LINE
  5
22D1
  8
0
 10
410.301030122387715
 20
59.5315391438716119
 30
0.0
 11
410.301030122387715
 21
59.5335320389731208
 31
0.0
  0
LINE
  5
22D2
  8
0
 10
410.301030122387715
 20
59.5276840037509984
 30
0.0
 11
410.301030122387715
 21
59.5291326542072525
 31
0.0
  0
LINE
  5
22D3
  8
0
 10
410.301030122387715
 20
59.5291326541979799
 30
0.0
 11
410.301030122387715
 21
59.5315391438716119
 31
0.0
  0
LINE
  5
22D4
  8
0
 10
410.301030122387715
 20
59.5337381818586309
 30
0.0
 11
410.301030122387715
 21
59.5357308001295067
 31
0.0
  0
LINE
  5
22D5
  8
0
 10
410.0471198839330214
 20
59.5268694605099569
 30
0.0
 11
410.1042157836116075
 21
59.5268694605099569
 31
0.0
  0
LINE
  5
22D6
  8
0
 10
410.1101225418508989
 20
59.5268694605099569
 30
0.0
 11
410.1672263776321756
 21
59.5268694605099569
 31
0.0
  0
LINE
  5
22D7
  8
0
 10
410.1091301539084952
 20
59.5282788916494425
 30
0.0
 11
410.0539549607858021
 21
59.5287948510264826
 31
0.0
  0
LINE
  5
22D8
  8
0
 10
410.0580309040327052
 20
59.5293257290965698
 30
0.0
 11
410.1132060971552278
 21
59.5288097698195173
 31
0.0
  0
LINE
  5
22D9
  8
0
 10
410.2793762988653725
 20
59.5270890384515212
 30
0.0
 11
410.2485518185654882
 21
59.5277101280890619
 31
0.0
  0
LINE
  5
22DA
  8
0
 10
410.2434282716616281
 20
59.5278133636250288
 30
0.0
 11
410.1888281885813967
 21
59.5289135134620935
 31
0.0
  0
LINE
  5
22DB
  8
0
 10
410.1837116167678232
 20
59.5290166084962422
 30
0.0
 11
410.1342582442912885
 21
59.5300130559912617
 31
0.0
  0
LINE
  5
22DC
  8
0
 10
410.1291428415927953
 20
59.5301161274251172
 30
0.0
 11
410.0796963421053078
 21
59.531112436518363
 31
0.0
  0
LINE
  5
22DD
  8
0
 10
410.0836334008548079
 20
59.5313504226981607
 30
0.0
 11
410.1330799004423966
 21
59.5303541136049006
 31
0.0
  0
LINE
  5
22DE
  8
0
 10
410.1927652473308967
 20
59.5291514996418627
 30
0.0
 11
410.2473653305111725
 21
59.5280513498048265
 31
0.0
  0
LINE
  5
22DF
  8
0
 10
410.2473653305111725
 20
59.5280513498048265
 30
0.0
 11
410.2833133577148033
 21
59.52732702453131
 31
0.0
  0
LINE
  5
22E0
  8
0
 10
410.1575285840330025
 20
59.5314889621909984
 30
0.0
 11
410.1171375393320773
 21
59.5328985893329801
 31
0.0
  0
LINE
  5
22E1
  8
0
 10
410.1282732229423118
 20
59.5332872191726068
 30
0.0
 11
410.1686642680400041
 21
59.5318775920202512
 31
0.0
  0
LINE
  5
22E2
  8
0
 10
410.2326871864611917
 20
59.5308264160169927
 30
0.0
 11
410.2011818893128066
 21
59.532730838770469
 31
0.0
  0
LINE
  5
22E3
  8
0
 10
410.2011818893128066
 20
59.532730838770469
 30
0.0
 11
410.1726339396115009
 21
59.5344564966938705
 31
0.0
  0
LINE
  5
22E4
  8
0
 10
410.1794531257384051
 20
59.534593898061118
 30
0.0
 11
410.208001075397874
 21
59.5328682401402176
 31
0.0
  0
LINE
  5
22E5
  8
0
 10
410.2109544548425788
 20
59.532689715110287
 30
0.0
 11
410.2395063724083002
 21
59.530963817295067
 31
0.0
  0
LINE
  5
22E6
  8
0
 10
410.2454330672056813
 20
59.5334244245378272
 30
0.0
 11
410.2306489186839258
 21
59.5353500109568685
 31
0.0
  0
LINE
  5
22E7
  8
0
 10
410.2458605452872007
 20
59.5354922593824227
 30
0.0
 11
410.260644694888299
 21
59.5335666728097976
 31
0.0
  0
ARC
  5
22E8
  8
0
 10
410.304767910358521
 20
52.2913426927929521
 30
0.0
 40
7.2443890716041617
 50
90.0295621180525245
 51
90.4659027231828787
  0
ARC
  5
22E9
  8
0
 10
410.2919096916600097
 20
53.6538415363027497
 30
0.0
 40
5.88182750678269
 50
90.5967613296009517
 51
91.0955233247985348
  0
ARC
  5
22EA
  8
0
 10
410.3045142488758188
 20
53.9584403829191785
 30
0.0
 40
5.575298887593072
 50
90.0358053909014444
 51
90.4508397273929745
  0
ARC
  5
22EB
  8
0
 10
410.3023221625080055
 20
54.5787287178760891
 30
0.0
 40
4.954803489556542
 50
90.0149407432305111
 51
91.056607143998761
  0
ARC
  5
22EC
  8
0
 10
410.2916452224375803
 20
55.1633901848854009
 30
0.0
 40
4.3702785744143551
 50
90.6058677403995176
 51
91.0966690491003845
  0
ARC
  5
22ED
  8
0
 10
410.2490343720102146
 20
55.7938578506731275
 30
0.0
 40
3.7413787909165981
 50
91.1700837724999502
 51
91.8496673357292224
  0
ARC
  5
22EE
  8
0
 10
410.3030619828820136
 20
56.0243846573226207
 30
0.0
 40
3.507155075125385
 50
90.0331941516423058
 51
91.0383537388992039
  0
ARC
  5
22EF
  8
0
 10
410.2587977312579142
 20
56.7169076437688275
 30
0.0
 40
2.816412585320609
 50
91.1721914927319546
 51
91.8339461337998273
  0
ARC
  5
22F0
  8
0
 10
410.3036179237764145
 20
57.8180080569191617
 30
0.0
 40
1.7111265541041329
 50
90.0866506068508244
 51
91.1083978612018655
  0
ARC
  5
22F1
  8
0
 10
410.3038033172755945
 20
58.8911637161362265
 30
0.0
 40
0.6365263287929485
 50
90.249624966002358
 51
91.1356668161986079
  0
LINE
  5
22F2
  8
0
 10
410.1171375393320773
 20
59.5328985893329801
 30
0.0
 11
410.0836334008548079
 21
59.5313504226981607
 31
0.0
  0
LINE
  5
22F3
  8
0
 10
410.2473653305111725
 20
59.5280513498048265
 30
0.0
 11
410.2705179165288882
 21
59.528814438079948
 31
0.0
  0
LINE
  5
22F4
  8
0
 10
410.2833133577148033
 20
59.52732702453131
 30
0.0
 11
410.2911874753139045
 21
59.5275650107110792
 31
0.0
  0
LINE
  5
22F5
  8
0
 10
410.277407586288291
 20
59.5267320591318523
 30
0.0
 11
410.2793762988653725
 21
59.5270890384515212
 31
0.0
  0
LINE
  5
22F6
  8
0
 10
410.1132060971552278
 20
59.5288097698195173
 30
0.0
 11
410.1291428415927953
 21
59.5301161274251172
 31
0.0
  0
LINE
  5
22F7
  8
0
 10
410.1330799004423966
 20
59.5303541136049006
 30
0.0
 11
410.1575285840330025
 21
59.5314889621909984
 31
0.0
  0
LINE
  5
22F8
  8
0
 10
410.0539549607858021
 20
59.5287948510264826
 30
0.0
 11
410.0471198839330214
 21
59.5268694605099569
 31
0.0
  0
LINE
  5
22F9
  8
0
 10
410.1042157836116075
 20
59.5268694605099569
 30
0.0
 11
410.1091301539084952
 21
59.5282788916494425
 31
0.0
  0
LINE
  5
22FA
  8
0
 10
410.0580309040327052
 20
59.5293257290965698
 30
0.0
 11
410.0796963421053078
 21
59.531112436518363
 31
0.0
  0
ARC
  5
22FB
  8
0
 10
410.1560118488545754
 20
59.26876898243016
 30
0.0
 40
0.2621482124339209
 50
94.7599967027217787
 51
100.0816260649797016
  0
ARC
  5
22FC
  8
0
 10
410.1975523253690881
 20
59.3583930323111204
 30
0.0
 40
0.1711840236843995
 50
94.6375867040753747
 51
100.2040365271903966
  0
ARC
  5
22FD
  8
0
 10
410.2159455878579024
 20
59.2574239635862412
 30
0.0
 40
0.272840482764769
 50
95.7039994082829253
 51
99.2296886552744439
  0
LINE
  5
22FE
  8
0
 10
410.1876486755173232
 20
59.5292545945760025
 30
0.0
 11
410.2326871864611917
 21
59.5308264160169927
 31
0.0
  0
LINE
  5
22FF
  8
0
 10
410.1876486755173232
 20
59.5292545945760025
 30
0.0
 11
410.1575285840330025
 21
59.5314889621909984
 31
0.0
  0
ARC
  5
2300
  8
0
 10
410.2545029636470986
 20
59.4268500037554404
 30
0.0
 40
0.1015689363867039
 50
96.2597603530773824
 51
100.4568845533137988
  0
ARC
  5
2301
  8
0
 10
410.2486154436194852
 20
59.5060219064977503
 30
0.0
 40
0.0216883149170681
 50
90.1680837034520692
 51
107.2733313278107943
  0
LINE
  5
2302
  8
0
 10
410.1042157836116075
 20
59.5265946577537619
 30
0.0
 11
410.1042157836116075
 21
59.5251392709195812
 31
0.0
  0
LINE
  5
2303
  8
0
 10
410.1132060971552278
 20
59.5246543484441872
 30
0.0
 11
410.1132060971552278
 21
59.523026877583078
 31
0.0
  0
LINE
  5
2304
  8
0
 10
410.1330799004423966
 20
59.5231100046588182
 30
0.0
 11
410.1330799004423966
 21
59.5211219092308568
 31
0.0
  0
LINE
  5
2305
  8
0
 10
410.1672263776321756
 20
59.5265946577537619
 30
0.0
 11
410.1672263776321756
 21
59.5241153448689388
 31
0.0
  0
LINE
  5
2306
  8
0
 10
410.1686642680400041
 20
59.5215865262434605
 30
0.0
 11
410.1686642680400041
 21
59.5190927347713128
 31
0.0
  0
LINE
  5
2307
  8
0
 10
410.1876486755173232
 20
59.5242095236877233
 30
0.0
 11
410.1876486755173232
 21
59.5210427269490694
 31
0.0
  0
LINE
  5
2308
  8
0
 10
410.208001075397874
 20
59.5205958781235012
 30
0.0
 11
410.208001075397874
 21
59.5183930316164265
 31
0.0
  0
LINE
  5
2309
  8
0
 10
410.2360686518206876
 20
59.5255024639196506
 30
0.0
 11
410.2360686518206876
 21
59.5267320591318523
 31
0.0
  0
LINE
  5
230A
  8
0
 10
410.2395063724083002
 20
59.5225003009686375
 30
0.0
 11
410.2395063724083002
 21
59.5203259020297324
 31
0.0
  0
LINE
  5
230B
  8
0
 10
410.2473653305111725
 20
59.5254127684589207
 30
0.0
 11
410.2473653305111725
 21
59.522366669181217
 31
0.0
  0
LINE
  5
230C
  8
0
 10
410.2606446943594847
 20
59.5198974453850482
 30
0.0
 11
410.2606446943594847
 21
59.5178668445070471
 31
0.0
  0
LINE
  5
230D
  8
0
 10
410.2774077694905941
 20
59.5263354154550299
 30
0.0
 11
410.2774077694905941
 21
59.5267320591318523
 31
0.0
  0
LINE
  5
230E
  8
0
 10
410.2833133577148033
 20
59.5261370937324017
 30
0.0
 11
410.2833133577148033
 21
59.52444998047946
 31
0.0
  0
LINE
  5
230F
  8
0
 10
410.301030122387715
 20
59.5219249743920997
 30
0.0
 11
410.301030122387715
 21
59.5199320792905979
 31
0.0
  0
LINE
  5
2310
  8
0
 10
410.301030122387715
 20
59.5257801145127488
 30
0.0
 11
410.301030122387715
 21
59.5243314640564734
 31
0.0
  0
LINE
  5
2311
  8
0
 10
410.301030122387715
 20
59.5243314640657388
 30
0.0
 11
410.301030122387715
 21
59.5219249743920997
 31
0.0
  0
LINE
  5
2312
  8
0
 10
410.301030122387715
 20
59.5197259364050808
 30
0.0
 11
410.301030122387715
 21
59.5177333181342405
 31
0.0
  0
LINE
  5
2313
  8
0
 10
410.0471198839330214
 20
59.5265946577537619
 30
0.0
 11
410.1042157836116075
 21
59.5265946577537619
 31
0.0
  0
LINE
  5
2314
  8
0
 10
410.1101225418508989
 20
59.5265946577537619
 30
0.0
 11
410.1672263776321756
 21
59.5265946577537619
 31
0.0
  0
LINE
  5
2315
  8
0
 10
410.1091301539084952
 20
59.5251852266142976
 30
0.0
 11
410.0539549607858021
 21
59.5246692672372717
 31
0.0
  0
LINE
  5
2316
  8
0
 10
410.0580309040327052
 20
59.5241383891671418
 30
0.0
 11
410.1132060971552278
 21
59.5246543484441872
 31
0.0
  0
LINE
  5
2317
  8
0
 10
410.2793762988653725
 20
59.5263750798121904
 30
0.0
 11
410.2485518185654882
 21
59.5257539901746497
 31
0.0
  0
LINE
  5
2318
  8
0
 10
410.2434282716616281
 20
59.5256507546386899
 30
0.0
 11
410.1888281885813967
 21
59.5245506048016466
 31
0.0
  0
LINE
  5
2319
  8
0
 10
410.1837116167678232
 20
59.5244475097674908
 30
0.0
 11
410.1342582442912885
 21
59.5234510622724429
 31
0.0
  0
LINE
  5
231A
  8
0
 10
410.1291428415927953
 20
59.5233479908385874
 30
0.0
 11
410.0796963421053078
 21
59.5223516817453628
 31
0.0
  0
LINE
  5
231B
  8
0
 10
410.0836334008548079
 20
59.5221136955655794
 30
0.0
 11
410.1330799004423966
 21
59.5231100046588182
 31
0.0
  0
LINE
  5
231C
  8
0
 10
410.1927652473308967
 20
59.524312618621849
 30
0.0
 11
410.2473653305111725
 21
59.5254127684589207
 31
0.0
  0
LINE
  5
231D
  8
0
 10
410.2473653305111725
 20
59.5254127684589207
 30
0.0
 11
410.2833133577148033
 21
59.5261370937324017
 31
0.0
  0
LINE
  5
231E
  8
0
 10
410.1575285840330025
 20
59.5219751560727488
 30
0.0
 11
410.1171375393320773
 21
59.5205655289307316
 31
0.0
  0
LINE
  5
231F
  8
0
 10
410.1282732229423118
 20
59.5201768990911333
 30
0.0
 11
410.1686642680400041
 21
59.5215865262434605
 31
0.0
  0
LINE
  5
2320
  8
0
 10
410.2326871864611917
 20
59.5226377022467616
 30
0.0
 11
410.2011818893128066
 21
59.5207332794932711
 31
0.0
  0
LINE
  5
2321
  8
0
 10
410.2011818893128066
 20
59.5207332794932711
 30
0.0
 11
410.1726339396115009
 21
59.5190076215698411
 31
0.0
  0
LINE
  5
2322
  8
0
 10
410.1794531257384051
 20
59.5188702202026008
 30
0.0
 11
410.208001075397874
 21
59.5205958781235012
 31
0.0
  0
LINE
  5
2323
  8
0
 10
410.2109544548425788
 20
59.5207744031534176
 30
0.0
 11
410.2395063724083002
 21
59.5225003009686375
 31
0.0
  0
LINE
  5
2324
  8
0
 10
410.2454330672056813
 20
59.5200396937258986
 30
0.0
 11
410.2306489186839258
 21
59.5181141073068716
 31
0.0
  0
LINE
  5
2325
  8
0
 10
410.2458605452872007
 20
59.5179718588812889
 30
0.0
 11
410.260644694888299
 21
59.5198974454539496
 31
0.0
  0
ARC
  5
2326
  8
0
 10
410.304767910358521
 20
66.7621214254707525
 30
0.0
 40
7.2443890716041617
 50
269.5340972768170786
 51
269.9704378819507156
  0
ARC
  5
2327
  8
0
 10
410.2919096916600097
 20
65.3996225819609691
 30
0.0
 40
5.88182750678269
 50
268.9044766752015221
 51
269.4032386703991051
  0
ARC
  5
2328
  8
0
 10
410.3045142488758188
 20
65.0950237353445402
 30
0.0
 40
5.575298887593072
 50
269.5491602726070255
 51
269.9641946090986266
  0
ARC
  5
2329
  8
0
 10
410.3023221625080055
 20
64.4747354003876296
 30
0.0
 40
4.954803489556542
 50
268.9433928560013101
 51
269.9850592567694889
  0
ARC
  5
232A
  8
0
 10
410.2916452224375803
 20
63.8900739333783108
 30
0.0
 40
4.3702785744143551
 50
268.9033309508996012
 51
269.3941322596004966
  0
ARC
  5
232B
  8
0
 10
410.2490343720102146
 20
63.2596062675905912
 30
0.0
 40
3.7413787909165981
 50
268.1503326642675233
 51
268.8299162275000072
  0
ARC
  5
232C
  8
0
 10
410.3030619828820136
 20
63.0290794609410909
 30
0.0
 40
3.507155075125385
 50
268.961646261097485
 51
269.9668058483576942
  0
ARC
  5
232D
  8
0
 10
410.2587977312579142
 20
62.3365564744949125
 30
0.0
 40
2.816412585320609
 50
268.1660538662001727
 51
268.8278085072681165
  0
ARC
  5
232E
  8
0
 10
410.3036179237764145
 20
61.2354560613445571
 30
0.0
 40
1.7111265541041329
 50
268.8916021387980777
 51
269.9133493931458929
  0
ARC
  5
232F
  8
0
 10
410.3038033172755945
 20
60.1623004021275207
 30
0.0
 40
0.6365263287929485
 50
268.8643331838014205
 51
269.7503750339976136
  0
LINE
  5
2330
  8
0
 10
410.1171375393320773
 20
59.5205655289307316
 30
0.0
 11
410.0836334008548079
 21
59.5221136955655794
 31
0.0
  0
LINE
  5
2331
  8
0
 10
410.2473653305111725
 20
59.5254127684589207
 30
0.0
 11
410.2705179165288882
 21
59.5246496801837708
 31
0.0
  0
LINE
  5
2332
  8
0
 10
410.2833133577148033
 20
59.5261370937324017
 30
0.0
 11
410.2911874753139045
 21
59.5258991075526183
 31
0.0
  0
LINE
  5
2333
  8
0
 10
410.277407586288291
 20
59.5267320591318523
 30
0.0
 11
410.2793762988653725
 21
59.5263750798121904
 31
0.0
  0
LINE
  5
2334
  8
0
 10
410.1132060971552278
 20
59.5246543484441872
 30
0.0
 11
410.1291428415927953
 21
59.5233479908385874
 31
0.0
  0
LINE
  5
2335
  8
0
 10
410.1330799004423966
 20
59.5231100046588182
 30
0.0
 11
410.1575285840330025
 21
59.5219751560727488
 31
0.0
  0
LINE
  5
2336
  8
0
 10
410.0539549607858021
 20
59.5246692672372717
 30
0.0
 11
410.0471198839330214
 21
59.5265946577537619
 31
0.0
  0
LINE
  5
2337
  8
0
 10
410.1042157836116075
 20
59.5265946577537619
 30
0.0
 11
410.1091301539084952
 21
59.5251852266142976
 31
0.0
  0
LINE
  5
2338
  8
0
 10
410.0580309040327052
 20
59.5241383891671418
 30
0.0
 11
410.0796963421053078
 21
59.5223516817453628
 31
0.0
  0
ARC
  5
2339
  8
0
 10
410.1560118488545754
 20
59.7846951358335801
 30
0.0
 40
0.2621482124339209
 50
259.9183739350203268
 51
265.2400032972749955
  0
ARC
  5
233A
  8
0
 10
410.1975523253690881
 20
59.6950710859525913
 30
0.0
 40
0.1711840236843995
 50
259.7959634728094898
 51
265.3624132959246253
  0
ARC
  5
233B
  8
0
 10
410.2159455878579024
 20
59.7960401546774989
 30
0.0
 40
0.272840482764769
 50
260.770311344725485
 51
264.2960005917170747
  0
LINE
  5
233C
  8
0
 10
410.1876486755173232
 20
59.5242095236877233
 30
0.0
 11
410.2326871864611917
 21
59.5226377022467616
 31
0.0
  0
LINE
  5
233D
  8
0
 10
410.1876486755173232
 20
59.5242095236877233
 30
0.0
 11
410.1575285840330025
 21
59.5219751560727488
 31
0.0
  0
ARC
  5
233E
  8
0
 10
410.2545029636470986
 20
59.6266141145082571
 30
0.0
 40
0.1015689363867039
 50
259.5431154466862154
 51
263.7402396469227028
  0
ARC
  5
233F
  8
0
 10
410.2486154436194852
 20
59.5474422117659969
 30
0.0
 40
0.0216883149170681
 50
252.7266686721891915
 51
269.8319162965478881
  0
ARC
  5
2340
  8
0
 10
409.940460080187222
 20
60.2666514739851209
 30
0.0
 40
0.6125102858333741
 50
259.475673414615585
 51
270.0092421940444183
  0
ARC
  5
2341
  8
0
 10
410.2234891300777804
 20
55.1255751417319075
 30
0.0
 40
4.5560171025128469
 50
88.9752897703126848
 51
94.9725161465159431
  0
ARC
  5
2342
  8
0
 10
409.9549538749054136
 20
59.6289094119230896
 30
0.0
 40
0.0392730043699629
 50
91.5689810205148689
 51
115.5054038750411962
  0
ARC
  5
2343
  8
0
 10
410.2581145350391125
 20
54.6455604896413121
 30
0.0
 40
5.0318130568462278
 50
89.4664949496712438
 51
93.4663599926279574
  0
ARC
  5
2344
  8
0
 10
410.4714977283471171
 20
59.6345959872007896
 30
0.0
 40
0.1577560745689066
 50
316.7026461743324148
 51
352.2201076741558836
  0
LINE
  5
2345
  8
0
 10
410.6718912948908837
 20
59.6643550529323079
 30
0.0
 11
410.6592834387470816
 21
59.6131689140119789
 31
0.0
  0
ARC
  5
2346
  8
0
 10
410.6236082579762865
 20
59.5034368013240709
 30
0.0
 40
0.115385679691976
 50
71.9900561644370356
 51
90.761847637065685
  0
ARC
  5
2347
  8
0
 10
410.3346558616876223
 20
53.6553380727697089
 30
0.0
 40
5.9703964562551786
 50
87.2406829972240843
 51
90.2849129219468125
  0
ARC
  5
2348
  8
0
 10
410.6279603060141881
 20
59.7116752550501673
 30
0.0
 40
0.1033665219930471
 50
269.4948099430343973
 51
287.6396689675999028
  0
ARC
  5
2349
  8
0
 10
410.6021326646192051
 20
59.5447447836289712
 30
0.0
 40
0.072722920331202
 50
69.3810337689148469
 51
86.9459975790029205
  0
ARC
  5
234A
  8
0
 10
410.3340232375526853
 20
54.5195399461378472
 30
0.0
 40
5.1050748877144461
 50
86.9459975790029205
 51
90.3261065549890105
  0
ARC
  5
234B
  8
0
 10
410.5604099561679163
 20
59.4523210333419101
 30
0.0
 40
0.0784859937795995
 50
70.7289320787270128
 51
89.4581686608055691
  0
ARC
  5
234C
  8
0
 10
410.33071193191671
 20
54.975859289816853
 30
0.0
 40
4.5607696302832821
 50
87.1038052187337541
 51
90.3234264196277365
  0
ARC
  5
234D
  8
0
 10
410.5622256777015195
 20
59.6094856204496324
 30
0.0
 40
0.0864979309317242
 50
272.7487680390298124
 51
286.1692844782014049
  0
ARC
  5
234E
  8
0
 10
410.308655747130274
 20
64.8931346083590483
 30
0.0
 40
5.3762280126030424
 50
269.9606900462130739
 51
272.747617742841328
  0
LINE
  5
234F
  8
0
 10
410.5057185788627976
 20
59.5268694605099569
 30
0.0
 11
410.5057185788627976
 21
59.5283248473441589
 31
0.0
  0
LINE
  5
2350
  8
0
 10
410.4967282653190068
 20
59.5288097698195173
 30
0.0
 11
410.4967282653190068
 21
59.5304372406806408
 31
0.0
  0
LINE
  5
2351
  8
0
 10
410.4768544620321222
 20
59.5303541136049006
 30
0.0
 11
410.4768544620321222
 21
59.5323422090328478
 31
0.0
  0
LINE
  5
2352
  8
0
 10
410.4427079848421158
 20
59.5268694605099569
 30
0.0
 11
410.4427079848421158
 21
59.5293487733947799
 31
0.0
  0
LINE
  5
2353
  8
0
 10
410.441270094434401
 20
59.5318775920202512
 30
0.0
 11
410.441270094434401
 21
59.5343713834924415
 31
0.0
  0
LINE
  5
2354
  8
0
 10
410.4222856869570251
 20
59.5292545945760025
 30
0.0
 11
410.4222856869570251
 21
59.5324213913146423
 31
0.0
  0
LINE
  5
2355
  8
0
 10
410.4019332870764174
 20
59.5328682401402176
 30
0.0
 11
410.4019332870764174
 21
59.5350710866472781
 31
0.0
  0
LINE
  5
2356
  8
0
 10
410.3738657106537175
 20
59.5279616543440611
 30
0.0
 11
410.3738657106537175
 21
59.5267320591318523
 31
0.0
  0
LINE
  5
2357
  8
0
 10
410.3704279900661049
 20
59.530963817295067
 30
0.0
 11
410.3704279900661049
 21
59.5331382162340006
 31
0.0
  0
LINE
  5
2358
  8
0
 10
410.3625690319631758
 20
59.5280513498048265
 30
0.0
 11
410.3625690319631758
 21
59.5310974490825231
 31
0.0
  0
LINE
  5
2359
  8
0
 10
410.3492896681149205
 20
59.5335666728786705
 30
0.0
 11
410.3492896681149205
 21
59.5355972737566717
 31
0.0
  0
LINE
  5
235A
  8
0
 10
410.332526592983811
 20
59.5271287028086888
 30
0.0
 11
410.332526592983811
 21
59.5267320591318523
 31
0.0
  0
LINE
  5
235B
  8
0
 10
410.3266210047594882
 20
59.52732702453131
 30
0.0
 11
410.3266210047594882
 21
59.5290141377842872
 31
0.0
  0
LINE
  5
235C
  8
0
 10
410.3089042400866902
 20
59.5315391438716119
 30
0.0
 11
410.3089042400866902
 21
59.5335320389731208
 31
0.0
  0
LINE
  5
235D
  8
0
 10
410.3089042400866902
 20
59.5276840037509984
 30
0.0
 11
410.3089042400866902
 21
59.5291326542072525
 31
0.0
  0
LINE
  5
235E
  8
0
 10
410.3089042400866902
 20
59.5291326541979799
 30
0.0
 11
410.3089042400866902
 21
59.5315391438716119
 31
0.0
  0
LINE
  5
235F
  8
0
 10
410.3089042400866902
 20
59.5337381818586309
 30
0.0
 11
410.3089042400866902
 21
59.5357308001295067
 31
0.0
  0
LINE
  5
2360
  8
0
 10
410.5628144785413838
 20
59.5268694605099569
 30
0.0
 11
410.5057185788627976
 21
59.5268694605099569
 31
0.0
  0
LINE
  5
2361
  8
0
 10
410.4998118206233926
 20
59.5268694605099569
 30
0.0
 11
410.4427079848421158
 21
59.5268694605099569
 31
0.0
  0
LINE
  5
2362
  8
0
 10
410.5008042085660236
 20
59.5282788916494425
 30
0.0
 11
410.555979401688603
 21
59.5287948510264826
 31
0.0
  0
LINE
  5
2363
  8
0
 10
410.5519034584419273
 20
59.5293257290965698
 30
0.0
 11
410.4967282653190068
 21
59.5288097698195173
 31
0.0
  0
LINE
  5
2364
  8
0
 10
410.3305580636089758
 20
59.5270890384515212
 30
0.0
 11
410.3613825439089169
 21
59.5277101280890619
 31
0.0
  0
LINE
  5
2365
  8
0
 10
410.3665060908127771
 20
59.5278133636250288
 30
0.0
 11
410.4211061738928947
 21
59.5289135134620935
 31
0.0
  0
LINE
  5
2366
  8
0
 10
410.4262227457065251
 20
59.5290166084962422
 30
0.0
 11
410.4756761181831166
 21
59.5300130559912617
 31
0.0
  0
LINE
  5
2367
  8
0
 10
410.4807915208816098
 20
59.5301161274251172
 30
0.0
 11
410.530238020369211
 21
59.531112436518363
 31
0.0
  0
LINE
  5
2368
  8
0
 10
410.526300961619711
 20
59.5313504226981607
 30
0.0
 11
410.4768544620321222
 21
59.5303541136049006
 31
0.0
  0
LINE
  5
2369
  8
0
 10
410.4171691151433947
 20
59.5291514996418627
 30
0.0
 11
410.3625690319631758
 21
59.5280513498048265
 31
0.0
  0
LINE
  5
236A
  8
0
 10
410.3625690319631758
 20
59.5280513498048265
 30
0.0
 11
410.3266210047594882
 21
59.52732702453131
 31
0.0
  0
LINE
  5
236B
  8
0
 10
410.4524057784414026
 20
59.5314889621909984
 30
0.0
 11
410.4927968231423279
 21
59.5328985893329801
 31
0.0
  0
LINE
  5
236C
  8
0
 10
410.481661139532207
 20
59.5332872191726068
 30
0.0
 11
410.441270094434401
 21
59.5318775920202512
 31
0.0
  0
LINE
  5
236D
  8
0
 10
410.3772471760133271
 20
59.5308264160169927
 30
0.0
 11
410.4087524731615986
 21
59.532730838770469
 31
0.0
  0
LINE
  5
236E
  8
0
 10
410.4087524731615986
 20
59.532730838770469
 30
0.0
 11
410.4373004228627906
 21
59.5344564966938705
 31
0.0
  0
LINE
  5
236F
  8
0
 10
410.430481236736
 20
59.534593898061118
 30
0.0
 11
410.4019332870764174
 21
59.5328682401402176
 31
0.0
  0
LINE
  5
2370
  8
0
 10
410.3989799076317126
 20
59.532689715110287
 30
0.0
 11
410.3704279900661049
 21
59.530963817295067
 31
0.0
  0
LINE
  5
2371
  8
0
 10
410.3645012952687807
 20
59.5334244245378272
 30
0.0
 11
410.3792854437904793
 21
59.5353500109568685
 31
0.0
  0
LINE
  5
2372
  8
0
 10
410.3640738171873181
 20
59.5354922593824227
 30
0.0
 11
410.3492896675862198
 21
59.5335666728097976
 31
0.0
  0
ARC
  5
2373
  8
0
 10
410.3051664521158841
 20
52.2913426927929521
 30
0.0
 40
7.2443890716041617
 50
89.5340972768171071
 51
89.9704378819507298
  0
ARC
  5
2374
  8
0
 10
410.3180246708142818
 20
53.6538415363027497
 30
0.0
 40
5.88182750678269
 50
88.9044766752047337
 51
89.4032386703990483
  0
ARC
  5
2375
  8
0
 10
410.3054201135985863
 20
53.9584403829191785
 30
0.0
 40
5.575298887593072
 50
89.5491602726070255
 51
89.9641946091018241
  0
ARC
  5
2376
  8
0
 10
410.3076121999663997
 20
54.5787287178760891
 30
0.0
 40
4.954803489556542
 50
88.9433928560012248
 51
89.9850592567694889
  0
ARC
  5
2377
  8
0
 10
410.3182891400368248
 20
55.1633901848854009
 30
0.0
 40
4.3702785744143551
 50
88.903330950902884
 51
89.3941322595972139
  0
ARC
  5
2378
  8
0
 10
410.3608999904641905
 20
55.7938578506731275
 30
0.0
 40
3.7413787909165981
 50
88.1503326642675233
 51
88.829916227500064
  0
ARC
  5
2379
  8
0
 10
410.3068723795923916
 20
56.0243846573226207
 30
0.0
 40
3.507155075125385
 50
88.9616462610975418
 51
89.9668058483576942
  0
ARC
  5
237A
  8
0
 10
410.3511366312163773
 20
56.7169076437688275
 30
0.0
 40
2.816412585320609
 50
88.1660538662001585
 51
88.8278085072680597
  0
ARC
  5
237B
  8
0
 10
410.3063164386979906
 20
57.8180080569191617
 30
0.0
 40
1.7111265541041329
 50
88.891602138801403
 51
89.9133493931459213
  0
ARC
  5
237C
  8
0
 10
410.3061310451986969
 20
58.8911637161362265
 30
0.0
 40
0.6365263287929485
 50
88.8643331837981663
 51
89.7503750340008963
  0
LINE
  5
237D
  8
0
 10
410.4927968231423279
 20
59.5328985893329801
 30
0.0
 11
410.526300961619711
 21
59.5313504226981607
 31
0.0
  0
LINE
  5
237E
  8
0
 10
410.3625690319631758
 20
59.5280513498048265
 30
0.0
 11
410.3394164459454032
 21
59.528814438079948
 31
0.0
  0
LINE
  5
237F
  8
0
 10
410.3266210047594882
 20
59.52732702453131
 30
0.0
 11
410.3187468871605006
 21
59.5275650107110792
 31
0.0
  0
LINE
  5
2380
  8
0
 10
410.3325267761862278
 20
59.5267320591318523
 30
0.0
 11
410.3305580636089758
 21
59.5270890384515212
 31
0.0
  0
LINE
  5
2381
  8
0
 10
410.4967282653190068
 20
59.5288097698195173
 30
0.0
 11
410.4807915208816098
 21
59.5301161274251172
 31
0.0
  0
LINE
  5
2382
  8
0
 10
410.4768544620321222
 20
59.5303541136049006
 30
0.0
 11
410.4524057784414026
 21
59.5314889621909984
 31
0.0
  0
LINE
  5
2383
  8
0
 10
410.555979401688603
 20
59.5287948510264826
 30
0.0
 11
410.5628144785413838
 21
59.5268694605099569
 31
0.0
  0
LINE
  5
2384
  8
0
 10
410.5057185788627976
 20
59.5268694605099569
 30
0.0
 11
410.5008042085660236
 21
59.5282788916494425
 31
0.0
  0
LINE
  5
2385
  8
0
 10
410.5519034584419273
 20
59.5293257290965698
 30
0.0
 11
410.530238020369211
 21
59.531112436518363
 31
0.0
  0
ARC
  5
2386
  8
0
 10
410.4539225136197729
 20
59.26876898243016
 30
0.0
 40
0.2621482124339209
 50
79.9183739350202558
 51
85.2400032972782213
  0
ARC
  5
2387
  8
0
 10
410.4123820371053739
 20
59.3583930323111204
 30
0.0
 40
0.1711840236843995
 50
79.795963472809575
 51
85.3624132959213568
  0
ARC
  5
2388
  8
0
 10
410.393988774616389
 20
59.2574239635862412
 30
0.0
 40
0.272840482764769
 50
80.770311344728853
 51
84.2960005917170605
  0
LINE
  5
2389
  8
0
 10
410.4222856869570251
 20
59.5292545945760025
 30
0.0
 11
410.3772471760133271
 21
59.5308264160169927
 31
0.0
  0
LINE
  5
238A
  8
0
 10
410.4222856869570251
 20
59.5292545945760025
 30
0.0
 11
410.4524057784414026
 21
59.5314889621909984
 31
0.0
  0
ARC
  5
238B
  8
0
 10
410.3554313988274203
 20
59.4268500037554404
 30
0.0
 40
0.1015689363867039
 50
79.5431154466894412
 51
83.7402396469226318
  0
ARC
  5
238C
  8
0
 10
410.36131891885492
 20
59.5060219064977503
 30
0.0
 40
0.0216883149170681
 50
72.7266686721891915
 51
89.8319162965511708
  0
LINE
  5
238D
  8
0
 10
410.5057185788627976
 20
59.5265946577537619
 30
0.0
 11
410.5057185788627976
 21
59.5251392709195812
 31
0.0
  0
LINE
  5
238E
  8
0
 10
410.4967282653190068
 20
59.5246543484441872
 30
0.0
 11
410.4967282653190068
 21
59.523026877583078
 31
0.0
  0
LINE
  5
238F
  8
0
 10
410.4768544620321222
 20
59.5231100046588182
 30
0.0
 11
410.4768544620321222
 21
59.5211219092308568
 31
0.0
  0
LINE
  5
2390
  8
0
 10
410.4427079848421158
 20
59.5265946577537619
 30
0.0
 11
410.4427079848421158
 21
59.5241153448689388
 31
0.0
  0
LINE
  5
2391
  8
0
 10
410.441270094434401
 20
59.5215865262434605
 30
0.0
 11
410.441270094434401
 21
59.5190927347713128
 31
0.0
  0
LINE
  5
2392
  8
0
 10
410.4222856869570251
 20
59.5242095236877233
 30
0.0
 11
410.4222856869570251
 21
59.5210427269490694
 31
0.0
  0
LINE
  5
2393
  8
0
 10
410.4019332870764174
 20
59.5205958781235012
 30
0.0
 11
410.4019332870764174
 21
59.5183930316164265
 31
0.0
  0
LINE
  5
2394
  8
0
 10
410.3738657106537175
 20
59.5255024639196506
 30
0.0
 11
410.3738657106537175
 21
59.5267320591318523
 31
0.0
  0
LINE
  5
2395
  8
0
 10
410.3704279900661049
 20
59.5225003009686375
 30
0.0
 11
410.3704279900661049
 21
59.5203259020297324
 31
0.0
  0
LINE
  5
2396
  8
0
 10
410.3625690319631758
 20
59.5254127684589207
 30
0.0
 11
410.3625690319631758
 21
59.522366669181217
 31
0.0
  0
LINE
  5
2397
  8
0
 10
410.3492896681149205
 20
59.5198974453850482
 30
0.0
 11
410.3492896681149205
 21
59.5178668445070471
 31
0.0
  0
LINE
  5
2398
  8
0
 10
410.332526592983811
 20
59.5263354154550299
 30
0.0
 11
410.332526592983811
 21
59.5267320591318523
 31
0.0
  0
LINE
  5
2399
  8
0
 10
410.3266210047594882
 20
59.5261370937324017
 30
0.0
 11
410.3266210047594882
 21
59.52444998047946
 31
0.0
  0
LINE
  5
239A
  8
0
 10
410.3089042400866902
 20
59.5219249743920997
 30
0.0
 11
410.3089042400866902
 21
59.5199320792905979
 31
0.0
  0
LINE
  5
239B
  8
0
 10
410.3089042400866902
 20
59.5257801145127488
 30
0.0
 11
410.3089042400866902
 21
59.5243314640564734
 31
0.0
  0
LINE
  5
239C
  8
0
 10
410.3089042400866902
 20
59.5243314640657388
 30
0.0
 11
410.3089042400866902
 21
59.5219249743920997
 31
0.0
  0
LINE
  5
239D
  8
0
 10
410.3089042400866902
 20
59.5197259364050808
 30
0.0
 11
410.3089042400866902
 21
59.5177333181342405
 31
0.0
  0
LINE
  5
239E
  8
0
 10
410.5628144785413838
 20
59.5265946577537619
 30
0.0
 11
410.5057185788627976
 21
59.5265946577537619
 31
0.0
  0
LINE
  5
239F
  8
0
 10
410.4998118206233926
 20
59.5265946577537619
 30
0.0
 11
410.4427079848421158
 21
59.5265946577537619
 31
0.0
  0
LINE
  5
23A0
  8
0
 10
410.5008042085660236
 20
59.5251852266142976
 30
0.0
 11
410.555979401688603
 21
59.5246692672372717
 31
0.0
  0
LINE
  5
23A1
  8
0
 10
410.5519034584419273
 20
59.5241383891671418
 30
0.0
 11
410.4967282653190068
 21
59.5246543484441872
 31
0.0
  0
LINE
  5
23A2
  8
0
 10
410.3305580636089758
 20
59.5263750798121904
 30
0.0
 11
410.3613825439089169
 21
59.5257539901746497
 31
0.0
  0
LINE
  5
23A3
  8
0
 10
410.3665060908127771
 20
59.5256507546386899
 30
0.0
 11
410.4211061738928947
 21
59.5245506048016466
 31
0.0
  0
LINE
  5
23A4
  8
0
 10
410.4262227457065251
 20
59.5244475097674908
 30
0.0
 11
410.4756761181831166
 21
59.5234510622724429
 31
0.0
  0
LINE
  5
23A5
  8
0
 10
410.4807915208816098
 20
59.5233479908385874
 30
0.0
 11
410.530238020369211
 21
59.5223516817453628
 31
0.0
  0
LINE
  5
23A6
  8
0
 10
410.526300961619711
 20
59.5221136955655794
 30
0.0
 11
410.4768544620321222
 21
59.5231100046588182
 31
0.0
  0
LINE
  5
23A7
  8
0
 10
410.4171691151433947
 20
59.524312618621849
 30
0.0
 11
410.3625690319631758
 21
59.5254127684589207
 31
0.0
  0
LINE
  5
23A8
  8
0
 10
410.3625690319631758
 20
59.5254127684589207
 30
0.0
 11
410.3266210047594882
 21
59.5261370937324017
 31
0.0
  0
LINE
  5
23A9
  8
0
 10
410.4524057784414026
 20
59.5219751560727488
 30
0.0
 11
410.4927968231423279
 21
59.5205655289307316
 31
0.0
  0
LINE
  5
23AA
  8
0
 10
410.481661139532207
 20
59.5201768990911333
 30
0.0
 11
410.441270094434401
 21
59.5215865262434605
 31
0.0
  0
LINE
  5
23AB
  8
0
 10
410.3772471760133271
 20
59.5226377022467616
 30
0.0
 11
410.4087524731615986
 21
59.5207332794932711
 31
0.0
  0
LINE
  5
23AC
  8
0
 10
410.4087524731615986
 20
59.5207332794932711
 30
0.0
 11
410.4373004228627906
 21
59.5190076215698411
 31
0.0
  0
LINE
  5
23AD
  8
0
 10
410.430481236736
 20
59.5188702202026008
 30
0.0
 11
410.4019332870764174
 21
59.5205958781235012
 31
0.0
  0
LINE
  5
23AE
  8
0
 10
410.3989799076317126
 20
59.5207744031534176
 30
0.0
 11
410.3704279900661049
 21
59.5225003009686375
 31
0.0
  0
LINE
  5
23AF
  8
0
 10
410.3645012952687807
 20
59.5200396937258986
 30
0.0
 11
410.3792854437904793
 21
59.5181141073068716
 31
0.0
  0
LINE
  5
23B0
  8
0
 10
410.3640738171873181
 20
59.5179718588812889
 30
0.0
 11
410.3492896675862198
 21
59.5198974454539496
 31
0.0
  0
ARC
  5
23B1
  8
0
 10
410.3051664521158841
 20
66.7621214254707525
 30
0.0
 40
7.2443890716041617
 50
270.0295621180492844
 51
270.4659027231796244
  0
ARC
  5
23B2
  8
0
 10
410.3180246708142818
 20
65.3996225819609691
 30
0.0
 40
5.88182750678269
 50
270.596761329597598
 51
271.095523324795181
  0
ARC
  5
23B3
  8
0
 10
410.3054201135985863
 20
65.0950237353445402
 30
0.0
 40
5.575298887593072
 50
270.0358053908981901
 51
270.4508397273929745
  0
ARC
  5
23B4
  8
0
 10
410.3076121999663997
 20
64.4747354003876296
 30
0.0
 40
4.954803489556542
 50
270.0149407432303974
 51
271.0566071439988036
  0
ARC
  5
23B5
  8
0
 10
410.3182891400368248
 20
63.8900739333783108
 30
0.0
 40
4.3702785744143551
 50
270.6058677403995034
 51
271.0966690490971018
  0
ARC
  5
23B6
  8
0
 10
410.3608999904641905
 20
63.2596062675905912
 30
0.0
 40
3.7413787909165981
 50
271.1700837724999928
 51
271.8496673357324767
  0
ARC
  5
23B7
  8
0
 10
410.3068723795923916
 20
63.0290794609410909
 30
0.0
 40
3.507155075125385
 50
270.0331941516423058
 51
271.0383537388992181
  0
ARC
  5
23B8
  8
0
 10
410.3511366312163773
 20
62.3365564744949125
 30
0.0
 40
2.816412585320609
 50
271.1721914927318835
 51
271.8339461337998273
  0
ARC
  5
23B9
  8
0
 10
410.3063164386979906
 20
61.2354560613445571
 30
0.0
 40
1.7111265541041329
 50
270.0866506068541071
 51
271.1083978611986254
  0
ARC
  5
23BA
  8
0
 10
410.3061310451986969
 20
60.1623004021275207
 30
0.0
 40
0.6365263287929485
 50
270.2496249659990895
 51
271.1356668161985795
  0
LINE
  5
23BB
  8
0
 10
410.4927968231423279
 20
59.5205655289307316
 30
0.0
 11
410.526300961619711
 21
59.5221136955655794
 31
0.0
  0
LINE
  5
23BC
  8
0
 10
410.3625690319631758
 20
59.5254127684589207
 30
0.0
 11
410.3394164459454032
 21
59.5246496801837708
 31
0.0
  0
LINE
  5
23BD
  8
0
 10
410.3266210047594882
 20
59.5261370937324017
 30
0.0
 11
410.3187468871605006
 21
59.5258991075526183
 31
0.0
  0
LINE
  5
23BE
  8
0
 10
410.3325267761862278
 20
59.5267320591318523
 30
0.0
 11
410.3305580636089758
 21
59.5263750798121904
 31
0.0
  0
LINE
  5
23BF
  8
0
 10
410.4967282653190068
 20
59.5246543484441872
 30
0.0
 11
410.4807915208816098
 21
59.5233479908385874
 31
0.0
  0
LINE
  5
23C0
  8
0
 10
410.4768544620321222
 20
59.5231100046588182
 30
0.0
 11
410.4524057784414026
 21
59.5219751560727488
 31
0.0
  0
LINE
  5
23C1
  8
0
 10
410.555979401688603
 20
59.5246692672372717
 30
0.0
 11
410.5628144785413838
 21
59.5265946577537619
 31
0.0
  0
LINE
  5
23C2
  8
0
 10
410.5057185788627976
 20
59.5265946577537619
 30
0.0
 11
410.5008042085660236
 21
59.5251852266142976
 31
0.0
  0
LINE
  5
23C3
  8
0
 10
410.5519034584419273
 20
59.5241383891671418
 30
0.0
 11
410.530238020369211
 21
59.5223516817453628
 31
0.0
  0
ARC
  5
23C4
  8
0
 10
410.4539225136197729
 20
59.7846951358335801
 30
0.0
 40
0.2621482124339209
 50
274.7599967027217076
 51
280.0816260649796732
  0
ARC
  5
23C5
  8
0
 10
410.4123820371053739
 20
59.6950710859525913
 30
0.0
 40
0.1711840236843995
 50
274.6375867040753747
 51
280.2040365271905102
  0
ARC
  5
23C6
  8
0
 10
410.393988774616389
 20
59.7960401546774989
 30
0.0
 40
0.272840482764769
 50
275.7039994082829253
 51
279.2296886552711044
  0
LINE
  5
23C7
  8
0
 10
410.4222856869570251
 20
59.5242095236877233
 30
0.0
 11
410.3772471760133271
 21
59.5226377022467616
 31
0.0
  0
LINE
  5
23C8
  8
0
 10
410.4222856869570251
 20
59.5242095236877233
 30
0.0
 11
410.4524057784414026
 21
59.5219751560727488
 31
0.0
  0
ARC
  5
23C9
  8
0
 10
410.3554313988274203
 20
59.6266141145082571
 30
0.0
 40
0.1015689363867039
 50
276.2597603530774109
 51
280.4568845533137846
  0
ARC
  5
23CA
  8
0
 10
410.36131891885492
 20
59.5474422117659969
 30
0.0
 40
0.0216883149170681
 50
270.168083703448815
 51
287.2733313278108085
  0
ARC
  5
23CB
  8
0
 10
410.6694742822871262
 20
60.2666514739851209
 30
0.0
 40
0.6125102858333741
 50
269.9907578051901851
 51
280.524326585384415
  0
ARC
  5
23CC
  8
0
 10
410.3864452323966248
 20
55.1255751417319075
 30
0.0
 40
4.5560171025128469
 50
85.0274838534840427
 51
91.0247102296905695
  0
ARC
  5
23CD
  8
0
 10
410.6549804875689915
 20
59.6289094119230896
 30
0.0
 40
0.0392730043699629
 50
64.494596128318264
 51
88.4310189794851453
  0
ARC
  5
23CE
  8
0
 10
410.3518198274354063
 20
54.6455604896413121
 30
0.0
 40
5.0318130568462278
 50
86.5336400073720569
 51
90.5335050503254877
  0
LINE
  5
23CF
  8
0
 10
409.3010171812111935
 20
51.6277051375226179
 30
0.0
 11
409.3010171812111935
 21
51.4899080786896306
 31
0.0
  0
LINE
  5
23D0
  8
0
 10
411.3089171812632117
 20
51.4899080786896306
 30
0.0
 11
411.3089171812632117
 21
51.6277051375226179
 31
0.0
  0
LINE
  5
23D1
  8
0
 10
409.6159957025872131
 20
59.3839781470671113
 30
0.0
 11
409.6159957025872131
 21
51.6788869022662922
 31
0.0
  0
LINE
  5
23D2
  8
0
 10
409.6159957025872131
 20
59.4410671228239025
 30
0.0
 11
409.6159957025872131
 21
60.2019899375501595
 31
0.0
  0
ARC
  5
23D3
  8
0
 10
409.6474921731833092
 20
51.6788869022662922
 30
0.0
 40
0.0314964705961094
 50
180.0
 51
270.0
  0
ARC
  5
23D4
  8
0
 10
409.6474814554547947
 20
59.7141011700080213
 30
0.0
 40
0.0314857541918051
 50
180.016616753374791
 51
270.0008616377539852
  0
ARC
  5
23D5
  8
0
 10
409.6539514308317962
 20
59.3800359311852901
 30
0.0
 40
0.0381599053017299
 50
99.7458930764581879
 51
174.0703195529146114
  0
ARC
  5
23D6
  8
0
 10
409.977048969420423
 20
56.2859446448060794
 30
0.0
 40
3.148992825986737
 50
90.7745149127079856
 51
96.0072782887738043
  0
ARC
  5
23D7
  8
0
 10
409.6509965466030962
 20
59.4489053911713086
 30
0.0
 40
0.0358677784719209
 50
192.5347550218266122
 51
250.3700419341710983
  0
ARC
  5
23D8
  8
0
 10
409.6553237475300193
 20
60.1986810181749092
 30
0.0
 40
0.0394669997144424
 50
99.4850568170704435
 51
175.1906674296166955
  0
ARC
  5
23D9
  8
0
 10
409.7467845227610042
 20
58.531320436728123
 30
0.0
 40
1.155569614527451
 50
90.9331508212406163
 51
94.9297294144334813
  0
ARC
  5
23DA
  8
0
 10
410.3049671812372026
 20
39.2355693591876999
 30
0.0
 40
20.2024777681223
 50
88.949218635104728
 51
91.050781364895272
  0
LINE
  5
23DB
  8
0
 10
413.1541748803372229
 20
59.0095931180896187
 30
0.0
 11
413.1541748803372229
 21
57.6710104408896314
 31
0.0
  0
LINE
  5
23DC
  8
0
 10
411.5844918252066122
 20
59.0095931180896329
 30
0.0
 11
411.2104740896804742
 21
59.0095931180896329
 31
0.0
  0
LINE
  5
23DD
  8
0
 10
411.7447260614371771
 20
59.0095931180896329
 30
0.0
 11
411.9533874788372145
 21
59.0095931180896329
 31
0.0
  0
LINE
  5
23DE
  8
0
 10
411.7368520456371925
 20
59.0017191023896288
 30
0.0
 11
411.7368520456371925
 21
57.6788844566892678
 31
0.0
  0
LINE
  5
23DF
  8
0
 10
411.6041748803871769
 20
58.9997505983896318
 30
0.0
 11
411.6041748803871769
 21
57.6808529606896414
 31
0.0
  0
LINE
  5
23E0
  8
0
 10
411.7368520456371925
 20
58.9492153497415785
 30
0.0
 11
411.6164775429011797
 21
58.9997505983896318
 31
0.0
  0
LINE
  5
23E1
  8
0
 10
411.6164775429011797
 20
58.9997505983896318
 30
0.0
 11
411.6041748803871769
 21
58.9997505983896318
 31
0.0
  0
ARC
  5
23E2
  8
0
 10
411.5800948310741205
 20
58.9847643556456802
 30
0.0
 40
0.0252150947231919
 50
17.25665793271639
 51
79.9574525361399253
  0
ARC
  5
23E3
  8
0
 10
411.7447975753959213
 20
59.0016475883300231
 30
0.0
 40
0.0079458515847699
 50
90.5156783115931347
 51
179.4843209607494998
  0
LINE
  5
23E4
  8
0
 10
411.6164775429011797
 20
58.9997505983896318
 30
0.0
 11
411.6164775429011797
 21
57.6808529606896414
 31
0.0
  0
LINE
  5
23E5
  8
0
 10
411.5844918252066122
 20
57.6710104409896331
 30
0.0
 11
411.2104740929872264
 21
57.6710104408896314
 31
0.0
  0
LINE
  5
23E6
  8
0
 10
411.7447260614371771
 20
57.6710104409896331
 30
0.0
 11
411.9533874788372145
 21
57.6710104409896331
 31
0.0
  0
LINE
  5
23E7
  8
0
 10
411.7368520456371925
 20
57.7313882093376805
 30
0.0
 11
411.6164775429011797
 21
57.6808529606896414
 31
0.0
  0
LINE
  5
23E8
  8
0
 10
411.6164775429011797
 20
57.6808529606896414
 30
0.0
 11
411.6041748803871769
 21
57.6808529606896414
 31
0.0
  0
ARC
  5
23E9
  8
0
 10
411.5800948310741205
 20
57.6958392034335787
 30
0.0
 40
0.0252150947231919
 50
280.0425474638601031
 51
342.7433420672836064
  0
ARC
  5
23EA
  8
0
 10
411.7447975753959213
 20
57.678955970749243
 30
0.0
 40
0.0079458515847699
 50
180.5156790392503865
 51
269.4843216884069079
  0
ARC
  5
23EB
  8
0
 10
411.1426999175890842
 20
57.5270158982858888
 30
0.0
 40
0.1515452587852868
 50
113.7539250286069006
 51
169.000618535605895
  0
ARC
  5
23EC
  8
0
 10
411.1831613100603136
 20
56.7646191497363901
 30
0.0
 40
0.9068027132676926
 50
88.2739973337675252
 51
96.4270171347556868
  0
ARC
  5
23ED
  8
0
 10
411.1426999175890842
 20
59.1535876607930078
 30
0.0
 40
0.1515452587852868
 50
190.9993814643939913
 51
246.2460749713931136
  0
ARC
  5
23EE
  8
0
 10
411.1831613100603136
 20
59.9159844093425065
 30
0.0
 40
0.9068027132676926
 50
263.5729828652442848
 51
271.726002666232489
  0
ARC
  5
23EF
  8
0
 10
411.4417192096057079
 20
58.3403017795394518
 30
0.0
 40
0.9031864365209457
 50
119.7211083327268994
 51
240.2788916672730863
  0
LINE
  5
23F1
  8
0
 10
413.1344898410371798
 20
59.0292781573896193
 30
0.0
 11
411.9730725181372009
 21
59.0292781573896193
 31
0.0
  0
LINE
  5
23F2
  8
0
 10
411.9533874788372145
 20
59.0095931180896329
 30
0.0
 11
411.9533874788372145
 21
57.6710104408896314
 31
0.0
  0
LINE
  5
23F3
  8
0
 10
411.9533874788372145
 20
59.0095931180896329
 30
0.0
 11
411.9730725181372009
 21
59.0292781573896193
 31
0.0
  0
LINE
  5
23F4
  8
0
 10
413.1344898410371798
 20
59.0292781573896193
 30
0.0
 11
413.1541748803372229
 21
59.0095931180896187
 31
0.0
  0
ARC
  5
23F5
  8
0
 10
412.166792459431008
 20
58.9350532098693307
 30
0.0
 40
0.1937301999269753
 50
150.897597798969997
 51
208.320436652497591
  0
ARC
  5
23F6
  8
0
 10
412.5325583781229852
 20
58.6837739930482201
 30
0.0
 40
0.5594875304442894
 50
163.4497804472858036
 51
196.5554590277847922
  0
ARC
  5
23F7
  8
0
 10
412.9407700629668057
 20
58.9350532508933398
 30
0.0
 40
0.1937300363290777
 50
331.6795240430801073
 51
29.1024152480238705
  0
ARC
  5
23F8
  8
0
 10
412.5749502290447026
 20
58.6837739991083325
 30
0.0
 40
0.5595390124563023
 50
343.4461074579484148
 51
16.5486525218955194
  0
LINE
  5
23F9
  8
0
 10
411.996250176533124
 20
58.843147170308697
 30
0.0
 11
413.1113121388013951
 21
58.8431471719534684
 31
0.0
  0
LINE
  5
23FA
  8
0
 10
411.9962647528295179
 20
58.5243517731655416
 30
0.0
 11
413.1112975609884757
 21
58.524351773627032
 31
0.0
  0
LINE
  5
23FB
  8
0
 10
413.1344898410371798
 20
57.6513254015896308
 30
0.0
 11
411.9730725181372009
 21
57.6513254015896308
 31
0.0
  0
LINE
  5
23FC
  8
0
 10
411.9533874788372145
 20
57.6710104408896314
 30
0.0
 11
411.9730725181372009
 21
57.6513254015896308
 31
0.0
  0
LINE
  5
23FD
  8
0
 10
413.1344898410371798
 20
57.6513254015896308
 30
0.0
 11
413.1541748803372229
 21
57.6710104408896314
 31
0.0
  0
ARC
  5
23FE
  8
0
 10
412.166792459431008
 20
57.7455503491099194
 30
0.0
 40
0.1937301999269753
 50
151.679563347502409
 51
209.1024022010298893
  0
ARC
  5
23FF
  8
0
 10
412.5325583781229852
 20
57.9968295659310371
 30
0.0
 40
0.5594875304442894
 50
163.4445409722150941
 51
196.5502195527137133
  0
ARC
  5
2400
  8
0
 10
412.9407700629668057
 20
57.7455503080859174
 30
0.0
 40
0.1937300363290777
 50
330.897584751976126
 51
28.3204759569198998
  0
ARC
  5
2401
  8
0
 10
412.5749502290447026
 20
57.9968295598709318
 30
0.0
 40
0.5595390124563023
 50
343.4513474781044806
 51
16.5538925420516208
  0
LINE
  5
2402
  8
0
 10
411.996250176533124
 20
57.8374563886705531
 30
0.0
 11
413.1113121388013951
 21
57.8374563870258029
 31
0.0
  0
LINE
  5
2403
  8
0
 10
411.9962647528295179
 20
58.1562517858137085
 30
0.0
 11
413.1112975609884757
 21
58.1562517853522323
 31
0.0
  0
ARC
  5
2404
  8
0
 10
412.4794121026595235
 20
58.3403017794896286
 30
0.0
 40
0.6581440820895958
 50
343.7606831245507237
 51
16.2393168754492798
  0
ARC
  5
2405
  8
0
 10
412.6152502872836862
 20
58.3403017794896286
 30
0.0
 40
0.6457689153525258
 50
163.4406096556251953
 51
196.5593903443748047
  0
ENDSEC
  0
EOF
