  0
SECTION
  2
HEADER
  9
$ACADVER
  1
AC1009
  9
$INSBASE
 10
3744.1009009036001771
 20
176.661282717916805
 30
0.0
  9
$EXTMIN
 10
3736.965558752563993
 20
155.608950255632891
 30
-0.0000000349181948
  9
$EXTMAX
 10
3760.2956272802812236
 20
198.7785619622420938
 30
0.0000000814935746
  9
$LIMMIN
 10
0.0
 20
0.0
  9
$LIMMAX
 10
11.6929133858000007
 20
8.2677165353999982
  9
$ORTHOMODE
 70
     0
  9
$REGENMODE
 70
     1
  9
$FILLMODE
 70
     1
  9
$QTEXTMODE
 70
     0
  9
$MIRRTEXT
 70
     0
  9
$DRAGMODE
 70
     2
  9
$LTSCALE
 40
0.6431102362
  9
$OSMODE
 70
  4095
  9
$ATTMODE
 70
     1
  9
$TEXTSIZE
 40
0.2
  9
$TRACEWID
 40
0.05
  9
$TEXTSTYLE
  7
STANDARD
  9
$CLAYER
  8
0
  9
$CELTYPE
  6
BYLAYER
  9
$CECOLOR
 62
   256
  9
$DIMSCALE
 40
1.0
  9
$DIMASZ
 40
0.1875
  9
$DIMEXO
 40
0.0625
  9
$DIMDLI
 40
0.4443307087
  9
$DIMRND
 40
0.0
  9
$DIMDLE
 40
0.0
  9
$DIMEXE
 40
0.125
  9
$DIMTP
 40
0.01
  9
$DIMTM
 40
0.01
  9
$DIMTXT
 40
2.0
  9
$DIMCEN
 40
0.1052362205
  9
$DIMTSZ
 40
0.0
  9
$DIMTOL
 70
     1
  9
$DIMLIM
 70
     0
  9
$DIMTIH
 70
     1
  9
$DIMTOH
 70
     1
  9
$DIMSE1
 70
     0
  9
$DIMSE2
 70
     0
  9
$DIMTAD
 70
     0
  9
$DIMZIN
 70
     0
  9
$DIMBLK
  1

  9
$DIMASO
 70
     1
  9
$DIMSHO
 70
     1
  9
$DIMPOST
  1
\X
  9
$DIMAPOST
  1

  9
$DIMALT
 70
     1
  9
$DIMALTD
 70
     2
  9
$DIMALTF
 40
25.3999999999999986
  9
$DIMLFAC
 40
1.0
  9
$DIMTOFL
 70
     0
  9
$DIMTVP
 40
0.0
  9
$DIMTIX
 70
     0
  9
$DIMSOXD
 70
     0
  9
$DIMSAH
 70
     0
  9
$DIMBLK1
  1

  9
$DIMBLK2
  1

  9
$DIMSTYLE
  2
STANDARD
  9
$DIMCLRD
 70
     0
  9
$DIMCLRE
 70
     0
  9
$DIMCLRT
 70
     0
  9
$DIMTFAC
 40
1.0
  9
$DIMGAP
 40
0.09
  9
$LUNITS
 70
     2
  9
$LUPREC
 70
     4
  9
$SKETCHINC
 40
0.1
  9
$FILLETRAD
 40
0.0
  9
$AUNITS
 70
     0
  9
$AUPREC
 70
     0
  9
$MENU
  1
.
  9
$ELEVATION
 40
0.0
  9
$PELEVATION
 40
0.0
  9
$THICKNESS
 40
0.0
  9
$LIMCHECK
 70
     0
  9
$BLIPMODE
 70
     0
  9
$CHAMFERA
 40
0.0
  9
$CHAMFERB
 40
0.0
  9
$SKPOLY
 70
     0
  9
$TDCREATE
 40
2458060.468368056230247
  9
$TDUPDATE
 40
2460300.630879629869014
  9
$TDINDWG
 40
0.7186991898
  9
$TDUSRTIMER
 40
0.7186991898
  9
$USRTIMER
 70
     1
  9
$ANGBASE
 50
0.0
  9
$ANGDIR
 70
     0
  9
$PDMODE
 70
     0
  9
$PDSIZE
 40
0.3125
  9
$PLINEWID
 40
0.0
  9
$COORDS
 70
     1
  9
$SPLFRAME
 70
     0
  9
$SPLINETYPE
 70
     6
  9
$SPLINESEGS
 70
     8
  9
$ATTDIA
 70
     1
  9
$ATTREQ
 70
     1
  9
$HANDLING
 70
     1
  9
$HANDSEED
  5
F711
  9
$SURFTAB1
 70
     6
  9
$SURFTAB2
 70
     6
  9
$SURFTYPE
 70
     6
  9
$SURFU
 70
     6
  9
$SURFV
 70
     6
  9
$UCSNAME
  2

  9
$UCSORG
 10
0.0
 20
0.0
 30
0.0
  9
$UCSXDIR
 10
1.0
 20
0.0
 30
0.0
  9
$UCSYDIR
 10
0.0
 20
1.0
 30
0.0
  9
$PUCSNAME
  2

  9
$PUCSORG
 10
0.0
 20
0.0
 30
0.0
  9
$PUCSXDIR
 10
1.0
 20
0.0
 30
0.0
  9
$PUCSYDIR
 10
0.0
 20
1.0
 30
0.0
  9
$USERI1
 70
     0
  9
$USERI2
 70
     0
  9
$USERI3
 70
     0
  9
$USERI4
 70
     0
  9
$USERI5
 70
     0
  9
$USERR1
 40
0.0
  9
$USERR2
 40
0.0
  9
$USERR3
 40
0.0
  9
$USERR4
 40
0.0
  9
$USERR5
 40
0.0
  9
$WORLDVIEW
 70
     1
  9
$SHADEDGE
 70
     3
  9
$SHADEDIF
 70
    70
  9
$TILEMODE
 70
     1
  9
$MAXACTVP
 70
    64
  9
$PLIMCHECK
 70
     0
  9
$PEXTMIN
 10
1.0000000000000000E+20
 20
1.0000000000000000E+20
 30
1.0000000000000000E+20
  9
$PEXTMAX
 10
-1.0000000000000000E+20
 20
-1.0000000000000000E+20
 30
-1.0000000000000000E+20
  9
$PLIMMIN
 10
0.0
 20
0.0
  9
$PLIMMAX
 10
12.0
 20
9.0
  9
$UNITMODE
 70
     0
  9
$VISRETAIN
 70
     1
  9
$PLINEGEN
 70
     0
  9
$PSLTSCALE
 70
     1
  0
ENDSEC
  0
SECTION
  2
TABLES
  0
TABLE
  2
VPORT
 70
     1
  0
VPORT
  2
*ACTIVE
 70
     0
 10
0.0
 20
0.0
 11
1.0
 21
1.0
 12
126.8718039539216988
 22
23.1923828179219491
 13
0.0
 23
0.0
 14
1.0
 24
1.0
 15
0.0
 25
0.0
 16
0.0
 26
0.0
 36
166.7743791294452933
 17
3621.7587890625
 27
154.0013732910155966
 37
0.0
 40
43.4781604772765817
 41
2.1211111111111101
 42
50.0
 43
0.0
 44
0.0
 50
0.0
 51
0.0
 71
     0
 72
   100
 73
     1
 74
     1
 75
     0
 76
     0
 77
     0
 78
     0
  0
ENDTAB
  0
TABLE
  2
LTYPE
 70
     2
  0
LTYPE
  2
CONTINUOUS
 70
     0
  3
Solid line
 72
    65
 73
     0
 40
0.0
  0
LTYPE
  2
PHANTOM2
 70
     0
  3
___ _ _ ___ _ _ ___ _ _ ___ _ _
 72
    65
 73
     6
 40
1.25
 49
0.625
 49
-0.125
 49
0.125
 49
-0.125
 49
0.125
 49
-0.125
  0
ENDTAB
  0
TABLE
  2
LAYER
 70
     2
  0
LAYER
  2
0
 70
     0
 62
   255
  6
CONTINUOUS
  0
LAYER
  2
DEFPOINTS
 70
     0
 62
     7
  6
CONTINUOUS
  0
ENDTAB
  0
TABLE
  2
STYLE
 70
     1
  0
STYLE
  2
STANDARD
 70
     0
 40
0.0
 41
0.8
 50
0.0
 71
     0
 42
0.2
  3
txt
  4

  0
ENDTAB
  0
TABLE
  2
VIEW
 70
     0
  0
ENDTAB
  0
TABLE
  2
UCS
 70
     0
  0
ENDTAB
  0
TABLE
  2
APPID
 70
    10
  0
APPID
  2
ACAD
 70
     0
  0
APPID
  2
ACAD_MLEADERVER
 70
     0
  0
APPID
  2
ACAD_EXEMPT_FROM_CAD_STANDARDS
 70
     0
  0
APPID
  2
ACAD_NAV_VCDISPLAY
 70
     0
  0
APPID
  2
ACAECLAYERSTANDARD
 70
     0
  0
APPID
  2
ACCMTRANSPARENCY
 70
     0
  0
APPID
  2
ACAD_DSTYLE_DIMJAG
 70
     0
  0
APPID
  2
ACAD_DSTYLE_DIMTALN
 70
     0
  0
APPID
  2
ACDBATTR
 70
     0
  0
APPID
  2
ACAD_PSEXT
 70
     0
  0
ENDTAB
  0
TABLE
  2
DIMSTYLE
 70
     1
  0
DIMSTYLE
  2
STANDARD
 70
     0
  3

  4

  5

  6

  7

 40
1.0
 41
0.1875
 42
0.0625
 43
0.38
 44
0.125
 45
0.0
 46
0.0
 47
0.01
 48
0.01
140
0.15625
141
0.09
142
0.0
143
25.3999999999999986
144
1.0
145
0.0
146
1.0
147
0.09
 71
     1
 72
     0
 73
     1
 74
     1
 75
     0
 76
     0
 77
     0
 78
     4
170
     0
171
     2
172
     0
173
     0
174
     0
175
     0
176
     0
177
     0
178
     0
  0
ENDTAB
  0
ENDSEC
  0
SECTION
  2
BLOCKS
  0
BLOCK
  8
0
  2
$MODEL_SPACE
 70
     0
 10
0.0
 20
0.0
 30
0.0
  3
$MODEL_SPACE
  1

  0
ENDBLK
  5
21
  8
0
  0
BLOCK
 67
     1
  8
0
  2
$PAPER_SPACE
 70
     0
 10
0.0
 20
0.0
 30
0.0
  3
$PAPER_SPACE
  1

  0
ENDBLK
  5
1D
 67
     1
  8
0
  0
BLOCK
  8
0
  2
_FILLED
 70
     0
 10
0.0
 20
0.0
 30
0.0
  3
_FILLED
  1

  0
SOLID
  5
B630
  8
0
  6
BYBLOCK
 62
     0
 10
0.0
 20
0.0
 30
0.0
 11
-1.0
 21
0.1666666667
 31
0.0
 12
-1.0
 22
-0.1666666667
 32
0.0
 13
-1.0
 23
-0.1666666667
 33
0.0
  0
ENDBLK
  5
B631
  8
0
  6
BYBLOCK
 62
     0
  0
ENDSEC
  0
SECTION
  2
ENTITIES
  0
ATTDEF
  5
AA11
  8
DEFPOINTS
 10
3744.0970206702359064
 20
176.6649794188834051
 30
0.0
 40
0.001
  1
K-73164T-7
  3

  2
MODELNUMBER
 70
     0
1001
ACDBATTR
1070
     0
1070
     1
  0
ATTDEF
  5
AA12
  8
DEFPOINTS
 10
3744.0970206702359064
 20
176.6633127522167115
 30
0.0
 40
0.001
  1
COMPOSED
  3

  2
TRADENAME
 70
     0
1001
ACDBATTR
1070
     0
1070
     1
  0
ATTDEF
  5
AA13
  8
DEFPOINTS
 10
3744.0970206702359064
 20
176.6616460855501032
 30
0.0
 40
0.001
  1
SHOWER FAUCET
  3

  2
PRODUCT
 70
     0
1001
ACDBATTR
1070
     0
1070
     1
  0
LINE
  5
F27E
  8
0
 10
3739.408089496339926
 20
177.6062581698508041
 30
0.0
 11
3748.7938102622019869
 21
177.6062850301831872
 31
0.0
  0
ARC
  5
F27F
  8
0
 10
3739.4080895864881313
 20
177.5747581698508952
 30
0.0
 40
0.0315
 50
90.0001639707618324
 51
180.0
  0
LINE
  5
F280
  8
0
 10
3739.4080895853389848
 20
175.7164946085405006
 30
0.0
 11
3743.6245229508490411
 21
175.7164944547926098
 31
0.0
  0
ARC
  5
F281
  8
0
 10
3739.4080895864881313
 20
175.7479946085404947
 30
0.0
 40
0.0315
 50
180.0
 51
269.9999979107715262
  0
ARC
  5
F282
  8
0
 10
3744.1009009036001771
 20
174.9004857519423979
 30
0.0
 40
0.9448842029548666
 50
59.7240324347415807
 51
120.2759675652583979
  0
LINE
  5
F283
  8
0
 10
3744.5772788563499489
 20
175.7164944547926098
 30
0.0
 11
3748.7938103523501923
 21
175.7164944547926098
 31
0.0
  0
ARC
  5
F284
  8
0
 10
3748.7938103523501923
 20
175.7479944547926038
 30
0.0
 40
0.0315
 50
270.0
 51
0.0
  0
LINE
  5
F285
  8
0
 10
3748.8253103523497884
 20
177.5747850301833068
 30
0.0
 11
3748.8253103523497884
 21
175.7479944547926038
 31
0.0
  0
ARC
  5
F286
  8
0
 10
3748.7938103523501923
 20
177.5747850301833068
 30
0.0
 40
0.0315
 50
0.0
 51
90.0001639707618324
  0
LINE
  5
F287
  8
0
 10
3743.6383024783499422
 20
175.7243843221255872
 30
0.0
 11
3743.6383070941578808
 21
174.9172818555213098
 31
0.0
  0
LINE
  5
F288
  8
0
 10
3743.6383037168029659
 20
175.5078330374925883
 30
0.0
 11
3744.563500567202027
 21
175.5078330374925883
 31
0.0
  0
LINE
  5
F289
  8
0
 10
3744.5635039445501207
 20
174.9172818555256015
 30
0.0
 11
3744.5634993287499128
 21
175.7243843221816917
 31
0.0
  0
LINE
  5
F28A
  8
0
 10
3743.6727512972829572
 20
174.9172818555215088
 30
0.0
 11
3743.7064140519501052
 21
174.1093757432927021
 31
0.0
  0
ARC
  5
F28B
  8
0
 10
3743.7260820258729836
 20
174.1101952422058901
 30
0.0
 40
0.0196850394132176
 50
182.3859440297026993
 51
269.9999999334032168
  0
LINE
  5
F28C
  8
0
 10
3743.7260820258497915
 20
174.0905102027927001
 30
0.0
 11
3744.4757197812500635
 21
174.0905102019212904
 31
0.0
  0
ARC
  5
F28D
  8
0
 10
3744.4757197812728009
 20
174.1101952412595892
 30
0.0
 40
0.0196850393382926
 50
269.9999999334032168
 51
357.614058679964387
  0
LINE
  5
F28E
  8
0
 10
3744.4953877551588448
 20
174.1093757432795996
 30
0.0
 11
3744.529050471552182
 21
174.9172818555254025
 31
0.0
  0
LINE
  5
F28F
  8
0
 10
3743.8154768042491014
 20
174.0905102026887903
 30
0.0
 11
3743.8154768042491014
 21
162.659892675501311
 31
0.0
  0
LINE
  5
F290
  8
0
 10
3744.386355964968061
 20
162.3183294258346052
 30
0.0
 11
3744.3863250029498886
 21
174.0905102020252002
 31
0.0
  0
ARC
  5
F291
  8
0
 10
3750.9509950830101843
 20
162.6985827495767012
 30
0.0
 40
6.5756428841857302
 50
183.3151240044030885
 51
224.3855170071093141
  0
ARC
  5
F292
  8
0
 10
3750.8734073946129683
 20
162.6521996022393921
 30
0.0
 40
7.0579347830476964
 50
179.9375482020992933
 51
230.7637641136977038
  0
LINE
  5
F293
  8
0
 10
3757.2005732216480283
 20
162.6487343013492932
 30
0.0
 11
3757.2007025362868262
 21
187.6887857933926966
 31
0.0
  0
LINE
  5
F294
  8
0
 10
3757.7714526032491449
 20
187.6887857933926966
 30
0.0
 11
3757.7714283588311446
 21
162.658801543709302
 31
0.0
  0
LINE
  5
F295
  8
0
 10
3757.8608427658491564
 20
187.6887857933926966
 30
0.0
 11
3757.1112096496499362
 21
187.6887857933926966
 31
0.0
  0
ARC
  5
F296
  8
0
 10
3757.1112096496499362
 20
187.7084708571923102
 30
0.0
 40
0.0196850637996562
 50
182.3860124428165079
 51
270.0
  0
ARC
  5
F297
  8
0
 10
3757.860847381649819
 20
187.7084708326927114
 30
0.0
 40
0.0196850393999952
 50
270.0
 51
357.6140559692166221
  0
LINE
  5
F298
  8
0
 10
3757.0915416523398562
 20
187.7076513337796086
 30
0.0
 11
3757.086085416250171
 21
187.8386010009926963
 31
0.0
  0
LINE
  5
F299
  8
0
 10
3757.8859715916501045
 20
187.8386010009926963
 30
0.0
 11
3757.8805153555599645
 21
187.7076513337796086
 31
0.0
  0
LINE
  5
F29A
  8
0
 10
3757.9641275806498015
 20
187.8386010009926963
 30
0.0
 11
3756.822898936549791
 21
187.8386010009926963
 31
0.0
  0
ARC
  5
F29B
  8
0
 10
3756.822898936549791
 20
187.8582860403926986
 30
0.0
 40
0.0196850393999988
 50
180.0
 51
270.0
  0
LINE
  5
F29C
  8
0
 10
3756.8032138971498171
 20
187.8582860403926986
 30
0.0
 11
3756.8032138971498171
 21
189.0867712850927091
 31
0.0
  0
ARC
  5
F29D
  8
0
 10
3756.822898936549791
 20
189.0867712850927091
 30
0.0
 40
0.0196850393999952
 50
90.0
 51
180.0
  0
LINE
  5
F29E
  8
0
 10
3756.822898936549791
 20
189.1064563244927115
 30
0.0
 11
3758.0024025197981246
 21
189.1064563244923988
 31
0.0
  0
ARC
  5
F29F
  8
0
 10
3757.9641275806498015
 20
189.086771394171393
 30
0.0
 40
0.0196849303210627
 50
0.0539330967663911
 51
89.9999999999739515
  0
LINE
  5
F2A0
  8
0
 10
3757.9838125022502027
 20
189.0867899237927077
 30
0.0
 11
3757.9838126112258578
 21
187.8582674015266036
 31
0.0
  0
ARC
  5
F2A1
  8
0
 10
3757.9641275806498015
 20
187.8582860403926986
 30
0.0
 40
0.0196850393999917
 50
270.0000000001824105
 51
359.9457492198974933
  0
LINE
  5
F2A2
  8
0
 10
3756.7666627160501776
 20
189.1064563244927115
 30
0.0
 11
3755.0565918410497943
 21
189.1064563244927115
 31
0.0
  0
ARC
  5
F2A3
  8
0
 10
3755.0565918410497943
 20
189.0867712850927091
 30
0.0
 40
0.0196850393999988
 50
90.0
 51
177.3260774852971906
  0
ARC
  5
F2A4
  8
0
 10
3768.2115439226231501
 20
188.4723999837623865
 30
0.0
 40
13.1889756947236396
 50
177.326077421544511
 51
182.6728016680011137
  0
ARC
  5
F2A5
  8
0
 10
3755.0565798243810605
 20
187.8582860405088013
 30
0.0
 40
0.0196850395161104
 50
182.6728016680067981
 51
269.9999949602914739
  0
LINE
  5
F2A6
  8
0
 10
3755.0565798226498373
 20
187.8386010009926963
 30
0.0
 11
3756.7666627160501776
 21
187.8386008505748919
 31
0.0
  0
ARC
  5
F2A7
  8
0
 10
3756.7666627177818555
 20
187.8582858882440974
 30
0.0
 40
0.0196850376691132
 50
269.9999949603176219
 51
0.0004428476407954
  0
ARC
  5
F2A8
  8
0
 10
83227.7071346874436131
 20
188.4725286627426044
 30
0.0
 40
79470.9207893057755427
 50
179.9995571523575961
 51
180.0004428476406986
  0
ARC
  5
F2A9
  8
0
 10
3756.766662868198182
 20
189.0867714372400883
 30
0.0
 40
0.0196848872531508
 50
359.9995571523608078
 51
90.0004428476587321
  0
ARC
  5
F2AA
  8
0
 10
3755.9119245256501927
 20
188.4723999665926044
 30
0.0
 40
1.0
 50
151.7460682285322093
 51
208.2539317714677907
  0
ARC
  5
F2AB
  8
0
 10
3755.9119245256501927
 20
188.4723999665926044
 30
0.0
 40
1.0
 50
219.3309628042316035
 51
320.6690371957682828
  0
ARC
  5
F2AC
  8
0
 10
3755.9119245256501927
 20
188.4723999665926044
 30
0.0
 40
1.0
 50
39.3500313827551622
 51
140.6499686172448094
  0
ARC
  5
F2AD
  8
0
 10
3757.552179996671839
 20
170.1329755012114049
 30
0.0
 40
28.6425796537747388
 50
90.1282833775258183
 51
91.2319569409219895
  0
ARC
  5
F2AE
  8
0
 10
3757.1181886586591645
 20
186.7961189899021974
 30
0.0
 40
11.9741959235246291
 50
90.8700571098663232
 51
95.3304315173964767
  0
ARC
  5
F2AF
  8
0
 10
3756.2827366377541694
 20
195.5005960199748074
 30
0.0
 40
3.229831722110013
 50
94.9189036701572348
 51
104.0353850007955998
  0
ARC
  5
F2B0
  8
0
 10
3755.6676806480868436
 20
197.9726630992641105
 30
0.0
 40
0.6824072392665953
 50
104.2733495867796023
 51
127.6322007845423059
  0
ARC
  5
F2B1
  8
0
 10
3755.8226750850321878
 20
197.964028123935492
 30
0.0
 40
0.792637456406446
 50
136.155268773508709
 51
174.993672662846194
  0
ARC
  5
F2B2
  8
0
 10
3769.0673121434529094
 20
196.3094077270914966
 30
0.0
 40
14.1397187092803591
 50
172.9975820329667044
 51
180.041063415782304
  0
ARC
  5
F2B3
  8
0
 10
3784.1187349957790502
 20
196.8437143394243094
 30
0.0
 40
29.1962146355242389
 50
181.0684928680942107
 51
183.811033004097709
  0
ARC
  5
F2B4
  8
0
 10
3760.1411366570368955
 20
195.3325159598801122
 30
0.0
 40
5.1719072764410781
 50
184.7620276880427923
 51
189.9323660414478923
  0
ARC
  5
F2B5
  8
0
 10
3755.82873691590612
 20
194.5135702419740937
 30
0.0
 40
0.7854035967593119
 50
185.3428893633737005
 51
221.6782077380713076
  0
ARC
  5
F2B6
  8
0
 10
3755.8304725184948438
 20
194.6226691937654891
 30
0.0
 40
0.862991758496075
 50
227.0192757279104114
 51
254.6698404984113893
  0
ARC
  5
F2B7
  8
0
 10
3754.1425328845562035
 20
188.8379863478317873
 30
0.0
 40
5.1630615427521578
 50
63.3155954722365166
 51
73.5764588602582279
  0
ARC
  5
F2B8
  8
0
 10
3756.154297673741894
 20
192.8010336226226116
 30
0.0
 40
0.7188891979399045
 50
28.3683081773025911
 51
64.7336427963352747
  0
ARC
  5
F2B9
  8
0
 10
3754.8509031883831994
 20
192.5916582382754996
 30
0.0
 40
2.0128233095361581
 50
0.7516323312872414
 51
15.8856502308250196
  0
ARC
  5
F2BA
  8
0
 10
3686.8481591882577959
 20
190.2102787445109868
 30
0.0
 40
70.0567829424261532
 50
0.9058422362808519
 51
1.9695884160711461
  0
ARC
  5
F2BB
  8
0
 10
3851.0462855447622132
 20
192.7046991824998941
 30
0.0
 40
94.1603128004978913
 50
180.8439318556960984
 51
182.1784815622579004
  0
ARC
  5
F2BC
  8
0
 10
3756.9737406173380805
 20
189.1261855414097113
 30
0.0
 40
0.0197292629863254
 50
182.1981322632474019
 51
269.8761807890737145
  0
ARC
  5
F2BD
  8
0
 10
3757.4239205046069401
 20
170.132975501213707
 30
0.0
 40
28.6425796537723798
 50
88.7680430590780247
 51
89.8717166224741959
  0
ARC
  5
F2BE
  8
0
 10
3757.8579118426200694
 20
186.7961189899021974
 30
0.0
 40
11.9741959235246291
 50
84.6695684826035233
 51
89.129942890133691
  0
ARC
  5
F2BF
  8
0
 10
3758.6933638635250645
 20
195.5005960199748074
 30
0.0
 40
3.229831722110013
 50
75.9646149992044002
 51
85.0810963298427652
  0
ARC
  5
F2C0
  8
0
 10
3759.3084198531919355
 20
197.9726630992641105
 30
0.0
 40
0.6824072392665953
 50
52.3677992154576728
 51
75.7266504132472988
  0
ARC
  5
F2C1
  8
0
 10
3759.1534254162470461
 20
197.964028123935492
 30
0.0
 40
0.792637456406446
 50
5.0063273371537891
 51
43.8447312264912625
  0
ARC
  5
F2C2
  8
0
 10
3745.7983236821551145
 20
196.299273907399396
 30
0.0
 40
14.2505952638750397
 50
0.2408492832821927
 51
6.9887131762464554
  0
ARC
  5
F2C3
  8
0
 10
3738.7695345782381082
 20
196.5035304663493889
 30
0.0
 40
21.2797480808019088
 50
355.6869194487392178
 51
359.6113268530775144
  0
ARC
  5
F2C4
  8
0
 10
3754.8349638442418836
 20
195.3325159598801122
 30
0.0
 40
5.1719072764410781
 50
350.0676339585513119
 51
355.2379723119539108
  0
ARC
  5
F2C5
  8
0
 10
3759.1473635853731139
 20
194.5135702419740937
 30
0.0
 40
0.7854035967593119
 50
318.3217922619285787
 51
354.6571106366254753
  0
ARC
  5
F2C6
  8
0
 10
3759.1456279827839353
 20
194.6226691937654891
 30
0.0
 40
0.862991758496075
 50
285.3301595015885823
 51
312.9807242720895033
  0
ARC
  5
F2C7
  8
0
 10
3760.8335676167230304
 20
188.8379863478317873
 30
0.0
 40
5.1630615427521578
 50
106.423541139741701
 51
116.6844045277635047
  0
ARC
  5
F2C8
  8
0
 10
3758.8218028275368852
 20
192.8010336226226116
 30
0.0
 40
0.7188891979399045
 50
115.2663572036646968
 51
151.6316918226974053
  0
ARC
  5
F2C9
  8
0
 10
3760.1251973128960344
 20
192.5916582382754996
 30
0.0
 40
2.0128233095361581
 50
164.1143497691749928
 51
179.2483676687126888
  0
ARC
  5
F2CA
  8
0
 10
3828.1279413130209832
 20
190.2102787445109016
 30
0.0
 40
70.0567829424261532
 50
178.0304115839288102
 51
179.0941577637175044
  0
ARC
  5
F2CB
  8
0
 10
3663.9298149565161111
 20
192.7046991825000077
 30
0.0
 40
94.1603128004978913
 50
357.8215184377420996
 51
359.1560681443039016
  0
ARC
  5
F2CC
  8
0
 10
3758.0023598839411534
 20
189.1261855414097113
 30
0.0
 40
0.0197292629863254
 50
270.1238192109262855
 51
357.8018677367501823
  0
ARC
  5
F2CD
  8
0
 10
3755.9447149531069954
 20
197.9788694374439899
 30
0.0
 40
0.096708019316174
 50
271.0574587725369042
 51
89.0292481697099731
  0
ARC
  5
F2CE
  8
0
 10
3755.9481217207430745
 20
197.978872015212005
 30
0.0
 40
0.0967077301822846
 50
91.0477348475310606
 51
269.0389720947187016
  0
ARC
  5
F2CF
  8
0
 10
3755.9506153891238682
 20
197.975450759706689
 30
0.0
 40
0.0720513145891333
 50
93.8621332737234439
 51
265.971444390318311
  0
ARC
  5
F2D0
  8
0
 10
3755.9407903396281654
 20
197.9754650287231925
 30
0.0
 40
0.0720451848977111
 50
273.7908078791126059
 51
86.0427697848768389
  0
ARC
  5
F2D1
  8
0
 10
3755.9460180396208671
 20
197.9698734170362968
 30
0.0
 40
0.040570406287804
 50
91.2629343022469044
 51
268.6540299568488877
  0
ARC
  5
F2D2
  8
0
 10
3755.9460180232122184
 20
197.9698727186465987
 30
0.0
 40
0.0405697077054341
 50
268.6540299568488877
 51
91.172900617270642
  0
ARC
  5
F2D3
  8
0
 10
3755.9460853395657978
 20
197.9643939740130065
 30
0.0
 40
0.0240375271672281
 50
91.4529584926297332
 51
269.3628860803153771
  0
ARC
  5
F2D4
  8
0
 10
3755.9460859553519185
 20
197.9643939783971121
 30
0.0
 40
0.0240375384063102
 50
269.3614185019815181
 51
91.4544260709351704
  0
ARC
  5
F2D5
  8
0
 10
3755.9480576096821096
 20
198.0288452940166053
 30
0.0
 40
0.0472967734258551
 50
250.7403383693300896
 51
285.753558725604023
  0
ARC
  5
F2D6
  8
0
 10
3757.4868365569141133
 20
196.8636915019746993
 30
0.0
 40
0.0728599320890148
 50
89.0455282828489487
 51
270.9560570094732839
  0
ARC
  5
F2D7
  8
0
 10
3757.4868365436850581
 20
196.8636915019746141
 30
0.0
 40
0.0728599323095813
 50
270.9560674116759742
 51
89.0455178806510332
  0
ARC
  5
F2D8
  8
0
 10
3757.4865167845227916
 20
196.8655609320651934
 30
0.0
 40
0.1009426363992969
 50
89.1284278973649009
 51
270.8704400776956049
  0
ARC
  5
F2D9
  8
0
 10
3757.4865167844927782
 20
196.8655609320651934
 30
0.0
 40
0.1009426363997625
 50
270.8704400950762761
 51
89.1284278799841445
  0
ARC
  5
F2DA
  8
0
 10
3757.4850759125979494
 20
196.8808985621230931
 30
0.0
 40
0.1659021531307343
 50
88.9727309498266976
 51
271.0278966249662176
  0
ARC
  5
F2DB
  8
0
 10
3757.4850785895409899
 20
196.8808985621332965
 30
0.0
 40
0.1659021051402199
 50
271.0269722675259914
 51
88.9736553073199161
  0
ARC
  5
F2DC
  8
0
 10
3757.4875819868298095
 20
196.8722443607497894
 30
0.0
 40
0.129547936970299
 50
89.7928982968679748
 51
270.2082143188756049
  0
ARC
  5
F2DD
  8
0
 10
3757.4875819868298095
 20
196.8722443607497894
 30
0.0
 40
0.1295479369702966
 50
270.2082143188756049
 51
89.7928982968679748
  0
ARC
  5
F2DE
  8
0
 10
3757.4880509790991709
 20
196.9387385273024051
 30
0.0
 40
0.0841395362542833
 50
214.9631028122815053
 51
323.1827113013665098
  0
ARC
  5
F2DF
  8
0
 10
3756.9585839353107986
 20
196.6765885948296102
 30
0.0
 40
0.0728599320890148
 50
89.0455282828489487
 51
270.9560570094732839
  0
ARC
  5
F2E0
  8
0
 10
3756.9585839220808339
 20
196.6765885948294112
 30
0.0
 40
0.0728599323095813
 50
270.9560674116759742
 51
89.0455178806510332
  0
ARC
  5
F2E1
  8
0
 10
3756.9582641629199316
 20
196.6784580249199905
 30
0.0
 40
0.1009426363992969
 50
89.1284278973649009
 51
270.8704400776956049
  0
ARC
  5
F2E2
  8
0
 10
3756.9582641628890087
 20
196.6784580249199905
 30
0.0
 40
0.1009426363997625
 50
270.8704400950762761
 51
89.1284278799841445
  0
ARC
  5
F2E3
  8
0
 10
3756.9568232909950893
 20
196.6937956549778903
 30
0.0
 40
0.1659021531307343
 50
88.9727309498266976
 51
271.0278966249662176
  0
ARC
  5
F2E4
  8
0
 10
3756.9568259679372204
 20
196.6937956549880937
 30
0.0
 40
0.1659021051402199
 50
271.0269722675259914
 51
88.9736553073199161
  0
ARC
  5
F2E5
  8
0
 10
3756.9593293652269494
 20
196.6851414536045866
 30
0.0
 40
0.129547936970299
 50
89.7928982968679748
 51
270.2082143188756049
  0
ARC
  5
F2E6
  8
0
 10
3756.9593293652269494
 20
196.6851414536045866
 30
0.0
 40
0.1295479369702966
 50
270.2082143188756049
 51
89.7928982968679748
  0
ARC
  5
F2E7
  8
0
 10
3756.9597983574958562
 20
196.7516356201572876
 30
0.0
 40
0.0841395362542833
 50
214.9631028122815053
 51
323.1827113017156989
  0
ARC
  5
F2E8
  8
0
 10
3756.6788449572291029
 20
196.2042485423247911
 30
0.0
 40
0.0728599320890148
 50
89.0455282828489487
 51
270.9560570094732839
  0
ARC
  5
F2E9
  8
0
 10
3756.678844943997774
 20
196.2042485423247058
 30
0.0
 40
0.0728599323095813
 50
270.9560674116759742
 51
89.0455178806510332
  0
ARC
  5
F2EA
  8
0
 10
3756.6785251848368716
 20
196.2061179724153135
 30
0.0
 40
0.1009426363992969
 50
89.1284278973649009
 51
270.8704400776956049
  0
ARC
  5
F2EB
  8
0
 10
3756.6785251848059488
 20
196.2061179724153135
 30
0.0
 40
0.1009426363997625
 50
270.8704400950762761
 51
89.1284278799841445
  0
ARC
  5
F2EC
  8
0
 10
3756.6770843129120294
 20
196.2214556024732985
 30
0.0
 40
0.1659021531307343
 50
88.9727309498266976
 51
271.0278966249662176
  0
ARC
  5
F2ED
  8
0
 10
3756.6770869898541605
 20
196.2214556024833882
 30
0.0
 40
0.1659021051402199
 50
271.0269722675259914
 51
88.9736553073199161
  0
ARC
  5
F2EE
  8
0
 10
3756.6795903871438895
 20
196.2128014010999095
 30
0.0
 40
0.129547936970299
 50
89.7928982968679748
 51
270.2082143188756049
  0
ARC
  5
F2EF
  8
0
 10
3756.6795903871438895
 20
196.2128014010999095
 30
0.0
 40
0.1295479369702966
 50
270.2082143188756049
 51
89.7928982968679748
  0
ARC
  5
F2F0
  8
0
 10
3756.6800593794127963
 20
196.2792955676524969
 30
0.0
 40
0.0841395362542833
 50
214.9631028122815053
 51
323.1827113017490092
  0
ARC
  5
F2F1
  8
0
 10
3757.2077936880818925
 20
195.3146148572587038
 30
0.0
 40
0.0728599320890148
 50
89.0455282828489487
 51
270.9560570094732839
  0
ARC
  5
F2F2
  8
0
 10
3757.2077936748519278
 20
195.3146148572585048
 30
0.0
 40
0.0728599323095813
 50
270.9560674116759742
 51
89.0455178806510332
  0
ARC
  5
F2F3
  8
0
 10
3757.207473915690116
 20
195.3164842873491125
 30
0.0
 40
0.1009426363992969
 50
89.1284278973649009
 51
270.8704400776956049
  0
ARC
  5
F2F4
  8
0
 10
3757.2074739156601026
 20
195.3164842873491125
 30
0.0
 40
0.1009426363997625
 50
270.8704400950762761
 51
89.1284278799841445
  0
ARC
  5
F2F5
  8
0
 10
3757.206033043764819
 20
195.3318219174070975
 30
0.0
 40
0.1659021531307343
 50
88.9727309498266976
 51
271.0278966249662176
  0
ARC
  5
F2F6
  8
0
 10
3757.2060357207069501
 20
195.3318219174171873
 30
0.0
 40
0.1659021051402199
 50
271.0269722675259914
 51
88.9736553073199161
  0
ARC
  5
F2F7
  8
0
 10
3757.2085391179980434
 20
195.3231677160337085
 30
0.0
 40
0.129547936970299
 50
89.7928982968679748
 51
270.2082143188756049
  0
ARC
  5
F2F8
  8
0
 10
3757.2085391179980434
 20
195.3231677160337085
 30
0.0
 40
0.1295479369702966
 50
270.2082143188756049
 51
89.7928982968679748
  0
ARC
  5
F2F9
  8
0
 10
3757.2090081102660406
 20
195.3896618825864095
 30
0.0
 40
0.0841395362542833
 50
214.9631028122815053
 51
323.1827113017156989
  0
ARC
  5
F2FA
  8
0
 10
3756.7714167404319596
 20
195.6665232430734136
 30
0.0
 40
0.0728599320890148
 50
89.0455282828489487
 51
270.9560570094732839
  0
ARC
  5
F2FB
  8
0
 10
3756.7714167272029044
 20
195.6665232430731862
 30
0.0
 40
0.0728599323095813
 50
270.9560674116759742
 51
89.0455178806510332
  0
ARC
  5
F2FC
  8
0
 10
3756.7710969680410926
 20
195.6683926731637939
 30
0.0
 40
0.1009426363992969
 50
89.1284278973649009
 51
270.8704400776956049
  0
ARC
  5
F2FD
  8
0
 10
3756.7710969680101698
 20
195.6683926731637939
 30
0.0
 40
0.1009426363997625
 50
270.8704400950762761
 51
89.1284278799841445
  0
ARC
  5
F2FE
  8
0
 10
3756.7696560961148862
 20
195.6837303032218074
 30
0.0
 40
0.1659021531307343
 50
88.9727309498266976
 51
271.0278966249662176
  0
ARC
  5
F2FF
  8
0
 10
3756.7696587730579267
 20
195.6837303032320108
 30
0.0
 40
0.1659021051402199
 50
271.0269722675259914
 51
88.9736553073199161
  0
ARC
  5
F300
  8
0
 10
3756.7721621703481105
 20
195.67507610184839
 30
0.0
 40
0.129547936970299
 50
89.7928982968679748
 51
270.2082143188756049
  0
ARC
  5
F301
  8
0
 10
3756.7721621703481105
 20
195.67507610184839
 30
0.0
 40
0.1295479369702966
 50
270.2082143188756049
 51
89.7928982968679748
  0
ARC
  5
F302
  8
0
 10
3756.7726311626170173
 20
195.7415702684010057
 30
0.0
 40
0.0841395362542833
 50
214.9631028122815053
 51
323.1827113017490092
  0
ARC
  5
F303
  8
0
 10
3758.0174859300968819
 20
196.6766091280578053
 30
0.0
 40
0.0728599320890148
 50
269.0461650419111947
 51
90.9566937685303998
  0
ARC
  5
F304
  8
0
 10
3758.0174859433268466
 20
196.6766091280580895
 30
0.0
 40
0.0728599323095813
 50
90.9567041707350228
 51
269.0461546397152119
  0
ARC
  5
F305
  8
0
 10
3758.017805629986924
 20
196.6784785705482932
 30
0.0
 40
0.1009426363992969
 50
269.1317819736707975
 51
90.8737941540246368
  0
ARC
  5
F306
  8
0
 10
3758.0178056300178469
 20
196.6784785705482932
 30
0.0
 40
0.1009426363997624
 50
90.8737941714053932
 51
269.1317819563161038
  0
ARC
  5
F307
  8
0
 10
3758.0192459070858604
 20
196.693816256474804
 30
0.0
 40
0.1659021531307343
 50
268.9743254264222969
 51
91.029491101550434
  0
ARC
  5
F308
  8
0
 10
3758.0192432301428198
 20
196.6938162563810977
 30
0.0
 40
0.1659021051402199
 50
91.0285667440655146
 51
268.9752497838717886
  0
ARC
  5
F309
  8
0
 10
3758.0167401684830111
 20
196.6851619579169892
 30
0.0
 40
0.129547936970299
 50
269.794007732513478
 51
90.209323754494676
  0
ARC
  5
F30A
  8
0
 10
3758.0167401684830111
 20
196.6851619579169892
 30
0.0
 40
0.1295479369702965
 50
90.209323754494676
 51
269.794007732513478
  0
ARC
  5
F30B
  8
0
 10
3758.0162685974310079
 20
196.7516561062311951
 30
0.0
 40
0.0841395362542832
 50
216.8195107496397895
 51
325.0391192391124946
  0
ARC
  5
F30C
  8
0
 10
3758.297243226315004
 20
196.2042799247768983
 30
0.0
 40
0.0728599320890148
 50
269.0461650419111947
 51
90.9566937685303998
  0
ARC
  5
F30D
  8
0
 10
3758.2972432395449687
 20
196.2042799247772109
 30
0.0
 40
0.0728599323095813
 50
90.9567041707350228
 51
269.0461546397152119
  0
ARC
  5
F30E
  8
0
 10
3758.2975629262050461
 20
196.2061493672673009
 30
0.0
 40
0.1009426363992969
 50
269.1317819736707975
 51
90.8737941540246368
  0
ARC
  5
F30F
  8
0
 10
3758.2975629262359689
 20
196.2061493672673009
 30
0.0
 40
0.1009426363997624
 50
90.8737941714053932
 51
269.1317819563161038
  0
ARC
  5
F310
  8
0
 10
3758.2990032033039824
 20
196.2214870531938118
 30
0.0
 40
0.1659021531307343
 50
268.9743254264222969
 51
91.029491101550434
  0
ARC
  5
F311
  8
0
 10
3758.2990005263609419
 20
196.2214870531001907
 30
0.0
 40
0.1659021051402199
 50
91.0285667440655146
 51
268.9752497838717886
  0
ARC
  5
F312
  8
0
 10
3758.2964974647011331
 20
196.2128327546361106
 30
0.0
 40
0.129547936970299
 50
269.794007732513478
 51
90.209323754494676
  0
ARC
  5
F313
  8
0
 10
3758.2964974647011331
 20
196.2128327546361106
 30
0.0
 40
0.1295479369702965
 50
90.209323754494676
 51
269.794007732513478
  0
ARC
  5
F314
  8
0
 10
3758.29602589364913
 20
196.2793269029502881
 30
0.0
 40
0.0841395362542832
 50
216.8195107496397895
 51
325.0391192391124946
  0
ARC
  5
F315
  8
0
 10
3757.7683289977330787
 20
195.3146257266303962
 30
0.0
 40
0.0728599320890148
 50
269.0461650419111947
 51
90.9566937685303998
  0
ARC
  5
F316
  8
0
 10
3757.7683290109630434
 20
195.3146257266307089
 30
0.0
 40
0.0728599323095813
 50
90.9567041707350228
 51
269.0461546397152119
  0
ARC
  5
F317
  8
0
 10
3757.7686486976240303
 20
195.3164951691209126
 30
0.0
 40
0.1009426363992969
 50
269.1317819736707975
 51
90.8737941540246368
  0
ARC
  5
F318
  8
0
 10
3757.7686486976540436
 20
195.3164951691209126
 30
0.0
 40
0.1009426363997624
 50
90.8737941714053932
 51
269.1317819563161038
  0
ARC
  5
F319
  8
0
 10
3757.7700889747220572
 20
195.331832855047395
 30
0.0
 40
0.1659021531307343
 50
268.9743254264222969
 51
91.029491101550434
  0
ARC
  5
F31A
  8
0
 10
3757.7700862977790166
 20
195.3318328549536886
 30
0.0
 40
0.1659021051402199
 50
91.0285667440655146
 51
268.9752497838717886
  0
ARC
  5
F31B
  8
0
 10
3757.7675832361201174
 20
195.3231785564896086
 30
0.0
 40
0.129547936970299
 50
269.794007732513478
 51
90.209323754494676
  0
ARC
  5
F31C
  8
0
 10
3757.7675832361201174
 20
195.3231785564896086
 30
0.0
 40
0.1295479369702965
 50
90.209323754494676
 51
269.794007732513478
  0
ARC
  5
F31D
  8
0
 10
3757.7671116650672047
 20
195.389672704803786
 30
0.0
 40
0.0841395362542832
 50
216.8195107496366063
 51
325.0391192391124946
  0
ARC
  5
F31E
  8
0
 10
3758.2046922973040637
 20
195.6665510358004099
 30
0.0
 40
0.0728599320890148
 50
269.0461650419111947
 51
90.9566937685303998
  0
ARC
  5
F31F
  8
0
 10
3758.2046923105331189
 20
195.6665510358008078
 30
0.0
 40
0.0728599323095813
 50
90.9567041707350228
 51
269.0461546397152119
  0
ARC
  5
F320
  8
0
 10
3758.2050119971941058
 20
195.6684204782908978
 30
0.0
 40
0.1009426363992969
 50
269.1317819736707975
 51
90.8737941540246368
  0
ARC
  5
F321
  8
0
 10
3758.2050119972250286
 20
195.6684204782908978
 30
0.0
 40
0.1009426363997624
 50
90.8737941714053932
 51
269.1317819563161038
  0
ARC
  5
F322
  8
0
 10
3758.2064522742930421
 20
195.6837581642174086
 30
0.0
 40
0.1659021531307343
 50
268.9743254264222969
 51
91.029491101550434
  0
ARC
  5
F323
  8
0
 10
3758.2064495973500016
 20
195.6837581641237875
 30
0.0
 40
0.1659021051402199
 50
91.0285667440655146
 51
268.9752497838717886
  0
ARC
  5
F324
  8
0
 10
3758.2039465356901928
 20
195.6751038656597075
 30
0.0
 40
0.129547936970299
 50
269.794007732513478
 51
90.209323754494676
  0
ARC
  5
F325
  8
0
 10
3758.2039465356901928
 20
195.6751038656597075
 30
0.0
 40
0.1295479369702965
 50
90.209323754494676
 51
269.794007732513478
  0
ARC
  5
F326
  8
0
 10
3758.2034749646381897
 20
195.7415980139739133
 30
0.0
 40
0.0841395362542832
 50
216.8195107496366063
 51
325.0391192391124946
  0
CIRCLE
  5
F327
  8
0
 10
3757.4880502506398443
 20
196.0811844475927046
 30
0.0
 40
0.2595682203636353
  0
CIRCLE
  5
F328
  8
0
 10
3757.4880502506398443
 20
196.0811844475927046
 30
0.0
 40
0.2833269264055983
  0
ARC
  5
F329
  8
0
 10
3756.6682298510168039
 20
196.5437943796860054
 30
0.0
 40
0.0575587072850575
 50
88.477917316890256
 51
271.5220780651932841
  0
ARC
  5
F32A
  8
0
 10
3756.6682297336319607
 20
196.5437943796860054
 30
0.0
 40
0.057558710403174
 50
271.5221948725412062
 51
88.4778005095422486
  0
ARC
  5
F32B
  8
0
 10
3756.6691689876229248
 20
196.5447960551609015
 30
0.0
 40
0.0230371921606375
 50
89.2040839911130377
 51
273.12141961266218
  0
ARC
  5
F32C
  8
0
 10
3756.6691689876229248
 20
196.5447960551609015
 30
0.0
 40
0.0230371921606399
 50
273.12141961266218
 51
89.2040839911130377
  0
ARC
  5
F32D
  8
0
 10
3756.5559945557788524
 20
195.9294753535224913
 30
0.0
 40
0.0575587072850575
 50
88.477917316890256
 51
271.5220780651932841
  0
ARC
  5
F32E
  8
0
 10
3756.5559944383940092
 20
195.9294753535224913
 30
0.0
 40
0.057558710403174
 50
271.5221948725412062
 51
88.4778005095422486
  0
ARC
  5
F32F
  8
0
 10
3756.5569336923849733
 20
195.9304770289973021
 30
0.0
 40
0.0230371921606375
 50
89.2040839911130377
 51
273.12141961266218
  0
ARC
  5
F330
  8
0
 10
3756.5569336923849733
 20
195.9304770289973021
 30
0.0
 40
0.0230371921606399
 50
273.12141961266218
 51
89.2040839911130377
  0
ARC
  5
F331
  8
0
 10
3756.8791631951789896
 20
195.3875134153225019
 30
0.0
 40
0.0575587072850575
 50
88.477917316890256
 51
271.5220780651932841
  0
ARC
  5
F332
  8
0
 10
3756.8791630777941464
 20
195.3875134153225019
 30
0.0
 40
0.057558710403174
 50
271.5221948725412062
 51
88.4778005095422486
  0
ARC
  5
F333
  8
0
 10
3756.8801023317851104
 20
195.3885150907973127
 30
0.0
 40
0.0230371921606375
 50
89.2040839911130377
 51
273.12141961266218
  0
ARC
  5
F334
  8
0
 10
3756.8801023317851104
 20
195.3885150907973127
 30
0.0
 40
0.0230371921606399
 50
273.12141961266218
 51
89.2040839911130377
  0
ARC
  5
F335
  8
0
 10
3757.4865228564790414
 20
195.1732679578225031
 30
0.0
 40
0.0575587072850575
 50
88.477917316890256
 51
271.5220780651932841
  0
ARC
  5
F336
  8
0
 10
3757.4865227390951077
 20
195.1732679578225031
 30
0.0
 40
0.057558710403174
 50
271.5221948725412062
 51
88.4778005095422486
  0
ARC
  5
F337
  8
0
 10
3757.4874619930851622
 20
195.1742696332973139
 30
0.0
 40
0.0230371921606375
 50
89.2040839911130377
 51
273.12141961266218
  0
ARC
  5
F338
  8
0
 10
3757.4874619930851622
 20
195.1742696332973139
 30
0.0
 40
0.0230371921606399
 50
273.12141961266218
 51
89.2040839911130377
  0
ARC
  5
F339
  8
0
 10
3758.0938799378800468
 20
195.3875134967225051
 30
0.0
 40
0.0575587072850575
 50
88.477917316890256
 51
271.5220780651932841
  0
ARC
  5
F33A
  8
0
 10
3758.0938798204952036
 20
195.3875134967225051
 30
0.0
 40
0.057558710403174
 50
271.5221948725412062
 51
88.4778005095422486
  0
ARC
  5
F33B
  8
0
 10
3758.0948190744848034
 20
195.3885151721972875
 30
0.0
 40
0.0230371921606375
 50
89.2040839911130377
 51
273.12141961266218
  0
ARC
  5
F33C
  8
0
 10
3758.0948190744848034
 20
195.3885151721972875
 30
0.0
 40
0.0230371921606399
 50
273.12141961266218
 51
89.2040839911130377
  0
ARC
  5
F33D
  8
0
 10
3758.4185029924788068
 20
195.9294926862224884
 30
0.0
 40
0.0575587072850575
 50
88.477917316890256
 51
271.5220780651932841
  0
ARC
  5
F33E
  8
0
 10
3758.4185028750939637
 20
195.9294926862224884
 30
0.0
 40
0.057558710403174
 50
271.5221948725412062
 51
88.4778005095422486
  0
ARC
  5
F33F
  8
0
 10
3758.4194421290849277
 20
195.9304943616972992
 30
0.0
 40
0.0230371921606375
 50
89.2040839911130377
 51
273.12141961266218
  0
ARC
  5
F340
  8
0
 10
3758.4194421290849277
 20
195.9304943616972992
 30
0.0
 40
0.0230371921606399
 50
273.12141961266218
 51
89.2040839911130377
  0
ARC
  5
F341
  8
0
 10
3758.3048132866788364
 20
196.5437941451224901
 30
0.0
 40
0.0575587072850575
 50
88.477917316890256
 51
271.5220780651932841
  0
ARC
  5
F342
  8
0
 10
3758.3048131692939933
 20
196.5437941451224901
 30
0.0
 40
0.057558710403174
 50
271.5221948725412062
 51
88.4778005095422486
  0
ARC
  5
F343
  8
0
 10
3758.3057524232849573
 20
196.5447958205973009
 30
0.0
 40
0.0230371921606375
 50
89.2040839911130377
 51
273.12141961266218
  0
ARC
  5
F344
  8
0
 10
3758.3057524232849573
 20
196.5447958205973009
 30
0.0
 40
0.0230371921606399
 50
273.12141961266218
 51
89.2040839911130377
  0
ARC
  5
F345
  8
0
 10
3757.8096902058791784
 20
196.9450040643224895
 30
0.0
 40
0.0575587072850575
 50
88.477917316890256
 51
271.5220780651932841
  0
ARC
  5
F346
  8
0
 10
3757.80969008849479
 20
196.9450040643224895
 30
0.0
 40
0.057558710403174
 50
271.5221948725412062
 51
88.4778005095422486
  0
ARC
  5
F347
  8
0
 10
3757.8106293424848445
 20
196.9460057397973003
 30
0.0
 40
0.0230371921606375
 50
89.2040839911130377
 51
273.12141961266218
  0
ARC
  5
F348
  8
0
 10
3757.8106293424848445
 20
196.9460057397973003
 30
0.0
 40
0.0230371921606399
 50
273.12141961266218
 51
89.2040839911130377
  0
ARC
  5
F349
  8
0
 10
3757.1633529271789484
 20
196.9450041074225055
 30
0.0
 40
0.0575587072850575
 50
88.477917316890256
 51
271.5220780651932841
  0
ARC
  5
F34A
  8
0
 10
3757.1633528097941053
 20
196.9450041074225055
 30
0.0
 40
0.057558710403174
 50
271.5221948725412062
 51
88.4778005095422486
  0
ARC
  5
F34B
  8
0
 10
3757.1642920637850693
 20
196.9460057828972879
 30
0.0
 40
0.0230371921606375
 50
89.2040839911130377
 51
273.12141961266218
  0
ARC
  5
F34C
  8
0
 10
3757.1642920637850693
 20
196.9460057828972879
 30
0.0
 40
0.0230371921606399
 50
273.12141961266218
 51
89.2040839911130377
  0
ARC
  5
F34D
  8
0
 10
3757.3248862490659121
 20
196.5067192537210019
 30
0.0
 40
0.1151810856888376
 50
109.4491189713153005
 51
291.5033721494884276
  0
ARC
  5
F34E
  8
0
 10
3757.3248972972219235
 20
196.5067233792375134
 30
0.0
 40
0.1151808748885012
 50
291.4975066177964891
 51
109.4549845030345949
  0
ARC
  5
F34F
  8
0
 10
3757.3265925874748064
 20
196.4963526112890975
 30
0.0
 40
0.0794514684796888
 50
109.9103613376172035
 51
292.6007271312374201
  0
ARC
  5
F350
  8
0
 10
3757.3265925870109641
 20
196.4963526111087901
 30
0.0
 40
0.0794514684913613
 50
292.6007274898598212
 51
109.9103609790025047
  0
ARC
  5
F351
  8
0
 10
3757.3253017557849489
 20
196.4893258484846115
 30
0.0
 40
0.0578659611540847
 50
109.4107870905818061
 51
291.5134979885033886
  0
ARC
  5
F352
  8
0
 10
3757.3253017557849489
 20
196.4893258484846115
 30
0.0
 40
0.0578659611540737
 50
291.5134979885033886
 51
109.4107870905818061
  0
ARC
  5
F353
  8
0
 10
3757.3258369809132091
 20
196.4886961492258024
 30
0.0
 40
0.0423775187858318
 50
111.8323489680612965
 51
291.3802597834437051
  0
ARC
  5
F354
  8
0
 10
3757.3258348916451723
 20
196.488695321759991
 30
0.0
 40
0.0423775099798751
 50
291.3832979977548803
 51
111.8293107537610069
  0
ARC
  5
F355
  8
0
 10
3757.3273015314989607
 20
196.562716381278193
 30
0.0
 40
0.0471525671899592
 50
236.6765601721295127
 51
301.0513741130827725
  0
ARC
  5
F356
  8
0
 10
3757.0805334946339826
 20
196.3073763905429132
 30
0.0
 40
0.1151810856888376
 50
109.4491189713153005
 51
291.5033721494884276
  0
ARC
  5
F357
  8
0
 10
3757.0805445427909035
 20
196.3073805160593963
 30
0.0
 40
0.1151808748885012
 50
291.4975066177964891
 51
109.4549845030345949
  0
ARC
  5
F358
  8
0
 10
3757.0822398330428769
 20
196.2970097481110088
 30
0.0
 40
0.0794514684796888
 50
109.9103613376172035
 51
292.6007271312374201
  0
ARC
  5
F359
  8
0
 10
3757.0822398325790346
 20
196.2970097479307015
 30
0.0
 40
0.0794514684913613
 50
292.6007274898598212
 51
109.9103609790025047
  0
ARC
  5
F35A
  8
0
 10
3757.0809490013530194
 20
196.289982985306608
 30
0.0
 40
0.0578659611540847
 50
109.4107870905818061
 51
291.5134979885033886
  0
ARC
  5
F35B
  8
0
 10
3757.0809490013530194
 20
196.289982985306608
 30
0.0
 40
0.0578659611540737
 50
291.5134979885033886
 51
109.4107870905818061
  0
ARC
  5
F35C
  8
0
 10
3757.0814842264821891
 20
196.289353286047799
 30
0.0
 40
0.0423775187858318
 50
111.8323489680612965
 51
291.3802597834437051
  0
ARC
  5
F35D
  8
0
 10
3757.0814821372127881
 20
196.2893524585819875
 30
0.0
 40
0.0423775099798751
 50
291.3832979977548803
 51
111.8293107537610069
  0
ARC
  5
F35E
  8
0
 10
3757.0829487770679407
 20
196.3633735181001896
 30
0.0
 40
0.0471525671899592
 50
236.6765601721295127
 51
301.0513741130827725
  0
ARC
  5
F35F
  8
0
 10
3757.024591809427875
 20
196.0006579193853895
 30
0.0
 40
0.1151810856888376
 50
109.4491189713153005
 51
291.5033721494884276
  0
ARC
  5
F360
  8
0
 10
3757.0246028575838864
 20
196.0006620449017873
 30
0.0
 40
0.1151808748885012
 50
291.4975066177964891
 51
109.4549845030345949
  0
ARC
  5
F361
  8
0
 10
3757.0262981478358597
 20
195.9902912769535135
 30
0.0
 40
0.0794514684796888
 50
109.9103613376172035
 51
292.6007271312374201
  0
ARC
  5
F362
  8
0
 10
3757.0262981473729269
 20
195.9902912767732062
 30
0.0
 40
0.0794514684913613
 50
292.6007274898598212
 51
109.9103609790025047
  0
ARC
  5
F363
  8
0
 10
3757.0250073161460023
 20
195.9832645141491128
 30
0.0
 40
0.0578659611540847
 50
109.4107870905818061
 51
291.5134979885033886
  0
ARC
  5
F364
  8
0
 10
3757.0250073161460023
 20
195.9832645141491128
 30
0.0
 40
0.0578659611540737
 50
291.5134979885033886
 51
109.4107870905818061
  0
ARC
  5
F365
  8
0
 10
3757.025542541275172
 20
195.98263481489019
 30
0.0
 40
0.0423775187858318
 50
111.8323489680612965
 51
291.3802597834437051
  0
ARC
  5
F366
  8
0
 10
3757.0255404520062257
 20
195.982633987424407
 30
0.0
 40
0.0423775099798751
 50
291.3832979977548803
 51
111.8293107537610069
  0
ARC
  5
F367
  8
0
 10
3757.027007091860014
 20
196.056655046942609
 30
0.0
 40
0.0471525671899592
 50
236.6765601721295127
 51
301.0513741130827725
  0
ARC
  5
F368
  8
0
 10
3757.183351370904802
 20
195.7297983181354937
 30
0.0
 40
0.1151810856888376
 50
109.4491189713153005
 51
291.5033721494884276
  0
ARC
  5
F369
  8
0
 10
3757.1833624190608134
 20
195.7298024436520052
 30
0.0
 40
0.1151808748885012
 50
291.4975066177964891
 51
109.4549845030345949
  0
ARC
  5
F36A
  8
0
 10
3757.185057709314151
 20
195.7194316757035892
 30
0.0
 40
0.0794514684796888
 50
109.9103613376172035
 51
292.6007271312374201
  0
ARC
  5
F36B
  8
0
 10
3757.185057708849854
 20
195.7194316755233103
 30
0.0
 40
0.0794514684913613
 50
292.6007274898598212
 51
109.9103609790025047
  0
ARC
  5
F36C
  8
0
 10
3757.1837668776238388
 20
195.7124049128991032
 30
0.0
 40
0.0578659611540847
 50
109.4107870905818061
 51
291.5134979885033886
  0
ARC
  5
F36D
  8
0
 10
3757.1837668776238388
 20
195.7124049128991032
 30
0.0
 40
0.0578659611540737
 50
291.5134979885033886
 51
109.4107870905818061
  0
ARC
  5
F36E
  8
0
 10
3757.184302102752099
 20
195.7117752136402942
 30
0.0
 40
0.0423775187858318
 50
111.8323489680612965
 51
291.3802597834437051
  0
ARC
  5
F36F
  8
0
 10
3757.1843000134831527
 20
195.7117743861745112
 30
0.0
 40
0.0423775099798751
 50
291.3832979977548803
 51
111.8293107537610069
  0
ARC
  5
F370
  8
0
 10
3757.1857666533378506
 20
195.7857954456927132
 30
0.0
 40
0.0471525671899592
 50
236.6765601721295127
 51
301.0513741130827725
  0
ARC
  5
F371
  8
0
 10
3757.4889385117130587
 20
195.6240159008451087
 30
0.0
 40
0.1151810856888376
 50
109.4491189713153005
 51
291.5033721494884276
  0
ARC
  5
F372
  8
0
 10
3757.4889495598699796
 20
195.6240200263615918
 30
0.0
 40
0.1151808748885012
 50
291.4975066177964891
 51
109.4549845030345949
  0
ARC
  5
F373
  8
0
 10
3757.4906448501219529
 20
195.6136492584132043
 30
0.0
 40
0.0794514684796888
 50
109.9103613376172035
 51
292.6007271312374201
  0
ARC
  5
F374
  8
0
 10
3757.4906448496590201
 20
195.613649258232897
 30
0.0
 40
0.0794514684913613
 50
292.6007274898598212
 51
109.9103609790025047
  0
ARC
  5
F375
  8
0
 10
3757.4893540184320955
 20
195.6066224956088035
 30
0.0
 40
0.0578659611540847
 50
109.4107870905818061
 51
291.5134979885033886
  0
ARC
  5
F376
  8
0
 10
3757.4893540184320955
 20
195.6066224956088035
 30
0.0
 40
0.0578659611540737
 50
291.5134979885033886
 51
109.4107870905818061
  0
ARC
  5
F377
  8
0
 10
3757.4898892435608104
 20
195.6059927963499945
 30
0.0
 40
0.0423775187858318
 50
111.8323489680612965
 51
291.3802597834437051
  0
ARC
  5
F378
  8
0
 10
3757.4898871542918641
 20
195.6059919688842115
 30
0.0
 40
0.0423775099798751
 50
291.3832979977548803
 51
111.8293107537610069
  0
ARC
  5
F379
  8
0
 10
3757.4913537941461072
 20
195.6800130284024135
 30
0.0
 40
0.0471525671899592
 50
236.6765601721295127
 51
301.0513741130827725
  0
ARC
  5
F37A
  8
0
 10
3757.7922063605169569
 20
195.7304026152851009
 30
0.0
 40
0.1151810856888376
 50
109.4491189713153005
 51
291.5033721494884276
  0
ARC
  5
F37B
  8
0
 10
3757.7922174086738778
 20
195.7304067408016124
 30
0.0
 40
0.1151808748885012
 50
291.4975066177964891
 51
109.4549845030345949
  0
ARC
  5
F37C
  8
0
 10
3757.7939126989258511
 20
195.7200359728533101
 30
0.0
 40
0.0794514684796888
 50
109.9103613376172035
 51
292.6007271312374201
  0
ARC
  5
F37D
  8
0
 10
3757.7939126984620088
 20
195.7200359726730028
 30
0.0
 40
0.0794514684913613
 50
292.6007274898598212
 51
109.9103609790025047
  0
ARC
  5
F37E
  8
0
 10
3757.7926218672359937
 20
195.7130092100487957
 30
0.0
 40
0.0578659611540847
 50
109.4107870905818061
 51
291.5134979885033886
  0
ARC
  5
F37F
  8
0
 10
3757.7926218672359937
 20
195.7130092100487957
 30
0.0
 40
0.0578659611540737
 50
291.5134979885033886
 51
109.4107870905818061
  0
ARC
  5
F380
  8
0
 10
3757.7931570923651634
 20
195.7123795107899014
 30
0.0
 40
0.0423775187858318
 50
111.8323489680612965
 51
291.3802597834437051
  0
ARC
  5
F381
  8
0
 10
3757.7931550030962171
 20
195.7123786833242036
 30
0.0
 40
0.0423775099798751
 50
291.3832979977548803
 51
111.8293107537610069
  0
ARC
  5
F382
  8
0
 10
3757.7946216429500055
 20
195.786399742842292
 30
0.0
 40
0.0471525671899592
 50
236.6765601721295127
 51
301.0513741130827725
  0
ARC
  5
F383
  8
0
 10
3757.9531749871671309
 20
196.0002192719861114
 30
0.0
 40
0.1151810856888376
 50
109.4491189713153005
 51
291.5033721494884276
  0
ARC
  5
F384
  8
0
 10
3757.9531860353231423
 20
196.0002233975025945
 30
0.0
 40
0.1151808748885012
 50
291.4975066177964891
 51
109.4549845030345949
  0
ARC
  5
F385
  8
0
 10
3757.9548813255760251
 20
195.9898526295542922
 30
0.0
 40
0.0794514684796888
 50
109.9103613376172035
 51
292.6007271312374201
  0
ARC
  5
F386
  8
0
 10
3757.9548813251121828
 20
195.9898526293738996
 30
0.0
 40
0.0794514684913613
 50
292.6007274898598212
 51
109.9103609790025047
  0
ARC
  5
F387
  8
0
 10
3757.9535904938848034
 20
195.9828258667498062
 30
0.0
 40
0.0578659611540847
 50
109.4107870905818061
 51
291.5134979885033886
  0
ARC
  5
F388
  8
0
 10
3757.9535904938848034
 20
195.9828258667498062
 30
0.0
 40
0.0578659611540737
 50
291.5134979885033886
 51
109.4107870905818061
  0
ARC
  5
F389
  8
0
 10
3757.9541257190139731
 20
195.9821961674909971
 30
0.0
 40
0.0423775187858318
 50
111.8323489680612965
 51
291.3802597834437051
  0
ARC
  5
F38A
  8
0
 10
3757.9541236297459363
 20
195.9821953400252141
 30
0.0
 40
0.0423775099798751
 50
291.3832979977548803
 51
111.8293107537610069
  0
ARC
  5
F38B
  8
0
 10
3757.9555902696001795
 20
196.0562163995433878
 30
0.0
 40
0.0471525671899592
 50
236.6765601721295127
 51
301.0513741130827725
  0
ARC
  5
F38C
  8
0
 10
3757.897253666045799
 20
196.3070388135176927
 30
0.0
 40
0.1151810856888376
 50
109.4491189713153005
 51
291.5033721494884276
  0
ARC
  5
F38D
  8
0
 10
3757.8972647142018104
 20
196.3070429390340905
 30
0.0
 40
0.1151808748885012
 50
291.4975066177964891
 51
109.4549845030345949
  0
ARC
  5
F38E
  8
0
 10
3757.898960004455148
 20
196.2966721710857882
 30
0.0
 40
0.0794514684796888
 50
109.9103613376172035
 51
292.6007271312374201
  0
ARC
  5
F38F
  8
0
 10
3757.898960003990851
 20
196.2966721709055093
 30
0.0
 40
0.0794514684913613
 50
292.6007274898598212
 51
109.9103609790025047
  0
ARC
  5
F390
  8
0
 10
3757.8976691727648358
 20
196.2896454082813875
 30
0.0
 40
0.0578659611540847
 50
109.4107870905818061
 51
291.5134979885033886
  0
ARC
  5
F391
  8
0
 10
3757.8976691727648358
 20
196.2896454082813875
 30
0.0
 40
0.0578659611540737
 50
291.5134979885033886
 51
109.4107870905818061
  0
ARC
  5
F392
  8
0
 10
3757.8982043978940055
 20
196.2890157090224932
 30
0.0
 40
0.0423775187858318
 50
111.8323489680612965
 51
291.3802597834437051
  0
ARC
  5
F393
  8
0
 10
3757.8982023086259687
 20
196.2890148815567102
 30
0.0
 40
0.0423775099798751
 50
291.3832979977548803
 51
111.8293107537610069
  0
ARC
  5
F394
  8
0
 10
3757.8996689484802118
 20
196.3630359410749122
 30
0.0
 40
0.0471525671899592
 50
236.6765601721295127
 51
301.0513741130827725
  0
ARC
  5
F395
  8
0
 10
3757.6485487010031648
 20
196.5069771751086876
 30
0.0
 40
0.1151810856888376
 50
109.4491189713153005
 51
291.5033721494884276
  0
ARC
  5
F396
  8
0
 10
3757.6485597491600856
 20
196.5069813006251991
 30
0.0
 40
0.1151808748885012
 50
291.4975066177964891
 51
109.4549845030345949
  0
ARC
  5
F397
  8
0
 10
3757.6502550394129685
 20
196.4966105326768115
 30
0.0
 40
0.0794514684796888
 50
109.9103613376172035
 51
292.6007271312374201
  0
ARC
  5
F398
  8
0
 10
3757.6502550389491262
 20
196.4966105324965042
 30
0.0
 40
0.0794514684913613
 50
292.6007274898598212
 51
109.9103609790025047
  0
ARC
  5
F399
  8
0
 10
3757.648964207723111
 20
196.4895837698722971
 30
0.0
 40
0.0578659611540847
 50
109.4107870905818061
 51
291.5134979885033886
  0
ARC
  5
F39A
  8
0
 10
3757.648964207723111
 20
196.4895837698722971
 30
0.0
 40
0.0578659611540737
 50
291.5134979885033886
 51
109.4107870905818061
  0
ARC
  5
F39B
  8
0
 10
3757.6494994328509165
 20
196.4889540706134881
 30
0.0
 40
0.0423775187858318
 50
111.8323489680612965
 51
291.3802597834437051
  0
ARC
  5
F39C
  8
0
 10
3757.6494973435828797
 20
196.4889532431477051
 30
0.0
 40
0.0423775099798751
 50
291.3832979977548803
 51
111.8293107537610069
  0
ARC
  5
F39D
  8
0
 10
3757.6509639834371228
 20
196.5629743026659071
 30
0.0
 40
0.0471525671899592
 50
236.6765601721295127
 51
301.0513741130827725
  0
ARC
  5
F39E
  8
0
 10
3757.4796336174258613
 20
193.216510371135513
 30
0.0
 40
0.2710520953359847
 50
88.2205815815897694
 51
271.779504313015309
  0
ARC
  5
F39F
  8
0
 10
3757.4964781974031212
 20
193.2165103837616869
 30
0.0
 40
0.2710524342569094
 50
268.2182770584593072
 51
91.7818088361229201
  0
ARC
  5
F3A0
  8
0
 10
3757.0268684989000576
 20
193.8356198880373995
 30
0.0
 40
0.2710520953359847
 50
88.2205815815897694
 51
271.779504313015309
  0
ARC
  5
F3A1
  8
0
 10
3757.0437130788768627
 20
193.8356199006636018
 30
0.0
 40
0.2710524342569094
 50
268.2182770584593072
 51
91.7818088361229201
  0
ARC
  5
F3A2
  8
0
 10
3757.9249805237182045
 20
193.8432586525347858
 30
0.0
 40
0.2637577998304257
 50
86.5610364526982039
 51
273.443061303920615
  0
ARC
  5
F3A3
  8
0
 10
3757.9566357335438624
 20
193.8432597845147995
 30
0.0
 40
0.2637573946949874
 50
266.5625003961746984
 51
93.4415973604404542
  0
ARC
  5
F3A4
  8
0
 10
3741.1481449980501566
 20
176.661376344498791
 30
0.0
 40
1.2795275590954709
 50
47.6010703093964906
 51
132.3992925353300905
  0
ARC
  5
F3A5
  8
0
 10
3741.1481449980501566
 20
176.6613763444927088
 30
0.0
 40
0.9881889584999974
 50
72.9759138095260198
 51
107.0244490351506954
  0
ARC
  5
F3A6
  8
0
 10
3741.1481449893231002
 20
176.6606607019552939
 30
0.0
 40
1.2789991698240171
 50
227.5789016579209942
 51
312.4197010118855928
  0
ARC
  5
F3A7
  8
0
 10
3741.1481449980501566
 20
176.6613763444927088
 30
0.0
 40
0.9881889584999832
 50
252.9746321607026118
 51
287.0197320519233131
  0
ARC
  5
F3A8
  8
0
 10
3747.0536570893718817
 20
176.6613756458781097
 30
0.0
 40
1.27952826407262
 50
47.6014592166162132
 51
132.3880207921463068
  0
ARC
  5
F3A9
  8
0
 10
3747.0532730840909608
 20
176.6614937412190898
 30
0.0
 40
0.9881889584999974
 50
72.9514019410485872
 51
107.0485931752159985
  0
ARC
  5
F3AA
  8
0
 10
3747.0536567556341652
 20
176.6606603566474121
 30
0.0
 40
1.2789988244001129
 50
227.5789037172208111
 51
312.4210962538729746
  0
ARC
  5
F3AB
  8
0
 10
3747.0602110515069398
 20
176.6606384336666054
 30
0.0
 40
0.9881889584999832
 50
252.8291309045634989
 51
287.1708690954365011
  0
ARC
  5
F3AC
  8
0
 10
3757.4167134249150877
 20
182.6086642238093987
 30
0.0
 40
15.8718733355438495
 50
89.7424798795032928
 51
95.864279584041924
  0
ARC
  5
F3AD
  8
0
 10
3755.9455135541270465
 20
196.9442789529159938
 30
0.0
 40
1.4609655573095339
 50
95.9114675160023893
 51
110.4068139440229004
  0
ARC
  5
F3AE
  8
0
 10
3755.5920424142691445
 20
197.9702823616318028
 30
0.0
 40
0.3770338515303666
 50
114.4315599840467002
 51
169.176427984927102
  0
ARC
  5
F3AF
  8
0
 10
3764.3366493560611161
 20
196.404899833250397
 30
0.0
 40
9.2606214021129212
 50
169.8234520568686037
 51
181.531263688716308
  0
ARC
  5
F3B0
  8
0
 10
3766.1851602713391003
 20
195.9683999088967141
 30
0.0
 40
11.1074339494917798
 50
179.0248547858548136
 51
187.9651216105139895
  0
ARC
  5
F3B1
  8
0
 10
3755.7419701573680868
 20
194.4517521248733942
 30
0.0
 40
0.55754072260821
 50
182.3140986074324985
 51
253.8724229529142917
  0
ARC
  5
F3B2
  8
0
 10
3754.3202108714722272
 20
189.3587100334586069
 30
0.0
 40
4.7302527051730419
 50
59.6511253761877285
 51
74.465025198007055
  0
ARC
  5
F3B3
  8
0
 10
3757.4880701728320673
 20
193.062719156864091
 30
0.0
 40
0.4483630837981206
 50
231.8845882977545045
 51
269.1156546098833928
  0
ARC
  5
F3B4
  8
0
 10
3757.5835418517290236
 20
193.1676538686789968
 30
0.0
 40
0.5899428048275071
 50
203.4066011016170137
 51
230.8799698474398951
  0
ARC
  5
F3B5
  8
0
 10
3756.1071823877828137
 20
192.6840415351780962
 30
0.0
 40
0.9676184298237666
 50
14.9275127484448493
 51
51.447172700597207
  0
ARC
  5
F3B6
  8
0
 10
3757.5407142019030289
 20
182.6085889439547998
 30
0.0
 40
15.8718756709613693
 50
84.0683057595775836
 51
90.1901107219031957
  0
ARC
  5
F3B7
  8
0
 10
3759.028780680995169
 20
196.9424650486976986
 30
0.0
 40
1.460965557309533
 50
69.525771174373844
 51
84.0211176023864823
  0
ARC
  5
F3B8
  8
0
 10
3759.3834587834621743
 20
197.9680518490415011
 30
0.0
 40
0.3770338515303665
 50
10.7561571334623505
 51
65.5010251343475431
  0
ARC
  5
F3B9
  8
0
 10
3750.6370160478568323
 20
196.4129594082484971
 30
0.0
 40
9.2606214021129194
 50
358.4013214296749084
 51
10.1091330615200103
  0
ARC
  5
F3BA
  8
0
 10
3748.7879928213560561
 20
195.9786347650174889
 30
0.0
 40
11.1074339494917798
 50
351.9674635078732763
 51
0.9077303325347577
  0
ARC
  5
F3BB
  8
0
 10
3759.2293912014351918
 20
194.4497004545241907
 30
0.0
 40
0.5575407226082099
 50
286.0601621654863038
 51
357.6184865109544262
  0
ARC
  5
F3BC
  8
0
 10
3760.6451569719088184
 20
189.3549890303989969
 30
0.0
 40
4.730252705173041
 50
105.4675599203834935
 51
120.2814597422205054
  0
ARC
  5
F3BD
  8
0
 10
3757.4818757990151425
 20
193.0623222059807063
 30
0.0
 40
0.4479133148584406
 50
269.9071681430680201
 51
308.057653573156017
  0
ARC
  5
F3BE
  8
0
 10
3757.386309897206047
 20
193.1677699013999927
 30
0.0
 40
0.5899428048275071
 50
309.0526152709288112
 51
336.5259840167988159
  0
ARC
  5
F3BF
  8
0
 10
3758.8620993154299867
 20
192.6824208013167095
 30
0.0
 40
0.9676184298237664
 50
128.4854124177707888
 51
165.0050723699746982
  0
LINE
  5
F3C0
  8
0
 10
3739.3765895864880804
 20
177.5747581698508952
 30
0.0
 11
3739.3765895864880804
 21
175.7479946085404947
 31
0.0
  0
ARC
  5
F3C1
  8
0
 10
3756.4540585055588053
 20
198.0505426181032078
 30
0.0
 40
0.096708019316174
 50
271.0574587725369042
 51
89.0292481697099731
  0
ARC
  5
F3C2
  8
0
 10
3756.4574652731948845
 20
198.0505451958713081
 30
0.0
 40
0.0967077301822846
 50
91.0477348475310606
 51
269.0389720947187016
  0
ARC
  5
F3C3
  8
0
 10
3756.4599589415761329
 20
198.0471239403659922
 30
0.0
 40
0.0720513145891333
 50
93.8621332737234439
 51
265.971444390318311
  0
ARC
  5
F3C4
  8
0
 10
3756.4501338920799753
 20
198.0471382093824104
 30
0.0
 40
0.0720451848977111
 50
273.7908078791126059
 51
86.0427697848768389
  0
ARC
  5
F3C5
  8
0
 10
3756.4553615920731318
 20
198.0415465976954863
 30
0.0
 40
0.040570406287804
 50
91.2629343022469044
 51
268.6540299568488877
  0
ARC
  5
F3C6
  8
0
 10
3756.4553615756640284
 20
198.0415458993059019
 30
0.0
 40
0.0405697077054341
 50
268.6540299568488877
 51
91.172900617270642
  0
ARC
  5
F3C7
  8
0
 10
3756.4554288920180625
 20
198.036067154672196
 30
0.0
 40
0.0240375271672281
 50
91.4529584926297332
 51
269.3628860803153771
  0
ARC
  5
F3C8
  8
0
 10
3756.4554295078041832
 20
198.0360671590563868
 30
0.0
 40
0.0240375384063102
 50
269.3614185019815181
 51
91.4544260709351704
  0
ARC
  5
F3C9
  8
0
 10
3756.4574011621339196
 20
198.1005184746759085
 30
0.0
 40
0.0472967734258551
 50
250.7403383693300896
 51
285.753558725604023
  0
ARC
  5
F3CA
  8
0
 10
3756.9696340684590723
 20
198.0729026642032125
 30
0.0
 40
0.096708019316174
 50
271.0574587725369042
 51
89.0292481697099731
  0
ARC
  5
F3CB
  8
0
 10
3756.973040836096061
 20
198.0729052419713128
 30
0.0
 40
0.0967077301822846
 50
91.0477348475310606
 51
269.0389720947187016
  0
ARC
  5
F3CC
  8
0
 10
3756.9755345044759451
 20
198.0694839864659968
 30
0.0
 40
0.0720513145891333
 50
93.8621332737234439
 51
265.971444390318311
  0
ARC
  5
F3CD
  8
0
 10
3756.9657094549811518
 20
198.0694982554823866
 30
0.0
 40
0.0720451848977111
 50
273.7908078791126059
 51
86.0427697848768389
  0
ARC
  5
F3CE
  8
0
 10
3756.970937154972944
 20
198.0639066437954909
 30
0.0
 40
0.040570406287804
 50
91.2629343022469044
 51
268.6540299568488877
  0
ARC
  5
F3CF
  8
0
 10
3756.9709371385638406
 20
198.0639059454059066
 30
0.0
 40
0.0405697077054341
 50
268.6540299568488877
 51
91.172900617270642
  0
ARC
  5
F3D0
  8
0
 10
3756.9710044549178747
 20
198.0584272007722006
 30
0.0
 40
0.0240375271672281
 50
91.4529584926297332
 51
269.3628860803153771
  0
ARC
  5
F3D1
  8
0
 10
3756.9710050707039954
 20
198.0584272051563914
 30
0.0
 40
0.0240375384063102
 50
269.3614185019815181
 51
91.4544260709351704
  0
ARC
  5
F3D2
  8
0
 10
3756.9729767250341865
 20
198.1228785207759131
 30
0.0
 40
0.0472967734258551
 50
250.7403383693300896
 51
285.753558725604023
  0
ARC
  5
F3D3
  8
0
 10
3757.4861743202591242
 20
198.0846566236033084
 30
0.0
 40
0.096708019316174
 50
271.0574587725369042
 51
89.0292481697099731
  0
ARC
  5
F3D4
  8
0
 10
3757.4895810878952034
 20
198.084659201371295
 30
0.0
 40
0.0967077301822846
 50
91.0477348475310606
 51
269.0389720947187016
  0
ARC
  5
F3D5
  8
0
 10
3757.4920747562769066
 20
198.0812379458660075
 30
0.0
 40
0.0720513145891333
 50
93.8621332737234439
 51
265.971444390318311
  0
ARC
  5
F3D6
  8
0
 10
3757.4822497067798395
 20
198.0812522148823973
 30
0.0
 40
0.0720451848977111
 50
273.7908078791126059
 51
86.0427697848768389
  0
ARC
  5
F3D7
  8
0
 10
3757.4874774067729959
 20
198.0756606031955016
 30
0.0
 40
0.040570406287804
 50
91.2629343022469044
 51
268.6540299568488877
  0
ARC
  5
F3D8
  8
0
 10
3757.4874773903638925
 20
198.0756599048058888
 30
0.0
 40
0.0405697077054341
 50
268.6540299568488877
 51
91.172900617270642
  0
ARC
  5
F3D9
  8
0
 10
3757.4875447067179266
 20
198.0701811601722113
 30
0.0
 40
0.0240375271672281
 50
91.4529584926297332
 51
269.3628860803153771
  0
ARC
  5
F3DA
  8
0
 10
3757.4875453225040474
 20
198.0701811645564021
 30
0.0
 40
0.0240375384063102
 50
269.3614185019815181
 51
91.4544260709351704
  0
ARC
  5
F3DB
  8
0
 10
3757.4895169768337837
 20
198.1346324801758954
 30
0.0
 40
0.0472967734258551
 50
250.7403383693300896
 51
285.753558725604023
  0
ARC
  5
F3DC
  8
0
 10
3757.4859550167589077
 20
197.3652967915033116
 30
0.0
 40
0.096708019316174
 50
271.0574587725369042
 51
89.0292481697099731
  0
ARC
  5
F3DD
  8
0
 10
3757.4893617843949869
 20
197.3652993692712982
 30
0.0
 40
0.0967077301822846
 50
91.0477348475310606
 51
269.0389720947187016
  0
ARC
  5
F3DE
  8
0
 10
3757.4918554527757806
 20
197.3618781137660108
 30
0.0
 40
0.0720513145891333
 50
93.8621332737234439
 51
265.971444390318311
  0
ARC
  5
F3DF
  8
0
 10
3757.4820304032809872
 20
197.3618923827824005
 30
0.0
 40
0.0720451848977111
 50
273.7908078791126059
 51
86.0427697848768389
  0
ARC
  5
F3E0
  8
0
 10
3757.4872581032727794
 20
197.3563007710955048
 30
0.0
 40
0.040570406287804
 50
91.2629343022469044
 51
268.6540299568488877
  0
ARC
  5
F3E1
  8
0
 10
3757.4872580868641307
 20
197.356300072705892
 30
0.0
 40
0.0405697077054341
 50
268.6540299568488877
 51
91.172900617270642
  0
ARC
  5
F3E2
  8
0
 10
3757.4873254032181649
 20
197.3508213280721861
 30
0.0
 40
0.0240375271672281
 50
91.4529584926297332
 51
269.3628860803153771
  0
ARC
  5
F3E3
  8
0
 10
3757.4873260190038309
 20
197.3508213324564053
 30
0.0
 40
0.0240375384063102
 50
269.3614185019815181
 51
91.4544260709351704
  0
ARC
  5
F3E4
  8
0
 10
3757.489297673334022
 20
197.4152726480758986
 30
0.0
 40
0.0472967734258551
 50
250.7403383693300896
 51
285.753558725604023
  0
ARC
  5
F3E5
  8
0
 10
3757.2325113337042239
 20
197.7060289448915
 30
0.0
 40
0.096708019316174
 50
271.0574587725369042
 51
89.0292481697099731
  0
ARC
  5
F3E6
  8
0
 10
3757.2359181013398484
 20
197.7060315226596003
 30
0.0
 40
0.0967077301822846
 50
91.0477348475310606
 51
269.0389720947187016
  0
ARC
  5
F3E7
  8
0
 10
3757.2384117697210968
 20
197.7026102671543129
 30
0.0
 40
0.0720513145891333
 50
93.8621332737234439
 51
265.971444390318311
  0
ARC
  5
F3E8
  8
0
 10
3757.2285867202249392
 20
197.7026245361707026
 30
0.0
 40
0.0720451848977111
 50
273.7908078791126059
 51
86.0427697848768389
  0
ARC
  5
F3E9
  8
0
 10
3757.2338144202180956
 20
197.6970329244838069
 30
0.0
 40
0.040570406287804
 50
91.2629343022469044
 51
268.6540299568488877
  0
ARC
  5
F3EA
  8
0
 10
3757.2338144038089922
 20
197.6970322260941941
 30
0.0
 40
0.0405697077054341
 50
268.6540299568488877
 51
91.172900617270642
  0
ARC
  5
F3EB
  8
0
 10
3757.2338817201630263
 20
197.691553481460403
 30
0.0
 40
0.0240375271672281
 50
91.4529584926297332
 51
269.3628860803153771
  0
ARC
  5
F3EC
  8
0
 10
3757.2338823359491471
 20
197.6915534858447074
 30
0.0
 40
0.0240375384063102
 50
269.3614185019815181
 51
91.4544260709351704
  0
ARC
  5
F3ED
  8
0
 10
3757.2358539902788834
 20
197.7560048014642007
 30
0.0
 40
0.0472967734258551
 50
250.7403383693300896
 51
285.753558725604023
  0
ARC
  5
F3EE
  8
0
 10
3756.7632732612951258
 20
197.6683860577093128
 30
0.0
 40
0.096708019316174
 50
271.0574587725369042
 51
89.0292481697099731
  0
ARC
  5
F3EF
  8
0
 10
3756.766680028931205
 20
197.6683886354772994
 30
0.0
 40
0.0967077301822846
 50
91.0477348475310606
 51
269.0389720947187016
  0
ARC
  5
F3F0
  8
0
 10
3756.7691736973129082
 20
197.6649673799720972
 30
0.0
 40
0.0720513145891333
 50
93.8621332737234439
 51
265.971444390318311
  0
ARC
  5
F3F1
  8
0
 10
3756.7593486478172053
 20
197.664981648988487
 30
0.0
 40
0.0720451848977111
 50
273.7908078791126059
 51
86.0427697848768389
  0
ARC
  5
F3F2
  8
0
 10
3756.7645763478089975
 20
197.6593900373015913
 30
0.0
 40
0.040570406287804
 50
91.2629343022469044
 51
268.6540299568488877
  0
ARC
  5
F3F3
  8
0
 10
3756.7645763313998941
 20
197.6593893389120069
 30
0.0
 40
0.0405697077054341
 50
268.6540299568488877
 51
91.172900617270642
  0
ARC
  5
F3F4
  8
0
 10
3756.7646436477539282
 20
197.653910594278301
 30
0.0
 40
0.0240375271672281
 50
91.4529584926297332
 51
269.3628860803153771
  0
ARC
  5
F3F5
  8
0
 10
3756.764644263540049
 20
197.6539105986624065
 30
0.0
 40
0.0240375384063102
 50
269.3614185019815181
 51
91.4544260709351704
  0
ARC
  5
F3F6
  8
0
 10
3756.7666159178711496
 20
197.7183619142818998
 30
0.0
 40
0.0472967734258551
 50
250.7403383693300896
 51
285.753558725604023
  0
ARC
  5
F3F7
  8
0
 10
3757.0579245945050388
 20
197.3276279544566023
 30
0.0
 40
0.096708019316174
 50
271.0574587725369042
 51
89.0292481697099731
  0
ARC
  5
F3F8
  8
0
 10
3757.061331362141118
 20
197.3276305322247026
 30
0.0
 40
0.0967077301822846
 50
91.0477348475310606
 51
269.0389720947187016
  0
ARC
  5
F3F9
  8
0
 10
3757.0638250305228212
 20
197.3242092767193867
 30
0.0
 40
0.0720513145891333
 50
93.8621332737234439
 51
265.971444390318311
  0
ARC
  5
F3FA
  8
0
 10
3757.0539999810262088
 20
197.3242235457358049
 30
0.0
 40
0.0720451848977111
 50
273.7908078791126059
 51
86.0427697848768389
  0
ARC
  5
F3FB
  8
0
 10
3757.0592276810189105
 20
197.3186319340489092
 30
0.0
 40
0.040570406287804
 50
91.2629343022469044
 51
268.6540299568488877
  0
ARC
  5
F3FC
  8
0
 10
3757.0592276646088976
 20
197.3186312356592964
 30
0.0
 40
0.0405697077054341
 50
268.6540299568488877
 51
91.172900617270642
  0
ARC
  5
F3FD
  8
0
 10
3757.0592949809638412
 20
197.3131524910255905
 30
0.0
 40
0.0240375271672281
 50
91.4529584926297332
 51
269.3628860803153771
  0
ARC
  5
F3FE
  8
0
 10
3757.059295596749962
 20
197.3131524954098097
 30
0.0
 40
0.0240375384063102
 50
269.3614185019815181
 51
91.4544260709351704
  0
ARC
  5
F3FF
  8
0
 10
3757.0612672510801531
 20
197.377603811029303
 30
0.0
 40
0.0472967734258551
 50
250.7403383693300896
 51
285.753558725604023
  0
ARC
  5
F400
  8
0
 10
3756.3027218341699154
 20
197.5796248851468135
 30
0.0
 40
0.096708019316174
 50
271.0574587725369042
 51
89.0292481697099731
  0
ARC
  5
F401
  8
0
 10
3756.3061286018059945
 20
197.5796274629149138
 30
0.0
 40
0.0967077301822846
 50
91.0477348475310606
 51
269.0389720947187016
  0
ARC
  5
F402
  8
0
 10
3756.3086222701881525
 20
197.5762062074095979
 30
0.0
 40
0.0720513145891333
 50
93.8621332737234439
 51
265.971444390318311
  0
ARC
  5
F403
  8
0
 10
3756.2987972206919949
 20
197.5762204764259877
 30
0.0
 40
0.0720451848977111
 50
273.7908078791126059
 51
86.0427697848768389
  0
ARC
  5
F404
  8
0
 10
3756.3040249206837871
 20
197.570628864739092
 30
0.0
 40
0.040570406287804
 50
91.2629343022469044
 51
268.6540299568488877
  0
ARC
  5
F405
  8
0
 10
3756.3040249042751384
 20
197.5706281663495076
 30
0.0
 40
0.0405697077054341
 50
268.6540299568488877
 51
91.172900617270642
  0
ARC
  5
F406
  8
0
 10
3756.3040922206291725
 20
197.5651494217158017
 30
0.0
 40
0.0240375271672281
 50
91.4529584926297332
 51
269.3628860803153771
  0
ARC
  5
F407
  8
0
 10
3756.3040928364148385
 20
197.5651494260999925
 30
0.0
 40
0.0240375384063102
 50
269.3614185019815181
 51
91.4544260709351704
  0
ARC
  5
F408
  8
0
 10
3756.3060644907459391
 20
197.6296007417195142
 30
0.0
 40
0.0472967734258551
 50
250.7403383693300896
 51
285.753558725604023
  0
ARC
  5
F409
  8
0
 10
3755.5805261819591578
 20
197.6259105647031902
 30
0.0
 40
0.096708019316174
 50
271.0574587725369042
 51
89.0292481697099731
  0
ARC
  5
F40A
  8
0
 10
3755.5839329495947823
 20
197.6259131424712905
 30
0.0
 40
0.0967077301822846
 50
91.0477348475310606
 51
269.0389720947187016
  0
ARC
  5
F40B
  8
0
 10
3755.5864266179769402
 20
197.622491886966003
 30
0.0
 40
0.0720513145891333
 50
93.8621332737234439
 51
265.971444390318311
  0
ARC
  5
F40C
  8
0
 10
3755.5766015684798731
 20
197.6225061559823928
 30
0.0
 40
0.0720451848977111
 50
273.7908078791126059
 51
86.0427697848768389
  0
ARC
  5
F40D
  8
0
 10
3755.5818292684730295
 20
197.6169145442954971
 30
0.0
 40
0.040570406287804
 50
91.2629343022469044
 51
268.6540299568488877
  0
ARC
  5
F40E
  8
0
 10
3755.5818292520639261
 20
197.6169138459059127
 30
0.0
 40
0.0405697077054341
 50
268.6540299568488877
 51
91.172900617270642
  0
ARC
  5
F40F
  8
0
 10
3755.5818965684179602
 20
197.6114351012722068
 30
0.0
 40
0.0240375271672281
 50
91.4529584926297332
 51
269.3628860803153771
  0
ARC
  5
F410
  8
0
 10
3755.581897184204081
 20
197.6114351056563976
 30
0.0
 40
0.0240375384063102
 50
269.3614185019815181
 51
91.4544260709351704
  0
ARC
  5
F411
  8
0
 10
3755.5838688385338173
 20
197.6758864212758908
 30
0.0
 40
0.0472967734258551
 50
250.7403383693300896
 51
285.753558725604023
  0
ARC
  5
F412
  8
0
 10
3755.4994011081589633
 20
197.1291006063032114
 30
0.0
 40
0.096708019316174
 50
271.0574587725369042
 51
89.0292481697099731
  0
ARC
  5
F413
  8
0
 10
3755.5028078757950425
 20
197.1291031840713117
 30
0.0
 40
0.0967077301822846
 50
91.0477348475310606
 51
269.0389720947187016
  0
ARC
  5
F414
  8
0
 10
3755.5053015441772004
 20
197.1256819285659958
 30
0.0
 40
0.0720513145891333
 50
93.8621332737234439
 51
265.971444390318311
  0
ARC
  5
F415
  8
0
 10
3755.4954764946801333
 20
197.125696197582414
 30
0.0
 40
0.0720451848977111
 50
273.7908078791126059
 51
86.0427697848768389
  0
ARC
  5
F416
  8
0
 10
3755.500704194672835
 20
197.1201045858954899
 30
0.0
 40
0.040570406287804
 50
91.2629343022469044
 51
268.6540299568488877
  0
ARC
  5
F417
  8
0
 10
3755.5007041782628221
 20
197.1201038875059055
 30
0.0
 40
0.0405697077054341
 50
268.6540299568488877
 51
91.172900617270642
  0
ARC
  5
F418
  8
0
 10
3755.5007714946182205
 20
197.1146251428721996
 30
0.0
 40
0.0240375271672281
 50
91.4529584926297332
 51
269.3628860803153771
  0
ARC
  5
F419
  8
0
 10
3755.5007721104038865
 20
197.1146251472563904
 30
0.0
 40
0.0240375384063102
 50
269.3614185019815181
 51
91.4544260709351704
  0
ARC
  5
F41A
  8
0
 10
3755.5027437647340776
 20
197.1790764628759121
 30
0.0
 40
0.0472967734258551
 50
250.7403383693300896
 51
285.753558725604023
  0
ARC
  5
F41B
  8
0
 10
3755.9628511664682264
 20
197.2587956289142141
 30
0.0
 40
0.096708019316174
 50
271.0574587725369042
 51
89.0292481697099731
  0
ARC
  5
F41C
  8
0
 10
3755.9662579341038509
 20
197.258798206682286
 30
0.0
 40
0.0967077301822846
 50
91.0477348475310606
 51
269.0389720947187016
  0
ARC
  5
F41D
  8
0
 10
3755.9687516024850993
 20
197.2553769511769985
 30
0.0
 40
0.0720513145891333
 50
93.8621332737234439
 51
265.971444390318311
  0
ARC
  5
F41E
  8
0
 10
3755.9589265529889417
 20
197.2553912201933883
 30
0.0
 40
0.0720451848977111
 50
273.7908078791126059
 51
86.0427697848768389
  0
ARC
  5
F41F
  8
0
 10
3755.9641542529820981
 20
197.2497996085064926
 30
0.0
 40
0.040570406287804
 50
91.2629343022469044
 51
268.6540299568488877
  0
ARC
  5
F420
  8
0
 10
3755.9641542365720852
 20
197.2497989101169082
 30
0.0
 40
0.0405697077054341
 50
268.6540299568488877
 51
91.172900617270642
  0
ARC
  5
F421
  8
0
 10
3755.9642215529270288
 20
197.2443201654832023
 30
0.0
 40
0.0240375271672281
 50
91.4529584926297332
 51
269.3628860803153771
  0
ARC
  5
F422
  8
0
 10
3755.9642221687131496
 20
197.2443201698673931
 30
0.0
 40
0.0240375384063102
 50
269.3614185019815181
 51
91.4544260709351704
  0
ARC
  5
F423
  8
0
 10
3755.9661938230428859
 20
197.3087714854868864
 30
0.0
 40
0.0472967734258551
 50
250.7403383693300896
 51
285.753558725604023
  0
ARC
  5
F424
  8
0
 10
3756.3472967027278173
 20
196.9038350448284973
 30
0.0
 40
0.096708019316174
 50
271.0574587725369042
 51
89.0292481697099731
  0
ARC
  5
F425
  8
0
 10
3756.350703470364806
 20
196.9038376225965976
 30
0.0
 40
0.0967077301822846
 50
91.0477348475310606
 51
269.0389720947187016
  0
ARC
  5
F426
  8
0
 10
3756.3531971387460544
 20
196.9004163670913101
 30
0.0
 40
0.0720513145891333
 50
93.8621332737234439
 51
265.971444390318311
  0
ARC
  5
F427
  8
0
 10
3756.3433720892498968
 20
196.9004306361076999
 30
0.0
 40
0.0720451848977111
 50
273.7908078791126059
 51
86.0427697848768389
  0
ARC
  5
F428
  8
0
 10
3756.3485997892421437
 20
196.8948390244208895
 30
0.0
 40
0.040570406287804
 50
91.2629343022469044
 51
268.6540299568488877
  0
ARC
  5
F429
  8
0
 10
3756.3485997728330403
 20
196.8948383260313051
 30
0.0
 40
0.0405697077054341
 50
268.6540299568488877
 51
91.172900617270642
  0
ARC
  5
F42A
  8
0
 10
3756.3486670891870745
 20
196.8893595813975139
 30
0.0
 40
0.0240375271672281
 50
91.4529584926297332
 51
269.3628860803153771
  0
ARC
  5
F42B
  8
0
 10
3756.3486677049731952
 20
196.8893595857817047
 30
0.0
 40
0.0240375384063102
 50
269.3614185019815181
 51
91.4544260709351704
  0
ARC
  5
F42C
  8
0
 10
3756.350639359303841
 20
196.953810901401198
 30
0.0
 40
0.0472967734258551
 50
250.7403383693300896
 51
285.753558725604023
  0
ARC
  5
F42D
  8
0
 10
3756.6504836557951421
 20
197.1971823825415981
 30
0.0
 40
0.096708019316174
 50
271.0574587725369042
 51
89.0292481697099731
  0
ARC
  5
F42E
  8
0
 10
3756.6538904234321308
 20
197.1971849603096132
 30
0.0
 40
0.0967077301822846
 50
91.0477348475310606
 51
269.0389720947187016
  0
ARC
  5
F42F
  8
0
 10
3756.6563840918138339
 20
197.193763704804411
 30
0.0
 40
0.0720513145891333
 50
93.8621332737234439
 51
265.971444390318311
  0
ARC
  5
F430
  8
0
 10
3756.6465590423172216
 20
197.1937779738208008
 30
0.0
 40
0.0720451848977111
 50
273.7908078791126059
 51
86.0427697848768389
  0
ARC
  5
F431
  8
0
 10
3756.6517867423099233
 20
197.188186362133905
 30
0.0
 40
0.040570406287804
 50
91.2629343022469044
 51
268.6540299568488877
  0
ARC
  5
F432
  8
0
 10
3756.6517867258999104
 20
197.1881856637442922
 30
0.0
 40
0.0405697077054341
 50
268.6540299568488877
 51
91.172900617270642
  0
ARC
  5
F433
  8
0
 10
3756.651854042254854
 20
197.1827069191105011
 30
0.0
 40
0.0240375271672281
 50
91.4529584926297332
 51
269.3628860803153771
  0
ARC
  5
F434
  8
0
 10
3756.6518546580409748
 20
197.1827069234946919
 30
0.0
 40
0.0240375384063102
 50
269.3614185019815181
 51
91.4544260709351704
  0
ARC
  5
F435
  8
0
 10
3756.6538263123711658
 20
197.2471582391142135
 30
0.0
 40
0.0472967734258551
 50
250.7403383693300896
 51
285.753558725604023
  0
ARC
  5
F436
  8
0
 10
3755.8741886384859754
 20
196.8094248125283912
 30
0.0
 40
0.096708019316174
 50
271.0574587725369042
 51
89.0292481697099731
  0
ARC
  5
F437
  8
0
 10
3755.8775954061220546
 20
196.8094273902964062
 30
0.0
 40
0.0967077301822846
 50
91.0477348475310606
 51
269.0389720947187016
  0
ARC
  5
F438
  8
0
 10
3755.8800890745042125
 20
196.8060061347910903
 30
0.0
 40
0.0720513145891333
 50
93.8621332737234439
 51
265.971444390318311
  0
ARC
  5
F439
  8
0
 10
3755.8702640250080549
 20
196.8060204038075085
 30
0.0
 40
0.0720451848977111
 50
273.7908078791126059
 51
86.0427697848768389
  0
ARC
  5
F43A
  8
0
 10
3755.8754917249998471
 20
196.8004287921206981
 30
0.0
 40
0.040570406287804
 50
91.2629343022469044
 51
268.6540299568488877
  0
ARC
  5
F43B
  8
0
 10
3755.8754917085911984
 20
196.800428093731
 30
0.0
 40
0.0405697077054341
 50
268.6540299568488877
 51
91.172900617270642
  0
ARC
  5
F43C
  8
0
 10
3755.8755590249447778
 20
196.7949493490972941
 30
0.0
 40
0.0240375271672281
 50
91.4529584926297332
 51
269.3628860803153771
  0
ARC
  5
F43D
  8
0
 10
3755.8755596407308985
 20
196.7949493534815133
 30
0.0
 40
0.0240375384063102
 50
269.3614185019815181
 51
91.4544260709351704
  0
ARC
  5
F43E
  8
0
 10
3755.8775312950610896
 20
196.8594006691010065
 30
0.0
 40
0.0472967734258551
 50
250.7403383693300896
 51
285.753558725604023
  0
ARC
  5
F43F
  8
0
 10
3755.4730386841579275
 20
196.6282164119033098
 30
0.0
 40
0.096708019316174
 50
271.0574587725369042
 51
89.0292481697099731
  0
ARC
  5
F440
  8
0
 10
3755.4764454517949162
 20
196.6282189896712964
 30
0.0
 40
0.0967077301822846
 50
91.0477348475310606
 51
269.0389720947187016
  0
ARC
  5
F441
  8
0
 10
3755.4789391201770741
 20
196.6247977341660089
 30
0.0
 40
0.0720513145891333
 50
93.8621332737234439
 51
265.971444390318311
  0
ARC
  5
F442
  8
0
 10
3755.469114070680007
 20
196.6248120031823987
 30
0.0
 40
0.0720451848977111
 50
273.7908078791126059
 51
86.0427697848768389
  0
ARC
  5
F443
  8
0
 10
3755.4743417706731634
 20
196.619220391495503
 30
0.0
 40
0.040570406287804
 50
91.2629343022469044
 51
268.6540299568488877
  0
ARC
  5
F444
  8
0
 10
3755.4743417542631505
 20
196.6192196931058902
 30
0.0
 40
0.0405697077054341
 50
268.6540299568488877
 51
91.172900617270642
  0
ARC
  5
F445
  8
0
 10
3755.4744090706180941
 20
196.6137409484722127
 30
0.0
 40
0.0240375271672281
 50
91.4529584926297332
 51
269.3628860803153771
  0
ARC
  5
F446
  8
0
 10
3755.4744096864042149
 20
196.6137409528564035
 30
0.0
 40
0.0240375384063102
 50
269.3614185019815181
 51
91.4544260709351704
  0
ARC
  5
F447
  8
0
 10
3755.4763813407339512
 20
196.6781922684758968
 30
0.0
 40
0.0472967734258551
 50
250.7403383693300896
 51
285.753558725604023
  0
ARC
  5
F448
  8
0
 10
3755.8340175439980158
 20
196.3539030382382009
 30
0.0
 40
0.096708019316174
 50
271.0574587725369042
 51
89.0292481697099731
  0
ARC
  5
F449
  8
0
 10
3755.8374243116350044
 20
196.3539056160061875
 30
0.0
 40
0.0967077301822846
 50
91.0477348475310606
 51
269.0389720947187016
  0
ARC
  5
F44A
  8
0
 10
3755.8399179800157981
 20
196.3504843605009
 30
0.0
 40
0.0720513145891333
 50
93.8621332737234439
 51
265.971444390318311
  0
ARC
  5
F44B
  8
0
 10
3755.8300929305200953
 20
196.3504986295172898
 30
0.0
 40
0.0720451848977111
 50
273.7908078791126059
 51
86.0427697848768389
  0
ARC
  5
F44C
  8
0
 10
3755.8353206305118874
 20
196.3449070178303941
 30
0.0
 40
0.040570406287804
 50
91.2629343022469044
 51
268.6540299568488877
  0
ARC
  5
F44D
  8
0
 10
3755.835320614102784
 20
196.3449063194408097
 30
0.0
 40
0.0405697077054341
 50
268.6540299568488877
 51
91.172900617270642
  0
ARC
  5
F44E
  8
0
 10
3755.8353879304581824
 20
196.3394275748071038
 30
0.0
 40
0.0240375271672281
 50
91.4529584926297332
 51
269.3628860803153771
  0
ARC
  5
F44F
  8
0
 10
3755.8353885462438484
 20
196.3394275791912946
 30
0.0
 40
0.0240375384063102
 50
269.3614185019815181
 51
91.4544260709351704
  0
ARC
  5
F450
  8
0
 10
3755.8373602005740395
 20
196.4038788948107879
 30
0.0
 40
0.0472967734258551
 50
250.7403383693300896
 51
285.753558725604023
  0
ARC
  5
F451
  8
0
 10
3756.2115412591360837
 20
196.5089527203305124
 30
0.0
 40
0.096708019316174
 50
271.0574587725369042
 51
89.0292481697099731
  0
ARC
  5
F452
  8
0
 10
3756.2149480267730723
 20
196.508955298098499
 30
0.0
 40
0.0967077301822846
 50
91.0477348475310606
 51
269.0389720947187016
  0
ARC
  5
F453
  8
0
 10
3756.2174416951547755
 20
196.5055340425932116
 30
0.0
 40
0.0720513145891333
 50
93.8621332737234439
 51
265.971444390318311
  0
ARC
  5
F454
  8
0
 10
3756.2076166456581632
 20
196.5055483116096866
 30
0.0
 40
0.0720451848977111
 50
273.7908078791126059
 51
86.0427697848768389
  0
ARC
  5
F455
  8
0
 10
3756.2128443456508649
 20
196.4999566999227909
 30
0.0
 40
0.040570406287804
 50
91.2629343022469044
 51
268.6540299568488877
  0
ARC
  5
F456
  8
0
 10
3756.2128443292408519
 20
196.4999560015332065
 30
0.0
 40
0.0405697077054341
 50
268.6540299568488877
 51
91.172900617270642
  0
ARC
  5
F457
  8
0
 10
3756.2129116455957956
 20
196.4944772568993869
 30
0.0
 40
0.0240375271672281
 50
91.4529584926297332
 51
269.3628860803153771
  0
ARC
  5
F458
  8
0
 10
3756.2129122613819163
 20
196.4944772612836914
 30
0.0
 40
0.0240375384063102
 50
269.3614185019815181
 51
91.4544260709351704
  0
ARC
  5
F459
  8
0
 10
3756.2148839157121074
 20
196.5589285769030994
 30
0.0
 40
0.0472967734258551
 50
250.7403383693300896
 51
285.753558725604023
  0
ARC
  5
F45A
  8
0
 10
3756.1718375865630151
 20
196.0947061131030011
 30
0.0
 40
0.096708019316174
 50
271.0574587725369042
 51
89.0292481697099731
  0
ARC
  5
F45B
  8
0
 10
3756.1752443542000037
 20
196.0947086908709878
 30
0.0
 40
0.0967077301822846
 50
91.0477348475310606
 51
269.0389720947187016
  0
ARC
  5
F45C
  8
0
 10
3756.1777380225807974
 20
196.0912874353657003
 30
0.0
 40
0.0720513145891333
 50
93.8621332737234439
 51
265.971444390318311
  0
ARC
  5
F45D
  8
0
 10
3756.1679129730850946
 20
196.0913017043822038
 30
0.0
 40
0.0720451848977111
 50
273.7908078791126059
 51
86.0427697848768389
  0
ARC
  5
F45E
  8
0
 10
3756.1731406730768867
 20
196.085710092695308
 30
0.0
 40
0.040570406287804
 50
91.2629343022469044
 51
268.6540299568488877
  0
ARC
  5
F45F
  8
0
 10
3756.1731406566677833
 20
196.0857093943056952
 30
0.0
 40
0.0405697077054341
 50
268.6540299568488877
 51
91.172900617270642
  0
ARC
  5
F460
  8
0
 10
3756.1732079730231817
 20
196.0802306496719893
 30
0.0
 40
0.0240375271672281
 50
91.4529584926297332
 51
269.3628860803153771
  0
ARC
  5
F461
  8
0
 10
3756.1732085888079382
 20
196.0802306540560949
 30
0.0
 40
0.0240375384063102
 50
269.3614185019815181
 51
91.4544260709351704
  0
ARC
  5
F462
  8
0
 10
3756.1751802431390388
 20
196.1446819696755881
 30
0.0
 40
0.0472967734258551
 50
250.7403383693300896
 51
285.753558725604023
  0
ARC
  5
F463
  8
0
 10
3755.4603700778720849
 20
196.1289629830129115
 30
0.0
 40
0.096708019316174
 50
271.0574587725369042
 51
89.0292481697099731
  0
ARC
  5
F464
  8
0
 10
3755.4637768455090736
 20
196.1289655607810118
 30
0.0
 40
0.0967077301822846
 50
91.0477348475310606
 51
269.0389720947187016
  0
ARC
  5
F465
  8
0
 10
3755.4662705138907768
 20
196.1255443052756959
 30
0.0
 40
0.0720513145891333
 50
93.8621332737234439
 51
265.971444390318311
  0
ARC
  5
F466
  8
0
 10
3755.4564454643941644
 20
196.1255585742921141
 30
0.0
 40
0.0720451848977111
 50
273.7908078791126059
 51
86.0427697848768389
  0
ARC
  5
F467
  8
0
 10
3755.4616731643859566
 20
196.11996696260519
 30
0.0
 40
0.040570406287804
 50
91.2629343022469044
 51
268.6540299568488877
  0
ARC
  5
F468
  8
0
 10
3755.4616731479768532
 20
196.1199662642156056
 30
0.0
 40
0.0405697077054341
 50
268.6540299568488877
 51
91.172900617270642
  0
ARC
  5
F469
  8
0
 10
3755.4617404643308873
 20
196.1144875195818997
 30
0.0
 40
0.0240375271672281
 50
91.4529584926297332
 51
269.3628860803153771
  0
ARC
  5
F46A
  8
0
 10
3755.4617410801170081
 20
196.1144875239660905
 30
0.0
 40
0.0240375384063102
 50
269.3614185019815181
 51
91.4544260709351704
  0
ARC
  5
F46B
  8
0
 10
3755.4637127344471992
 20
196.1789388395856122
 30
0.0
 40
0.0472967734258551
 50
250.7403383693300896
 51
285.753558725604023
  0
ARC
  5
F46C
  8
0
 10
3755.8318589386590247
 20
195.8640046809032071
 30
0.0
 40
0.096708019316174
 50
271.0574587725369042
 51
89.0292481697099731
  0
ARC
  5
F46D
  8
0
 10
3755.8352657062951039
 20
195.8640072586713075
 30
0.0
 40
0.0967077301822846
 50
91.0477348475310606
 51
269.0389720947187016
  0
ARC
  5
F46E
  8
0
 10
3755.8377593746768071
 20
195.8605860031659915
 30
0.0
 40
0.0720513145891333
 50
93.8621332737234439
 51
265.971444390318311
  0
ARC
  5
F46F
  8
0
 10
3755.8279343251811042
 20
195.8606002721824098
 30
0.0
 40
0.0720451848977111
 50
273.7908078791126059
 51
86.0427697848768389
  0
ARC
  5
F470
  8
0
 10
3755.8331620251728964
 20
195.8550086604955141
 30
0.0
 40
0.040570406287804
 50
91.2629343022469044
 51
268.6540299568488877
  0
ARC
  5
F471
  8
0
 10
3755.833162008763793
 20
195.8550079621059012
 30
0.0
 40
0.0405697077054341
 50
268.6540299568488877
 51
91.172900617270642
  0
ARC
  5
F472
  8
0
 10
3755.8332293251178271
 20
195.8495292174721953
 30
0.0
 40
0.0240375271672281
 50
91.4529584926297332
 51
269.3628860803153771
  0
ARC
  5
F473
  8
0
 10
3755.8332299409039479
 20
195.8495292218563861
 30
0.0
 40
0.0240375384063102
 50
269.3614185019815181
 51
91.4544260709351704
  0
ARC
  5
F474
  8
0
 10
3755.8352015952341389
 20
195.9139805374759078
 30
0.0
 40
0.0472967734258551
 50
250.7403383693300896
 51
285.753558725604023
  0
ARC
  5
F475
  8
0
 10
3756.2099144519588663
 20
195.6807183106031971
 30
0.0
 40
0.096708019316174
 50
271.0574587725369042
 51
89.0292481697099731
  0
ARC
  5
F476
  8
0
 10
3756.2133212195958549
 20
195.6807208883712974
 30
0.0
 40
0.0967077301822846
 50
91.0477348475310606
 51
269.0389720947187016
  0
ARC
  5
F477
  8
0
 10
3756.2158148879761939
 20
195.6772996328660099
 30
0.0
 40
0.0720513145891333
 50
93.8621332737234439
 51
265.971444390318311
  0
ARC
  5
F478
  8
0
 10
3756.2059898384800363
 20
195.6773139018823997
 30
0.0
 40
0.0720451848977111
 50
273.7908078791126059
 51
86.0427697848768389
  0
ARC
  5
F479
  8
0
 10
3756.2112175384731927
 20
195.671722290195504
 30
0.0
 40
0.040570406287804
 50
91.2629343022469044
 51
268.6540299568488877
  0
ARC
  5
F47A
  8
0
 10
3756.2112175220631798
 20
195.6717215918058912
 30
0.0
 40
0.0405697077054341
 50
268.6540299568488877
 51
91.172900617270642
  0
ARC
  5
F47B
  8
0
 10
3756.2112848384181234
 20
195.6662428471722137
 30
0.0
 40
0.0240375271672281
 50
91.4529584926297332
 51
269.3628860803153771
  0
ARC
  5
F47C
  8
0
 10
3756.2112854542037894
 20
195.6662428515564045
 30
0.0
 40
0.0240375384063102
 50
269.3614185019815181
 51
91.4544260709351704
  0
ARC
  5
F47D
  8
0
 10
3756.2132571085339805
 20
195.7306941671758977
 30
0.0
 40
0.0472967734258551
 50
250.7403383693300896
 51
285.753558725604023
  0
ARC
  5
F47E
  8
0
 10
3755.8713646134829105
 20
195.410826480675297
 30
0.0
 40
0.096708019316174
 50
271.0574587725369042
 51
89.0292481697099731
  0
ARC
  5
F47F
  8
0
 10
3755.8747713811189897
 20
195.4108290584433973
 30
0.0
 40
0.0967077301822846
 50
91.0477348475310606
 51
269.0389720947187016
  0
ARC
  5
F480
  8
0
 10
3755.8772650494997833
 20
195.4074078029379962
 30
0.0
 40
0.0720513145891333
 50
93.8621332737234439
 51
265.971444390318311
  0
ARC
  5
F481
  8
0
 10
3755.86744000000499
 20
195.4074220719544996
 30
0.0
 40
0.0720451848977111
 50
273.7908078791126059
 51
86.0427697848768389
  0
ARC
  5
F482
  8
0
 10
3755.8726676999967822
 20
195.4018304602676039
 30
0.0
 40
0.040570406287804
 50
91.2629343022469044
 51
268.6540299568488877
  0
ARC
  5
F483
  8
0
 10
3755.8726676835881335
 20
195.4018297618779911
 30
0.0
 40
0.0405697077054341
 50
268.6540299568488877
 51
91.172900617270642
  0
ARC
  5
F484
  8
0
 10
3755.8727349999421676
 20
195.3963510172443137
 30
0.0
 40
0.0240375271672281
 50
91.4529584926297332
 51
269.3628860803153771
  0
ARC
  5
F485
  8
0
 10
3755.8727356157278336
 20
195.3963510216285044
 30
0.0
 40
0.0240375384063102
 50
269.3614185019815181
 51
91.4544260709351704
  0
ARC
  5
F486
  8
0
 10
3755.8747072700580247
 20
195.4608023372479124
 30
0.0
 40
0.0472967734258551
 50
250.7403383693300896
 51
285.753558725604023
  0
ARC
  5
F487
  8
0
 10
3755.4857040777951624
 20
195.628978847370405
 30
0.0
 40
0.096708019316174
 50
271.0574587725369042
 51
89.0292481697099731
  0
ARC
  5
F488
  8
0
 10
3755.4891108454307869
 20
195.6289814251385053
 30
0.0
 40
0.0967077301822846
 50
91.0477348475310606
 51
269.0389720947187016
  0
ARC
  5
F489
  8
0
 10
3755.4916045138120353
 20
195.6255601696331894
 30
0.0
 40
0.0720513145891333
 50
93.8621332737234439
 51
265.971444390318311
  0
ARC
  5
F48A
  8
0
 10
3755.4817794643158777
 20
195.6255744386496076
 30
0.0
 40
0.0720451848977111
 50
273.7908078791126059
 51
86.0427697848768389
  0
ARC
  5
F48B
  8
0
 10
3755.4870071643090341
 20
195.6199828269627119
 30
0.0
 40
0.040570406287804
 50
91.2629343022469044
 51
268.6540299568488877
  0
ARC
  5
F48C
  8
0
 10
3755.4870071478999307
 20
195.6199821285730991
 30
0.0
 40
0.0405697077054341
 50
268.6540299568488877
 51
91.172900617270642
  0
ARC
  5
F48D
  8
0
 10
3755.4870744642539648
 20
195.6145033839393932
 30
0.0
 40
0.0240375271672281
 50
91.4529584926297332
 51
269.3628860803153771
  0
ARC
  5
F48E
  8
0
 10
3755.4870750800400856
 20
195.6145033883236124
 30
0.0
 40
0.0240375384063102
 50
269.3614185019815181
 51
91.4544260709351704
  0
ARC
  5
F48F
  8
0
 10
3755.4890467343698219
 20
195.6789547039431056
 30
0.0
 40
0.0472967734258551
 50
250.7403383693300896
 51
285.753558725604023
  0
ARC
  5
F490
  8
0
 10
3756.3459435253589618
 20
195.285895195803306
 30
0.0
 40
0.096708019316174
 50
271.0574587725369042
 51
89.0292481697099731
  0
ARC
  5
F491
  8
0
 10
3756.3493502929950409
 20
195.2858977735712926
 30
0.0
 40
0.0967077301822846
 50
91.0477348475310606
 51
269.0389720947187016
  0
ARC
  5
F492
  8
0
 10
3756.3518439613771989
 20
195.2824765180660052
 30
0.0
 40
0.0720513145891333
 50
93.8621332737234439
 51
265.971444390318311
  0
ARC
  5
F493
  8
0
 10
3756.3420189118801318
 20
195.2824907870823949
 30
0.0
 40
0.0720451848977111
 50
273.7908078791126059
 51
86.0427697848768389
  0
ARC
  5
F494
  8
0
 10
3756.3472466118728335
 20
195.2768991753954992
 30
0.0
 40
0.040570406287804
 50
91.2629343022469044
 51
268.6540299568488877
  0
ARC
  5
F495
  8
0
 10
3756.3472465954628206
 20
195.2768984770058864
 30
0.0
 40
0.0405697077054341
 50
268.6540299568488877
 51
91.172900617270642
  0
ARC
  5
F496
  8
0
 10
3756.3473139118182189
 20
195.271419732372209
 30
0.0
 40
0.0240375271672281
 50
91.4529584926297332
 51
269.3628860803153771
  0
ARC
  5
F497
  8
0
 10
3756.3473145276038849
 20
195.2714197367563997
 30
0.0
 40
0.0240375384063102
 50
269.3614185019815181
 51
91.4544260709351704
  0
ARC
  5
F498
  8
0
 10
3756.349286181934076
 20
195.335871052375893
 30
0.0
 40
0.0472967734258551
 50
250.7403383693300896
 51
285.753558725604023
  0
ARC
  5
F499
  8
0
 10
3755.964796652917812
 20
194.9657975682195001
 30
0.0
 40
0.096708019316174
 50
271.0574587725369042
 51
89.0292481697099731
  0
ARC
  5
F49A
  8
0
 10
3755.9682034205538912
 20
194.9658001459876004
 30
0.0
 40
0.0967077301822846
 50
91.0477348475310606
 51
269.0389720947187016
  0
ARC
  5
F49B
  8
0
 10
3755.9706970889351396
 20
194.962378890482313
 30
0.0
 40
0.0720513145891333
 50
93.8621332737234439
 51
265.971444390318311
  0
ARC
  5
F49C
  8
0
 10
3755.9608720394398915
 20
194.9623931594987027
 30
0.0
 40
0.0720451848977111
 50
273.7908078791126059
 51
86.0427697848768389
  0
ARC
  5
F49D
  8
0
 10
3755.9660997394321384
 20
194.956801547811807
 30
0.0
 40
0.040570406287804
 50
91.2629343022469044
 51
268.6540299568488877
  0
ARC
  5
F49E
  8
0
 10
3755.966099723023035
 20
194.9568008494221942
 30
0.0
 40
0.0405697077054341
 50
268.6540299568488877
 51
91.172900617270642
  0
ARC
  5
F49F
  8
0
 10
3755.9661670393770692
 20
194.9513221047884883
 30
0.0
 40
0.0240375271672281
 50
91.4529584926297332
 51
269.3628860803153771
  0
ARC
  5
F4A0
  8
0
 10
3755.9661676551631899
 20
194.9513221091725939
 30
0.0
 40
0.0240375384063102
 50
269.3614185019815181
 51
91.4544260709351704
  0
ARC
  5
F4A1
  8
0
 10
3755.9681393094929263
 20
195.0157734247922008
 30
0.0
 40
0.0472967734258551
 50
250.7403383693300896
 51
285.753558725604023
  0
ARC
  5
F4A2
  8
0
 10
3755.5098365327107786
 20
195.1330259158791876
 30
0.0
 40
0.096708019316174
 50
271.0574587725369042
 51
89.0292481697099731
  0
ARC
  5
F4A3
  8
0
 10
3755.5132433003468577
 20
195.1330284936472026
 30
0.0
 40
0.0967077301822846
 50
91.0477348475310606
 51
269.0389720947187016
  0
ARC
  5
F4A4
  8
0
 10
3755.5157369687290156
 20
195.1296072381418867
 30
0.0
 40
0.0720513145891333
 50
93.8621332737234439
 51
265.971444390318311
  0
ARC
  5
F4A5
  8
0
 10
3755.5059119192319486
 20
195.1296215071583902
 30
0.0
 40
0.0720451848977111
 50
273.7908078791126059
 51
86.0427697848768389
  0
ARC
  5
F4A6
  8
0
 10
3755.511139619225105
 20
195.1240298954714945
 30
0.0
 40
0.040570406287804
 50
91.2629343022469044
 51
268.6540299568488877
  0
ARC
  5
F4A7
  8
0
 10
3755.5111396028160016
 20
195.1240291970819101
 30
0.0
 40
0.0405697077054341
 50
268.6540299568488877
 51
91.172900617270642
  0
ARC
  5
F4A8
  8
0
 10
3755.5112069191700357
 20
195.1185504524480905
 30
0.0
 40
0.0240375271672281
 50
91.4529584926297332
 51
269.3628860803153771
  0
ARC
  5
F4A9
  8
0
 10
3755.5112075349570659
 20
195.1185504568323097
 30
0.0
 40
0.0240375384063102
 50
269.3614185019815181
 51
91.4544260709351704
  0
ARC
  5
F4AA
  8
0
 10
3755.5131791892858928
 20
195.1830017724518029
 30
0.0
 40
0.0472967734258551
 50
250.7403383693300896
 51
285.753558725604023
  0
ARC
  5
F4AB
  8
0
 10
3755.5832926137481991
 20
194.6427946633716886
 30
0.0
 40
0.096708019316174
 50
271.0574587725369042
 51
89.0292481697099731
  0
ARC
  5
F4AC
  8
0
 10
3755.5866993813838235
 20
194.6427972411397036
 30
0.0
 40
0.0967077301822846
 50
91.0477348475310606
 51
269.0389720947187016
  0
ARC
  5
F4AD
  8
0
 10
3755.5891930497650719
 20
194.6393759856345014
 30
0.0
 40
0.0720513145891333
 50
93.8621332737234439
 51
265.971444390318311
  0
ARC
  5
F4AE
  8
0
 10
3755.5793680002689143
 20
194.6393902546508912
 30
0.0
 40
0.0720451848977111
 50
273.7908078791126059
 51
86.0427697848768389
  0
ARC
  5
F4AF
  8
0
 10
3755.5845957002611613
 20
194.6337986429639955
 30
0.0
 40
0.040570406287804
 50
91.2629343022469044
 51
268.6540299568488877
  0
ARC
  5
F4B0
  8
0
 10
3755.5845956838529673
 20
194.6337979445744111
 30
0.0
 40
0.0405697077054341
 50
268.6540299568488877
 51
91.172900617270642
  0
ARC
  5
F4B1
  8
0
 10
3755.584663000206092
 20
194.6283191999405915
 30
0.0
 40
0.0240375271672281
 50
91.4529584926297332
 51
269.3628860803153771
  0
ARC
  5
F4B2
  8
0
 10
3755.5846636159922127
 20
194.628319204324896
 30
0.0
 40
0.0240375384063102
 50
269.3614185019815181
 51
91.4544260709351704
  0
ARC
  5
F4B3
  8
0
 10
3755.5866352703228586
 20
194.6927705199443039
 30
0.0
 40
0.0472967734258551
 50
250.7403383693300896
 51
285.753558725604023
  0
ARC
  5
F4B4
  8
0
 10
3755.89310917784087
 20
194.321271506814611
 30
0.0
 40
0.096708019316174
 50
271.0574587725369042
 51
89.0292481697099731
  0
ARC
  5
F4B5
  8
0
 10
3755.8965159454769491
 20
194.3212740845825977
 30
0.0
 40
0.0967077301822846
 50
91.0477348475310606
 51
269.0389720947187016
  0
ARC
  5
F4B6
  8
0
 10
3755.899009613859107
 20
194.3178528290773102
 30
0.0
 40
0.0720513145891333
 50
93.8621332737234439
 51
265.971444390318311
  0
ARC
  5
F4B7
  8
0
 10
3755.8891845643629495
 20
194.3178670980937
 30
0.0
 40
0.0720451848977111
 50
273.7908078791126059
 51
86.0427697848768389
  0
ARC
  5
F4B8
  8
0
 10
3755.8944122643561059
 20
194.3122754864068042
 30
0.0
 40
0.040570406287804
 50
91.2629343022469044
 51
268.6540299568488877
  0
ARC
  5
F4B9
  8
0
 10
3755.894412247946093
 20
194.3122747880171914
 30
0.0
 40
0.0405697077054341
 50
268.6540299568488877
 51
91.172900617270642
  0
ARC
  5
F4BA
  8
0
 10
3755.8944795643001271
 20
194.306796043383514
 30
0.0
 40
0.0240375271672281
 50
91.4529584926297332
 51
269.3628860803153771
  0
ARC
  5
F4BB
  8
0
 10
3755.8944801800857931
 20
194.3067960477677047
 30
0.0
 40
0.0240375384063102
 50
269.3614185019815181
 51
91.4544260709351704
  0
ARC
  5
F4BC
  8
0
 10
3755.8964518344159842
 20
194.371247363387198
 30
0.0
 40
0.0472967734258551
 50
250.7403383693300896
 51
285.753558725604023
  0
ARC
  5
F4BD
  8
0
 10
3756.2487779311240956
 20
194.6467183010786925
 30
0.0
 40
0.096708019316174
 50
271.0574587725369042
 51
89.0292481697099731
  0
ARC
  5
F4BE
  8
0
 10
3756.2521846987610843
 20
194.6467208788467076
 30
0.0
 40
0.0967077301822846
 50
91.0477348475310606
 51
269.0389720947187016
  0
ARC
  5
F4BF
  8
0
 10
3756.254678367141878
 20
194.6432996233413917
 30
0.0
 40
0.0720513145891333
 50
93.8621332737234439
 51
265.971444390318311
  0
ARC
  5
F4C0
  8
0
 10
3756.2448533176461751
 20
194.6433138923578099
 30
0.0
 40
0.0720451848977111
 50
273.7908078791126059
 51
86.0427697848768389
  0
ARC
  5
F4C1
  8
0
 10
3756.2500810176379673
 20
194.6377222806709142
 30
0.0
 40
0.040570406287804
 50
91.2629343022469044
 51
268.6540299568488877
  0
ARC
  5
F4C2
  8
0
 10
3756.2500810012288639
 20
194.6377215822813014
 30
0.0
 40
0.0405697077054341
 50
268.6540299568488877
 51
91.172900617270642
  0
ARC
  5
F4C3
  8
0
 10
3756.2501483175838075
 20
194.6322428376475955
 30
0.0
 40
0.0240375271672281
 50
91.4529584926297332
 51
269.3628860803153771
  0
ARC
  5
F4C4
  8
0
 10
3756.2501489333690188
 20
194.6322428420317863
 30
0.0
 40
0.0240375384063102
 50
269.3614185019815181
 51
91.4544260709351704
  0
ARC
  5
F4C5
  8
0
 10
3756.2521205877001194
 20
194.6966941576513079
 30
0.0
 40
0.0472967734258551
 50
250.7403383693300896
 51
285.753558725604023
  0
ARC
  5
F4C6
  8
0
 10
3756.3672877560798042
 20
194.2130722765768098
 30
0.0
 40
0.096708019316174
 50
271.0574587725369042
 51
89.0292481697099731
  0
ARC
  5
F4C7
  8
0
 10
3756.3706945237158834
 20
194.2130748543449101
 30
0.0
 40
0.0967077301822846
 50
91.0477348475310606
 51
269.0389720947187016
  0
ARC
  5
F4C8
  8
0
 10
3756.3731881920971318
 20
194.2096535988395942
 30
0.0
 40
0.0720513145891333
 50
93.8621332737234439
 51
265.971444390318311
  0
ARC
  5
F4C9
  8
0
 10
3756.3633631426009742
 20
194.2096678678560124
 30
0.0
 40
0.0720451848977111
 50
273.7908078791126059
 51
86.0427697848768389
  0
ARC
  5
F4CA
  8
0
 10
3756.3685908425941307
 20
194.2040762561690883
 30
0.0
 40
0.040570406287804
 50
91.2629343022469044
 51
268.6540299568488877
  0
ARC
  5
F4CB
  8
0
 10
3756.3685908261841178
 20
194.2040755577795039
 30
0.0
 40
0.0405697077054341
 50
268.6540299568488877
 51
91.172900617270642
  0
ARC
  5
F4CC
  8
0
 10
3756.3686581425390614
 20
194.198596813145798
 30
0.0
 40
0.0240375271672281
 50
91.4529584926297332
 51
269.3628860803153771
  0
ARC
  5
F4CD
  8
0
 10
3756.3686587583251821
 20
194.1985968175299888
 30
0.0
 40
0.0240375384063102
 50
269.3614185019815181
 51
91.4544260709351704
  0
ARC
  5
F4CE
  8
0
 10
3756.3706304126549185
 20
194.2630481331495105
 30
0.0
 40
0.0472967734258551
 50
250.7403383693300896
 51
285.753558725604023
  0
ARC
  5
F4CF
  8
0
 10
3756.7276660078591703
 20
194.5461103807033112
 30
0.0
 40
0.096708019316174
 50
271.0574587725369042
 51
89.0292481697099731
  0
ARC
  5
F4D0
  8
0
 10
3756.7310727754947948
 20
194.5461129584712978
 30
0.0
 40
0.0967077301822846
 50
91.0477348475310606
 51
269.0389720947187016
  0
ARC
  5
F4D1
  8
0
 10
3756.7335664438760432
 20
194.5426917029660103
 30
0.0
 40
0.0720513145891333
 50
93.8621332737234439
 51
265.971444390318311
  0
ARC
  5
F4D2
  8
0
 10
3756.7237413943798856
 20
194.5427059719824001
 30
0.0
 40
0.0720451848977111
 50
273.7908078791126059
 51
86.0427697848768389
  0
ARC
  5
F4D3
  8
0
 10
3756.728969094373042
 20
194.5371143602955044
 30
0.0
 40
0.040570406287804
 50
91.2629343022469044
 51
268.6540299568488877
  0
ARC
  5
F4D4
  8
0
 10
3756.7289690779639386
 20
194.5371136619058916
 30
0.0
 40
0.0405697077054341
 50
268.6540299568488877
 51
91.172900617270642
  0
ARC
  5
F4D5
  8
0
 10
3756.7290363943179727
 20
194.5316349172722141
 30
0.0
 40
0.0240375271672281
 50
91.4529584926297332
 51
269.3628860803153771
  0
ARC
  5
F4D6
  8
0
 10
3756.729037010103184
 20
194.5316349216564049
 30
0.0
 40
0.0240375384063102
 50
269.3614185019815181
 51
91.4544260709351704
  0
ARC
  5
F4D7
  8
0
 10
3756.7310086644338298
 20
194.5960862372758982
 30
0.0
 40
0.0472967734258551
 50
250.7403383693300896
 51
285.753558725604023
  0
ARC
  5
F4D8
  8
0
 10
3756.6497240035591858
 20
194.9893531577031922
 30
0.0
 40
0.096708019316174
 50
271.0574587725369042
 51
89.0292481697099731
  0
ARC
  5
F4D9
  8
0
 10
3756.6531307711948102
 20
194.9893557354712925
 30
0.0
 40
0.0967077301822846
 50
91.0477348475310606
 51
269.0389720947187016
  0
ARC
  5
F4DA
  8
0
 10
3756.6556244395760586
 20
194.985934479966005
 30
0.0
 40
0.0720513145891333
 50
93.8621332737234439
 51
265.971444390318311
  0
ARC
  5
F4DB
  8
0
 10
3756.6457993900799011
 20
194.9859487489823948
 30
0.0
 40
0.0720451848977111
 50
273.7908078791126059
 51
86.0427697848768389
  0
ARC
  5
F4DC
  8
0
 10
3756.6510270900730575
 20
194.9803571372954991
 30
0.0
 40
0.040570406287804
 50
91.2629343022469044
 51
268.6540299568488877
  0
ARC
  5
F4DD
  8
0
 10
3756.6510270736639541
 20
194.9803564389058863
 30
0.0
 40
0.0405697077054341
 50
268.6540299568488877
 51
91.172900617270642
  0
ARC
  5
F4DE
  8
0
 10
3756.6510943900179882
 20
194.9748776942722088
 30
0.0
 40
0.0240375271672281
 50
91.4529584926297332
 51
269.3628860803153771
  0
ARC
  5
F4DF
  8
0
 10
3756.651095005804109
 20
194.9748776986563996
 30
0.0
 40
0.0240375384063102
 50
269.3614185019815181
 51
91.4544260709351704
  0
ARC
  5
F4E0
  8
0
 10
3756.6530666601338453
 20
195.0393290142758929
 30
0.0
 40
0.0472967734258551
 50
250.7403383693300896
 51
285.753558725604023
  0
ARC
  5
F4E1
  8
0
 10
3757.0575915694580544
 20
194.8545885522032108
 30
0.0
 40
0.096708019316174
 50
271.0574587725369042
 51
89.0292481697099731
  0
ARC
  5
F4E2
  8
0
 10
3757.0609983370950431
 20
194.8545911299713111
 30
0.0
 40
0.0967077301822846
 50
91.0477348475310606
 51
269.0389720947187016
  0
ARC
  5
F4E3
  8
0
 10
3757.063492005477201
 20
194.8511698744659952
 30
0.0
 40
0.0720513145891333
 50
93.8621332737234439
 51
265.971444390318311
  0
ARC
  5
F4E4
  8
0
 10
3757.0536669559801339
 20
194.8511841434824134
 30
0.0
 40
0.0720451848977111
 50
273.7908078791126059
 51
86.0427697848768389
  0
ARC
  5
F4E5
  8
0
 10
3757.0588946559728356
 20
194.8455925317954893
 30
0.0
 40
0.040570406287804
 50
91.2629343022469044
 51
268.6540299568488877
  0
ARC
  5
F4E6
  8
0
 10
3757.0588946395628227
 20
194.8455918334059049
 30
0.0
 40
0.0405697077054341
 50
268.6540299568488877
 51
91.172900617270642
  0
ARC
  5
F4E7
  8
0
 10
3757.0589619559182211
 20
194.840113088772199
 30
0.0
 40
0.0240375271672281
 50
91.4529584926297332
 51
269.3628860803153771
  0
ARC
  5
F4E8
  8
0
 10
3757.0589625717038871
 20
194.8401130931563898
 30
0.0
 40
0.0240375384063102
 50
269.3614185019815181
 51
91.4544260709351704
  0
ARC
  5
F4E9
  8
0
 10
3757.0609342260340782
 20
194.9045644087759115
 30
0.0
 40
0.0472967734258551
 50
250.7403383693300896
 51
285.753558725604023
  0
ARC
  5
F4EA
  8
0
 10
3757.2109064501592002
 20
194.4950661786031958
 30
0.0
 40
0.096708019316174
 50
271.0574587725369042
 51
89.0292481697099731
  0
ARC
  5
F4EB
  8
0
 10
3757.2143132177948246
 20
194.4950687563712961
 30
0.0
 40
0.0967077301822846
 50
91.0477348475310606
 51
269.0389720947187016
  0
ARC
  5
F4EC
  8
0
 10
3757.2168068861769825
 20
194.4916475008660086
 30
0.0
 40
0.0720513145891333
 50
93.8621332737234439
 51
265.971444390318311
  0
ARC
  5
F4ED
  8
0
 10
3757.2069818366799154
 20
194.4916617698823984
 30
0.0
 40
0.0720451848977111
 50
273.7908078791126059
 51
86.0427697848768389
  0
ARC
  5
F4EE
  8
0
 10
3757.2122095366730719
 20
194.4860701581955027
 30
0.0
 40
0.040570406287804
 50
91.2629343022469044
 51
268.6540299568488877
  0
ARC
  5
F4EF
  8
0
 10
3757.2122095202639684
 20
194.4860694598058899
 30
0.0
 40
0.0405697077054341
 50
268.6540299568488877
 51
91.172900617270642
  0
ARC
  5
F4F0
  8
0
 10
3757.2122768366180026
 20
194.4805907151722124
 30
0.0
 40
0.0240375271672281
 50
91.4529584926297332
 51
269.3628860803153771
  0
ARC
  5
F4F1
  8
0
 10
3757.2122774524041233
 20
194.4805907195564032
 30
0.0
 40
0.0240375384063102
 50
269.3614185019815181
 51
91.4544260709351704
  0
ARC
  5
F4F2
  8
0
 10
3757.2142491067338597
 20
194.5450420351758964
 30
0.0
 40
0.0472967734258551
 50
250.7403383693300896
 51
285.753558725604023
  0
ARC
  5
F4F3
  8
0
 10
3757.4868072415511051
 20
194.8235827567216063
 30
0.0
 40
0.096708019316174
 50
271.0574587725369042
 51
89.0292481697099731
  0
ARC
  5
F4F4
  8
0
 10
3757.4902140091871843
 20
194.8235853344895929
 30
0.0
 40
0.0967077301822846
 50
91.0477348475310606
 51
269.0389720947187016
  0
ARC
  5
F4F5
  8
0
 10
3757.4927076775670685
 20
194.8201640789843054
 30
0.0
 40
0.0720513145891333
 50
93.8621332737234439
 51
265.971444390318311
  0
ARC
  5
F4F6
  8
0
 10
3757.4828826280718204
 20
194.8201783480006952
 30
0.0
 40
0.0720451848977111
 50
273.7908078791126059
 51
86.0427697848768389
  0
ARC
  5
F4F7
  8
0
 10
3757.4881103280640673
 20
194.8145867363137995
 30
0.0
 40
0.040570406287804
 50
91.2629343022469044
 51
268.6540299568488877
  0
ARC
  5
F4F8
  8
0
 10
3757.4881103116549639
 20
194.8145860379241867
 30
0.0
 40
0.0405697077054341
 50
268.6540299568488877
 51
91.172900617270642
  0
ARC
  5
F4F9
  8
0
 10
3757.4881776280099075
 20
194.8091072932905092
 30
0.0
 40
0.0240375271672281
 50
91.4529584926297332
 51
269.3628860803153771
  0
ARC
  5
F4FA
  8
0
 10
3757.4881782437951188
 20
194.8091072976747
 30
0.0
 40
0.0240375384063102
 50
269.3614185019815181
 51
91.4544260709351704
  0
ARC
  5
F4FB
  8
0
 10
3757.4901498981262193
 20
194.8735586132941933
 30
0.0
 40
0.0472967734258551
 50
250.7403383693300896
 51
285.753558725604023
  0
LINE
  5
F4FC
  8
0
 10
3756.786346714884985
 20
188.932858630450994
 30
0.0
 11
3756.8032138971498171
 21
188.9331568711967861
 31
0.0
  0
LINE
  5
F4FD
  8
0
 10
3756.7995839188388345
 20
188.9330935096897974
 30
0.0
 11
3756.7863468629648196
 21
188.9577503634878042
 31
0.0
  0
LINE
  5
F4FE
  8
0
 10
3756.786346714884985
 20
188.0119413029343036
 30
0.0
 11
3756.8032138971498171
 21
188.0116430621885115
 31
0.0
  0
LINE
  5
F4FF
  8
0
 10
3756.7995839188388345
 20
188.0117064236955002
 30
0.0
 11
3756.7863468629648196
 21
187.9870495698974935
 31
0.0
  0
LINE
  5
F500
  8
0
 10
3739.3764914547500666
 20
177.4684629586926974
 30
0.0
 11
3739.3253103519141405
 21
177.468462958661803
 31
0.0
  0
LINE
  5
F501
  8
0
 10
3739.3764914547500666
 20
175.854289730392594
 30
0.0
 11
3739.3253103528859356
 21
175.8542897303618133
 31
0.0
  0
LINE
  5
F502
  8
0
 10
3739.3253103529500549
 20
175.7479893188927065
 30
0.0
 11
3739.3253103518500211
 21
177.5747633710126081
 31
0.0
  0
ARC
  5
F503
  8
0
 10
3739.2938142888760922
 20
177.574763370993594
 30
0.0
 40
0.0314960629736361
 50
0.0000000345002145
 51
90.5000002087790421
  0
LINE
  5
F504
  8
0
 10
3739.2935394372498195
 20
177.6062582346926035
 30
0.0
 11
3737.2502323507719666
 21
177.588426556446791
 31
0.0
  0
ARC
  5
F505
  8
0
 10
3737.2505072020089756
 20
177.556931692595299
 30
0.0
 40
0.0314960631226107
 50
90.4999994982553631
 51
180.0137996447400042
  0
LINE
  5
F506
  8
0
 10
3737.2190111397999317
 20
177.5569241067927067
 30
0.0
 11
3737.2190111397999317
 21
175.7658286324287076
 31
0.0
  0
ARC
  5
F507
  8
0
 10
3737.2505072771909909
 20
175.7658210630777944
 30
0.0
 40
0.0314961383003036
 50
179.9862303163733941
 51
269.4998669004914973
  0
LINE
  5
F508
  8
0
 10
3737.2502323518579033
 20
175.734326124666012
 30
0.0
 11
3739.2935394384580832
 21
175.7164944551660994
 31
0.0
  0
ARC
  5
F509
  8
0
 10
3739.2938142893558506
 20
175.7479893204443897
 30
0.0
 40
0.0314960645199766
 50
269.5000011256578887
 51
0.0138959595906026
  0
ARC
  5
F50A
  8
0
 10
3759.0313936818911316
 20
197.9788672525756965
 30
0.0
 40
0.096708019316174
 50
90.9706707180475576
 51
268.9424601152086893
  0
ARC
  5
F50B
  8
0
 10
3759.0279869142577809
 20
197.9788698351667051
 30
0.0
 40
0.0967077301822846
 50
270.960946793036328
 51
88.9521840402068733
  0
ARC
  5
F50C
  8
0
 10
3759.0254932410330184
 20
197.9754485831915929
 30
0.0
 40
0.0720513145891333
 50
274.0284744974379123
 51
86.1377856140290561
  0
ARC
  5
F50D
  8
0
 10
3759.0353182905500944
 20
197.9754628382989097
 30
0.0
 40
0.0720451848977111
 50
93.9571491028755332
 51
266.2091110086300887
  0
ARC
  5
F50E
  8
0
 10
3759.0300905826411508
 20
197.969871234012686
 30
0.0
 40
0.040570406287804
 50
271.345888930905403
 51
88.7369845854971544
  0
ARC
  5
F50F
  8
0
 10
3759.0300905990497995
 20
197.9698705356231017
 30
0.0
 40
0.0405697077054341
 50
88.8270182704728768
 51
271.345888930905403
  0
ARC
  5
F510
  8
0
 10
3759.0300232749391398
 20
197.9643917910846938
 30
0.0
 40
0.0240375271672281
 50
270.6370328074248164
 51
88.5469603951224542
  0
ARC
  5
F511
  8
0
 10
3759.030022659153019
 20
197.964391795469794
 30
0.0
 40
0.0240375384063102
 50
88.5454928168164201
 51
270.6385003857615743
  0
ARC
  5
F512
  8
0
 10
3759.0280510960651554
 20
198.0288431138804128
 30
0.0
 40
0.0472967734258551
 50
254.2463601621520866
 51
289.2595805184192272
  0
ARC
  5
F513
  8
0
 10
3758.5220502309048243
 20
198.0505411543003049
 30
0.0
 40
0.096708019316174
 50
90.9706707180475576
 51
268.9424601152086893
  0
ARC
  5
F514
  8
0
 10
3758.5186434632719283
 20
198.0505437368911998
 30
0.0
 40
0.0967077301822846
 50
270.960946793036328
 51
88.9521840402068733
  0
ARC
  5
F515
  8
0
 10
3758.5161497900480754
 20
198.0471224849160876
 30
0.0
 40
0.0720513145891333
 50
274.0284744974379123
 51
86.1377856140290561
  0
ARC
  5
F516
  8
0
 10
3758.5259748395637871
 20
198.0471367400234897
 30
0.0
 40
0.0720451848977111
 50
93.9571491028755332
 51
266.2091110086300887
  0
ARC
  5
F517
  8
0
 10
3758.5207471316548435
 20
198.0415451357372945
 30
0.0
 40
0.040570406287804
 50
271.345888930905403
 51
88.7369845854971544
  0
ARC
  5
F518
  8
0
 10
3758.520747148063947
 20
198.0415444373477101
 30
0.0
 40
0.0405697077054341
 50
88.8270182704728768
 51
271.345888930905403
  0
ARC
  5
F519
  8
0
 10
3758.5206798239528325
 20
198.0360656928091885
 30
0.0
 40
0.0240375271672281
 50
270.6370328074248164
 51
88.5469603951224542
  0
ARC
  5
F51A
  8
0
 10
3758.5206792081671665
 20
198.0360656971944024
 30
0.0
 40
0.0240375384063102
 50
88.5454928168164201
 51
270.6385003857615743
  0
ARC
  5
F51B
  8
0
 10
3758.5187076450788481
 20
198.1005170156049928
 30
0.0
 40
0.0472967734258551
 50
254.2463601621520866
 51
289.2595805184192272
  0
ARC
  5
F51C
  8
0
 10
3758.0064746996599752
 20
198.0729019302881113
 30
0.0
 40
0.096708019316174
 50
90.9706707180475576
 51
268.9424601152086893
  0
ARC
  5
F51D
  8
0
 10
3758.0030679320270792
 20
198.0729045128790062
 30
0.0
 40
0.0967077301822846
 50
270.960946793036328
 51
88.9521840402068733
  0
ARC
  5
F51E
  8
0
 10
3758.000574258801862
 20
198.0694832609040077
 30
0.0
 40
0.0720513145891333
 50
274.0284744974379123
 51
86.1377856140290561
  0
ARC
  5
F51F
  8
0
 10
3758.010399308318938
 20
198.0694975160112961
 30
0.0
 40
0.0720451848977111
 50
93.9571491028755332
 51
266.2091110086300887
  0
ARC
  5
F520
  8
0
 10
3758.0051716004109039
 20
198.0639059117251861
 30
0.0
 40
0.040570406287804
 50
271.345888930905403
 51
88.7369845854971544
  0
ARC
  5
F521
  8
0
 10
3758.0051716168190978
 20
198.063905213335488
 30
0.0
 40
0.0405697077054341
 50
88.8270182704728768
 51
271.345888930905403
  0
ARC
  5
F522
  8
0
 10
3758.0051042927088929
 20
198.0584264687971086
 30
0.0
 40
0.0240375271672281
 50
270.6370328074248164
 51
88.5469603951224542
  0
ARC
  5
F523
  8
0
 10
3758.0051036769232269
 20
198.0584264731822088
 30
0.0
 40
0.0240375384063102
 50
88.5454928168164201
 51
270.6385003857615743
  0
ARC
  5
F524
  8
0
 10
3758.003132113833999
 20
198.1228777915929129
 30
0.0
 40
0.0472967734258551
 50
254.2463601621520866
 51
289.2595805184192272
  0
ARC
  5
F525
  8
0
 10
3757.7435969150410529
 20
197.7060285831258
 30
0.0
 40
0.096708019316174
 50
90.9706707180475576
 51
268.9424601152086893
  0
ARC
  5
F526
  8
0
 10
3757.7401901474090664
 20
197.7060311657166949
 30
0.0
 40
0.0967077301822846
 50
270.960946793036328
 51
88.9521840402068733
  0
ARC
  5
F527
  8
0
 10
3757.7376964741838492
 20
197.7026099137416111
 30
0.0
 40
0.0720513145891333
 50
274.0284744974379123
 51
86.1377856140290561
  0
ARC
  5
F528
  8
0
 10
3757.7475215237000157
 20
197.7026241688488994
 30
0.0
 40
0.0720451848977111
 50
93.9571491028755332
 51
266.2091110086300887
  0
ARC
  5
F529
  8
0
 10
3757.7422938157919816
 20
197.6970325645627895
 30
0.0
 40
0.040570406287804
 50
271.345888930905403
 51
88.7369845854971544
  0
ARC
  5
F52A
  8
0
 10
3757.7422938322001755
 20
197.6970318661732051
 30
0.0
 40
0.0405697077054341
 50
88.8270182704728768
 51
271.345888930905403
  0
ARC
  5
F52B
  8
0
 10
3757.7422265080899706
 20
197.6915531216347119
 30
0.0
 40
0.0240375271672281
 50
270.6370328074248164
 51
88.5469603951224542
  0
ARC
  5
F52C
  8
0
 10
3757.7422258923038498
 20
197.6915531260198122
 30
0.0
 40
0.0240375384063102
 50
88.5454928168164201
 51
270.6385003857615743
  0
ARC
  5
F52D
  8
0
 10
3757.7402543292159862
 20
197.7560044444304026
 30
0.0
 40
0.0472967734258551
 50
254.2463601621520866
 51
289.2595805184192272
  0
ARC
  5
F52E
  8
0
 10
3758.2128349341592184
 20
197.668385031654509
 30
0.0
 40
0.096708019316174
 50
90.9706707180475576
 51
268.9424601152086893
  0
ARC
  5
F52F
  8
0
 10
3758.2094281665267772
 20
197.6683876142454892
 30
0.0
 40
0.0967077301822846
 50
270.960946793036328
 51
88.9521840402068733
  0
ARC
  5
F530
  8
0
 10
3758.2069344933020147
 20
197.6649663622704054
 30
0.0
 40
0.0720513145891333
 50
274.0284744974379123
 51
86.1377856140290561
  0
ARC
  5
F531
  8
0
 10
3758.2167595428181812
 20
197.6649806173778074
 30
0.0
 40
0.0720451848977111
 50
93.9571491028755332
 51
266.2091110086300887
  0
ARC
  5
F532
  8
0
 10
3758.2115318349101472
 20
197.6593890130916122
 30
0.0
 40
0.040570406287804
 50
271.345888930905403
 51
88.7369845854971544
  0
ARC
  5
F533
  8
0
 10
3758.2115318513178863
 20
197.6593883147019142
 30
0.0
 40
0.0405697077054341
 50
88.8270182704728768
 51
271.345888930905403
  0
ARC
  5
F534
  8
0
 10
3758.2114645272081361
 20
197.6539095701635063
 30
0.0
 40
0.0240375271672281
 50
270.6370328074248164
 51
88.5469603951224542
  0
ARC
  5
F535
  8
0
 10
3758.2114639114220154
 20
197.6539095745486065
 30
0.0
 40
0.0240375384063102
 50
88.5454928168164201
 51
270.6385003857615743
  0
ARC
  5
F536
  8
0
 10
3758.2094923483341518
 20
197.7183608929593106
 30
0.0
 40
0.0472967734258551
 50
254.2463601621520866
 51
289.2595805184192272
  0
ARC
  5
F537
  8
0
 10
3757.9181831185469491
 20
197.3276273455331022
 30
0.0
 40
0.096708019316174
 50
90.9706707180475576
 51
268.9424601152086893
  0
ARC
  5
F538
  8
0
 10
3757.9147763509149627
 20
197.3276299281239972
 30
0.0
 40
0.0967077301822846
 50
270.960946793036328
 51
88.9521840402068733
  0
ARC
  5
F539
  8
0
 10
3757.9122826776902002
 20
197.3242086761489134
 30
0.0
 40
0.0720513145891333
 50
274.0284744974379123
 51
86.1377856140290561
  0
ARC
  5
F53A
  8
0
 10
3757.9221077272059119
 20
197.3242229312562017
 30
0.0
 40
0.0720451848977111
 50
93.9571491028755332
 51
266.2091110086300887
  0
ARC
  5
F53B
  8
0
 10
3757.9168800192978779
 20
197.3186313269700918
 30
0.0
 40
0.040570406287804
 50
271.345888930905403
 51
88.7369845854971544
  0
ARC
  5
F53C
  8
0
 10
3757.9168800357060718
 20
197.3186306285805074
 30
0.0
 40
0.0405697077054341
 50
88.8270182704728768
 51
271.345888930905403
  0
ARC
  5
F53D
  8
0
 10
3757.9168127115958669
 20
197.3131518840419858
 30
0.0
 40
0.0240375271672281
 50
270.6370328074248164
 51
88.5469603951224542
  0
ARC
  5
F53E
  8
0
 10
3757.9168120958088366
 20
197.3131518884270861
 30
0.0
 40
0.0240375384063102
 50
88.5454928168164201
 51
270.6385003857615743
  0
ARC
  5
F53F
  8
0
 10
3757.9148405327218825
 20
197.3776032068377049
 30
0.0
 40
0.0472967734258551
 50
254.2463601621520866
 51
289.2595805184192272
  0
ARC
  5
F540
  8
0
 10
3758.6733862356268219
 20
197.5796232071006102
 30
0.0
 40
0.096708019316174
 50
90.9706707180475576
 51
268.9424601152086893
  0
ARC
  5
F541
  8
0
 10
3758.6699794679939259
 20
197.5796257896915904
 30
0.0
 40
0.0967077301822846
 50
270.960946793036328
 51
88.9521840402068733
  0
ARC
  5
F542
  8
0
 10
3758.6674857947691635
 20
197.5762045377165066
 30
0.0
 40
0.0720513145891333
 50
274.0284744974379123
 51
86.1377856140290561
  0
ARC
  5
F543
  8
0
 10
3758.6773108442857847
 20
197.576218792823795
 30
0.0
 40
0.0720451848977111
 50
93.9571491028755332
 51
266.2091110086300887
  0
ARC
  5
F544
  8
0
 10
3758.6720831363768411
 20
197.5706271885377134
 30
0.0
 40
0.040570406287804
 50
271.345888930905403
 51
88.7369845854971544
  0
ARC
  5
F545
  8
0
 10
3758.6720831527859445
 20
197.5706264901479869
 30
0.0
 40
0.0405697077054341
 50
88.8270182704728768
 51
271.345888930905403
  0
ARC
  5
F546
  8
0
 10
3758.6720158286748301
 20
197.5651477456096927
 30
0.0
 40
0.0240375271672281
 50
270.6370328074248164
 51
88.5469603951224542
  0
ARC
  5
F547
  8
0
 10
3758.6720152128891641
 20
197.5651477499947077
 30
0.0
 40
0.0240375384063102
 50
88.5454928168164201
 51
270.6385003857615743
  0
ARC
  5
F548
  8
0
 10
3758.6700436498008457
 20
197.6295990684054118
 30
0.0
 40
0.0472967734258551
 50
254.2463601621520866
 51
289.2595805184192272
  0
ARC
  5
F549
  8
0
 10
3759.3955819533630347
 20
197.6259078642621034
 30
0.0
 40
0.096708019316174
 50
90.9706707180475576
 51
268.9424601152086893
  0
ARC
  5
F54A
  8
0
 10
3759.3921751857301388
 20
197.6259104468529983
 30
0.0
 40
0.0967077301822846
 50
270.960946793036328
 51
88.9521840402068733
  0
ARC
  5
F54B
  8
0
 10
3759.3896815125049216
 20
197.6224891948778861
 30
0.0
 40
0.0720513145891333
 50
274.0284744974379123
 51
86.1377856140290561
  0
ARC
  5
F54C
  8
0
 10
3759.3995065620219975
 20
197.6225034499852882
 30
0.0
 40
0.0720451848977111
 50
93.9571491028755332
 51
266.2091110086300887
  0
ARC
  5
F54D
  8
0
 10
3759.394278854113054
 20
197.616911845699093
 30
0.0
 40
0.040570406287804
 50
271.345888930905403
 51
88.7369845854971544
  0
ARC
  5
F54E
  8
0
 10
3759.3942788705221574
 20
197.6169111473095086
 30
0.0
 40
0.0405697077054341
 50
88.8270182704728768
 51
271.345888930905403
  0
ARC
  5
F54F
  8
0
 10
3759.3942115464110429
 20
197.6114324027711007
 30
0.0
 40
0.0240375271672281
 50
270.6370328074248164
 51
88.5469603951224542
  0
ARC
  5
F550
  8
0
 10
3759.3942109306249222
 20
197.6114324071560873
 30
0.0
 40
0.0240375384063102
 50
88.5454928168164201
 51
270.6385003857615743
  0
ARC
  5
F551
  8
0
 10
3759.3922393675370586
 20
197.6758837255667913
 30
0.0
 40
0.0472967734258551
 50
254.2463601621520866
 51
289.2595805184192272
  0
ARC
  5
F552
  8
0
 10
3759.4767063238409719
 20
197.1290977910157949
 30
0.0
 40
0.096708019316174
 50
90.9706707180475576
 51
268.9424601152086893
  0
ARC
  5
F553
  8
0
 10
3759.4732995562089855
 20
197.1291003736066898
 30
0.0
 40
0.0967077301822846
 50
270.960946793036328
 51
88.9521840402068733
  0
ARC
  5
F554
  8
0
 10
3759.4708058829828587
 20
197.125679121631606
 30
0.0
 40
0.0720513145891333
 50
274.0284744974379123
 51
86.1377856140290561
  0
ARC
  5
F555
  8
0
 10
3759.4806309324990252
 20
197.1256933767388944
 30
0.0
 40
0.0720451848977111
 50
93.9571491028755332
 51
266.2091110086300887
  0
ARC
  5
F556
  8
0
 10
3759.4754032245909912
 20
197.1201017724528128
 30
0.0
 40
0.040570406287804
 50
271.345888930905403
 51
88.7369845854971544
  0
ARC
  5
F557
  8
0
 10
3759.4754032410000946
 20
197.1201010740632
 30
0.0
 40
0.0405697077054341
 50
88.8270182704728768
 51
271.345888930905403
  0
ARC
  5
F558
  8
0
 10
3759.4753359168889801
 20
197.1146223295247069
 30
0.0
 40
0.0240375271672281
 50
270.6370328074248164
 51
88.5469603951224542
  0
ARC
  5
F559
  8
0
 10
3759.4753353011028594
 20
197.1146223339098924
 30
0.0
 40
0.0240375384063102
 50
88.5454928168164201
 51
270.6385003857615743
  0
ARC
  5
F55A
  8
0
 10
3759.4733637380149958
 20
197.1790736523205112
 30
0.0
 40
0.0472967734258551
 50
254.2463601621520866
 51
289.2595805184192272
  0
ARC
  5
F55B
  8
0
 10
3759.0132564491391349
 20
197.2587934697216951
 30
0.0
 40
0.096708019316174
 50
90.9706707180475576
 51
268.9424601152086893
  0
ARC
  5
F55C
  8
0
 10
3759.0098496815057842
 20
197.2587960523125901
 30
0.0
 40
0.0967077301822846
 50
270.960946793036328
 51
88.9521840402068733
  0
ARC
  5
F55D
  8
0
 10
3759.0073560082810218
 20
197.2553748003375063
 30
0.0
 40
0.0720513145891333
 50
274.0284744974379123
 51
86.1377856140290561
  0
ARC
  5
F55E
  8
0
 10
3759.0171810577980978
 20
197.2553890554449083
 30
0.0
 40
0.0720451848977111
 50
93.9571491028755332
 51
266.2091110086300887
  0
ARC
  5
F55F
  8
0
 10
3759.0119533498891542
 20
197.2497974511587984
 30
0.0
 40
0.040570406287804
 50
271.345888930905403
 51
88.7369845854971544
  0
ARC
  5
F560
  8
0
 10
3759.0119533662968934
 20
197.2497967527691003
 30
0.0
 40
0.0405697077054341
 50
88.8270182704728768
 51
271.345888930905403
  0
ARC
  5
F561
  8
0
 10
3759.0118860421871432
 20
197.2443180082306924
 30
0.0
 40
0.0240375271672281
 50
270.6370328074248164
 51
88.5469603951224542
  0
ARC
  5
F562
  8
0
 10
3759.0118854264010224
 20
197.2443180126157927
 30
0.0
 40
0.0240375384063102
 50
88.5454928168164201
 51
270.6385003857615743
  0
ARC
  5
F563
  8
0
 10
3759.0099138633131588
 20
197.3087693310264115
 30
0.0
 40
0.0472967734258551
 50
254.2463601621520866
 51
289.2595805184192272
  0
ARC
  5
F564
  8
0
 10
3758.6288104103700789
 20
196.9038334298865891
 30
0.0
 40
0.096708019316174
 50
90.9706707180475576
 51
268.9424601152086893
  0
ARC
  5
F565
  8
0
 10
3758.625403642737183
 20
196.9038360124775977
 30
0.0
 40
0.0967077301822846
 50
270.960946793036328
 51
88.9521840402068733
  0
ARC
  5
F566
  8
0
 10
3758.6229099695119658
 20
196.9004147605025139
 30
0.0
 40
0.0720513145891333
 50
274.0284744974379123
 51
86.1377856140290561
  0
ARC
  5
F567
  8
0
 10
3758.6327350190281322
 20
196.9004290156098023
 30
0.0
 40
0.0720451848977111
 50
93.9571491028755332
 51
266.2091110086300887
  0
ARC
  5
F568
  8
0
 10
3758.6275073111200982
 20
196.8948374113236923
 30
0.0
 40
0.040570406287804
 50
271.345888930905403
 51
88.7369845854971544
  0
ARC
  5
F569
  8
0
 10
3758.6275073275278373
 20
196.8948367129341079
 30
0.0
 40
0.0405697077054341
 50
88.8270182704728768
 51
271.345888930905403
  0
ARC
  5
F56A
  8
0
 10
3758.6274400034180871
 20
196.8893579683955863
 30
0.0
 40
0.0240375271672281
 50
270.6370328074248164
 51
88.5469603951224542
  0
ARC
  5
F56B
  8
0
 10
3758.6274393876319664
 20
196.8893579727806866
 30
0.0
 40
0.0240375384063102
 50
88.5454928168164201
 51
270.6385003857615743
  0
ARC
  5
F56C
  8
0
 10
3758.6254678245441028
 20
196.9538092911913054
 30
0.0
 40
0.0472967734258551
 50
254.2463601621520866
 51
289.2595805184192272
  0
ARC
  5
F56D
  8
0
 10
3758.3197234317290167
 20
197.1937625274296977
 30
0.0
 40
0.0720513145891333
 50
274.0284744974379123
 51
86.1377856140290561
  0
ARC
  5
F56E
  8
0
 10
3758.3295484812460927
 20
197.193776782536986
 30
0.0
 40
0.0720451848977111
 50
93.9571491028755332
 51
266.2091110086300887
  0
ARC
  5
F56F
  8
0
 10
3758.3243207733371491
 20
197.1881851782509045
 30
0.0
 40
0.040570406287804
 50
271.345888930905403
 51
88.7369845854971544
  0
ARC
  5
F570
  8
0
 10
3758.3243207897448883
 20
197.1881844798612065
 30
0.0
 40
0.0405697077054341
 50
88.8270182704728768
 51
271.345888930905403
  0
ARC
  5
F571
  8
0
 10
3758.3242534656351381
 20
197.1827057353227985
 30
0.0
 40
0.0240375271672281
 50
270.6370328074248164
 51
88.5469603951224542
  0
ARC
  5
F572
  8
0
 10
3758.3242528498490174
 20
197.1827057397078988
 30
0.0
 40
0.0240375384063102
 50
88.5454928168164201
 51
270.6385003857615743
  0
ARC
  5
F573
  8
0
 10
3758.3222812867611538
 20
197.2471570581184892
 30
0.0
 40
0.0472967734258551
 50
254.2463601621520866
 51
289.2595805184192272
  0
ARC
  5
F574
  8
0
 10
3759.1019183409562174
 20
196.8094225278188105
 30
0.0
 40
0.096708019316174
 50
90.9706707180475576
 51
268.9424601152086893
  0
ARC
  5
F575
  8
0
 10
3759.0985115733237762
 20
196.8094251104097907
 30
0.0
 40
0.0967077301822846
 50
270.960946793036328
 51
88.9521840402068733
  0
ARC
  5
F576
  8
0
 10
3759.0960179000999233
 20
196.8060038584347069
 30
0.0
 40
0.0720513145891333
 50
274.0284744974379123
 51
86.1377856140290561
  0
ARC
  5
F577
  8
0
 10
3759.1058429496151803
 20
196.8060181135419953
 30
0.0
 40
0.0720451848977111
 50
93.9571491028755332
 51
266.2091110086300887
  0
ARC
  5
F578
  8
0
 10
3759.1006152417071462
 20
196.8004265092559137
 30
0.0
 40
0.040570406287804
 50
271.345888930905403
 51
88.7369845854971544
  0
ARC
  5
F579
  8
0
 10
3759.1006152581148854
 20
196.8004258108661872
 30
0.0
 40
0.0405697077054341
 50
88.8270182704728768
 51
271.345888930905403
  0
ARC
  5
F57A
  8
0
 10
3759.1005479340060447
 20
196.794947066327893
 30
0.0
 40
0.0240375271672281
 50
270.6370328074248164
 51
88.5469603951224542
  0
ARC
  5
F57B
  8
0
 10
3759.1005473182190144
 20
196.794947070712908
 30
0.0
 40
0.0240375384063102
 50
88.5454928168164201
 51
270.6385003857615743
  0
ARC
  5
F57C
  8
0
 10
3759.0985757551320603
 20
196.8593983891236121
 30
0.0
 40
0.0472967734258551
 50
254.2463601621520866
 51
289.2595805184192272
  0
ARC
  5
F57D
  8
0
 10
3759.5030680387521898
 20
196.6282135592956024
 30
0.0
 40
0.096708019316174
 50
90.9706707180475576
 51
268.9424601152086893
  0
ARC
  5
F57E
  8
0
 10
3759.4996612711188391
 20
196.628216141886611
 30
0.0
 40
0.0967077301822846
 50
270.960946793036328
 51
88.9521840402068733
  0
ARC
  5
F57F
  8
0
 10
3759.4971675978940766
 20
196.6247948899114988
 30
0.0
 40
0.0720513145891333
 50
274.0284744974379123
 51
86.1377856140290561
  0
ARC
  5
F580
  8
0
 10
3759.5069926474097883
 20
196.6248091450187871
 30
0.0
 40
0.0720451848977111
 50
93.9571491028755332
 51
266.2091110086300887
  0
ARC
  5
F581
  8
0
 10
3759.501764939502209
 20
196.6192175407327056
 30
0.0
 40
0.040570406287804
 50
271.345888930905403
 51
88.7369845854971544
  0
ARC
  5
F582
  8
0
 10
3759.5017649559099482
 20
196.6192168423430076
 30
0.0
 40
0.0405697077054341
 50
88.8270182704728768
 51
271.345888930905403
  0
ARC
  5
F583
  8
0
 10
3759.501697631800198
 20
196.6137380978045996
 30
0.0
 40
0.0240375271672281
 50
270.6370328074248164
 51
88.5469603951224542
  0
ARC
  5
F584
  8
0
 10
3759.5016970160131677
 20
196.6137381021896999
 30
0.0
 40
0.0240375384063102
 50
88.5454928168164201
 51
270.6385003857615743
  0
ARC
  5
F585
  8
0
 10
3759.4997254529262136
 20
196.6781894206002903
 30
0.0
 40
0.0472967734258551
 50
254.2463601621520866
 51
289.2595805184192272
  0
ARC
  5
F586
  8
0
 10
3759.14208879057378
 20
196.3539006966597924
 30
0.0
 40
0.096708019316174
 50
90.9706707180475576
 51
268.9424601152086893
  0
ARC
  5
F587
  8
0
 10
3759.1386820229399746
 20
196.353903279250801
 30
0.0
 40
0.0967077301822846
 50
270.960946793036328
 51
88.9521840402068733
  0
ARC
  5
F588
  8
0
 10
3759.1361883497161216
 20
196.3504820272756888
 30
0.0
 40
0.0720513145891333
 50
274.0284744974379123
 51
86.1377856140290561
  0
ARC
  5
F589
  8
0
 10
3759.1460133992318333
 20
196.3504962823830056
 30
0.0
 40
0.0720451848977111
 50
93.9571491028755332
 51
266.2091110086300887
  0
ARC
  5
F58A
  8
0
 10
3759.1407856913237993
 20
196.3449046780968956
 30
0.0
 40
0.040570406287804
 50
271.345888930905403
 51
88.7369845854971544
  0
ARC
  5
F58B
  8
0
 10
3759.1407857077319932
 20
196.3449039797073112
 30
0.0
 40
0.0405697077054341
 50
88.8270182704728768
 51
271.345888930905403
  0
ARC
  5
F58C
  8
0
 10
3759.1407183836217882
 20
196.3394252351687896
 30
0.0
 40
0.0240375271672281
 50
270.6370328074248164
 51
88.5469603951224542
  0
ARC
  5
F58D
  8
0
 10
3759.1407177678361222
 20
196.3394252395538899
 30
0.0
 40
0.0240375384063102
 50
88.5454928168164201
 51
270.6385003857615743
  0
ARC
  5
F58E
  8
0
 10
3759.1387462047468944
 20
196.4038765579645087
 30
0.0
 40
0.0472967734258551
 50
254.2463601621520866
 51
289.2595805184192272
  0
ARC
  5
F58F
  8
0
 10
3758.7645652949349824
 20
196.5089509132031935
 30
0.0
 40
0.096708019316174
 50
90.9706707180475576
 51
268.9424601152086893
  0
ARC
  5
F590
  8
0
 10
3758.7611585273029959
 20
196.5089534957942021
 30
0.0
 40
0.0967077301822846
 50
270.960946793036328
 51
88.9521840402068733
  0
ARC
  5
F591
  8
0
 10
3758.758664854079143
 20
196.5055322438190899
 30
0.0
 40
0.0720513145891333
 50
274.0284744974379123
 51
86.1377856140290561
  0
ARC
  5
F592
  8
0
 10
3758.7684899035939452
 20
196.5055464989264067
 30
0.0
 40
0.0720451848977111
 50
93.9571491028755332
 51
266.2091110086300887
  0
ARC
  5
F593
  8
0
 10
3758.7632621956859111
 20
196.4999548946402115
 30
0.0
 40
0.040570406287804
 50
271.345888930905403
 51
88.7369845854971544
  0
ARC
  5
F594
  8
0
 10
3758.7632622120950145
 20
196.4999541962505987
 30
0.0
 40
0.0405697077054341
 50
88.8270182704728768
 51
271.345888930905403
  0
ARC
  5
F595
  8
0
 10
3758.7631948879839001
 20
196.4944754517123044
 30
0.0
 40
0.0240375271672281
 50
270.6370328074248164
 51
88.5469603951224542
  0
ARC
  5
F596
  8
0
 10
3758.7631942721977794
 20
196.494475456097291
 30
0.0
 40
0.0240375384063102
 50
88.5454928168164201
 51
270.6385003857615743
  0
ARC
  5
F597
  8
0
 10
3758.7612227091099157
 20
196.5589267745079951
 30
0.0
 40
0.0472967734258551
 50
254.2463601621520866
 51
289.2595805184192272
  0
ARC
  5
F598
  8
0
 10
3758.80426838106996
 20
196.094704249768597
 30
0.0
 40
0.096708019316174
 50
90.9706707180475576
 51
268.9424601152086893
  0
ARC
  5
F599
  8
0
 10
3758.8008616134370641
 20
196.0947068323596056
 30
0.0
 40
0.0967077301822846
 50
270.960946793036328
 51
88.9521840402068733
  0
ARC
  5
F59A
  8
0
 10
3758.7983679402118469
 20
196.0912855803844934
 30
0.0
 40
0.0720513145891333
 50
274.0284744974379123
 51
86.1377856140290561
  0
ARC
  5
F59B
  8
0
 10
3758.8081929897289228
 20
196.0912998354918102
 30
0.0
 40
0.0720451848977111
 50
93.9571491028755332
 51
266.2091110086300887
  0
ARC
  5
F59C
  8
0
 10
3758.8029652818199793
 20
196.0857082312055866
 30
0.0
 40
0.040570406287804
 50
271.345888930905403
 51
88.7369845854971544
  0
ARC
  5
F59D
  8
0
 10
3758.8029652982290827
 20
196.0857075328160022
 30
0.0
 40
0.0405697077054341
 50
88.8270182704728768
 51
271.345888930905403
  0
ARC
  5
F59E
  8
0
 10
3758.8028979741179683
 20
196.080228788277708
 30
0.0
 40
0.0240375271672281
 50
270.6370328074248164
 51
88.5469603951224542
  0
ARC
  5
F59F
  8
0
 10
3758.8028973583318475
 20
196.0802287926626946
 30
0.0
 40
0.0240375384063102
 50
88.5454928168164201
 51
270.6385003857615743
  0
ARC
  5
F5A0
  8
0
 10
3758.8009257952439839
 20
196.1446801110733986
 30
0.0
 40
0.0472967734258551
 50
254.2463601621520866
 51
289.2595805184192272
  0
ARC
  5
F5A1
  8
0
 10
3759.5157359382569666
 20
196.1289601124711055
 30
0.0
 40
0.096708019316174
 50
90.9706707180475576
 51
268.9424601152086893
  0
ARC
  5
F5A2
  8
0
 10
3759.5123291706240707
 20
196.1289626950621141
 30
0.0
 40
0.0967077301822846
 50
270.960946793036328
 51
88.9521840402068733
  0
ARC
  5
F5A3
  8
0
 10
3759.5098354973988535
 20
196.1255414430870871
 30
0.0
 40
0.0720513145891333
 50
274.0284744974379123
 51
86.1377856140290561
  0
ARC
  5
F5A4
  8
0
 10
3759.5196605469159294
 20
196.1255556981944039
 30
0.0
 40
0.0720451848977111
 50
93.9571491028755332
 51
266.2091110086300887
  0
ARC
  5
F5A5
  8
0
 10
3759.5144328390078954
 20
196.1199640939082087
 30
0.0
 40
0.040570406287804
 50
271.345888930905403
 51
88.7369845854971544
  0
ARC
  5
F5A6
  8
0
 10
3759.5144328554160893
 20
196.1199633955185959
 30
0.0
 40
0.0405697077054341
 50
88.8270182704728768
 51
271.345888930905403
  0
ARC
  5
F5A7
  8
0
 10
3759.5143655313049749
 20
196.114484650980188
 30
0.0
 40
0.0240375271672281
 50
270.6370328074248164
 51
88.5469603951224542
  0
ARC
  5
F5A8
  8
0
 10
3759.5143649155202183
 20
196.1144846553652883
 30
0.0
 40
0.0240375384063102
 50
88.5454928168164201
 51
270.6385003857615743
  0
ARC
  5
F5A9
  8
0
 10
3759.5123933524309905
 20
196.1789359737759071
 30
0.0
 40
0.0472967734258551
 50
254.2463601621520866
 51
289.2595805184192272
  0
ARC
  5
F5AA
  8
0
 10
3759.1442467023748577
 20
195.8640023362694933
 30
0.0
 40
0.096708019316174
 50
90.9706707180475576
 51
268.9424601152086893
  0
ARC
  5
F5AB
  8
0
 10
3759.1408399347428713
 20
195.8640049188605019
 30
0.0
 40
0.0967077301822846
 50
270.960946793036328
 51
88.9521840402068733
  0
ARC
  5
F5AC
  8
0
 10
3759.1383462615190183
 20
195.8605836668853897
 30
0.0
 40
0.0720513145891333
 50
274.0284744974379123
 51
86.1377856140290561
  0
ARC
  5
F5AD
  8
0
 10
3759.1481713110338205
 20
195.8605979219927917
 30
0.0
 40
0.0720451848977111
 50
93.9571491028755332
 51
266.2091110086300887
  0
ARC
  5
F5AE
  8
0
 10
3759.1429436031257865
 20
195.8550063177065965
 30
0.0
 40
0.040570406287804
 50
271.345888930905403
 51
88.7369845854971544
  0
ARC
  5
F5AF
  8
0
 10
3759.1429436195339804
 20
195.8550056193170121
 30
0.0
 40
0.0405697077054341
 50
88.8270182704728768
 51
271.345888930905403
  0
ARC
  5
F5B0
  8
0
 10
3759.1428762954237754
 20
195.8495268747786042
 30
0.0
 40
0.0240375271672281
 50
270.6370328074248164
 51
88.5469603951224542
  0
ARC
  5
F5B1
  8
0
 10
3759.1428756796381094
 20
195.8495268791635908
 30
0.0
 40
0.0240375384063102
 50
88.5454928168164201
 51
270.6385003857615743
  0
ARC
  5
F5B2
  8
0
 10
3759.1409041165488816
 20
195.9139781975742949
 30
0.0
 40
0.0472967734258551
 50
254.2463601621520866
 51
289.2595805184192272
  0
ARC
  5
F5B3
  8
0
 10
3758.7661909296020895
 20
195.680716501173805
 30
0.0
 40
0.096708019316174
 50
90.9706707180475576
 51
268.9424601152086893
  0
ARC
  5
F5B4
  8
0
 10
3758.7627841619691935
 20
195.6807190837646999
 30
0.0
 40
0.0967077301822846
 50
270.960946793036328
 51
88.9521840402068733
  0
ARC
  5
F5B5
  8
0
 10
3758.7602904887448858
 20
195.6772978317897014
 30
0.0
 40
0.0720513145891333
 50
274.0284744974379123
 51
86.1377856140290561
  0
ARC
  5
F5B6
  8
0
 10
3758.7701155382601428
 20
195.6773120868969897
 30
0.0
 40
0.0720451848977111
 50
93.9571491028755332
 51
266.2091110086300887
  0
ARC
  5
F5B7
  8
0
 10
3758.7648878303521087
 20
195.6717204826107945
 30
0.0
 40
0.040570406287804
 50
271.345888930905403
 51
88.7369845854971544
  0
ARC
  5
F5B8
  8
0
 10
3758.7648878467612121
 20
195.6717197842212101
 30
0.0
 40
0.0405697077054341
 50
88.8270182704728768
 51
271.345888930905403
  0
ARC
  5
F5B9
  8
0
 10
3758.7648205226500977
 20
195.6662410396828022
 30
0.0
 40
0.0240375271672281
 50
270.6370328074248164
 51
88.5469603951224542
  0
ARC
  5
F5BA
  8
0
 10
3758.7648199068639769
 20
195.6662410440677888
 30
0.0
 40
0.0240375384063102
 50
88.5454928168164201
 51
270.6385003857615743
  0
ARC
  5
F5BB
  8
0
 10
3758.7628483437761133
 20
195.7306923624784929
 30
0.0
 40
0.0472967734258551
 50
254.2463601621520866
 51
289.2595805184192272
  0
ARC
  5
F5BC
  8
0
 10
3759.1047403859979568
 20
195.4108241919693114
 30
0.0
 40
0.096708019316174
 50
90.9706707180475576
 51
268.9424601152086893
  0
ARC
  5
F5BD
  8
0
 10
3759.1013336183650608
 20
195.4108267745602063
 30
0.0
 40
0.0967077301822846
 50
270.960946793036328
 51
88.9521840402068733
  0
ARC
  5
F5BE
  8
0
 10
3759.0988399451412079
 20
195.4074055225850941
 30
0.0
 40
0.0720513145891333
 50
274.0284744974379123
 51
86.1377856140290561
  0
ARC
  5
F5BF
  8
0
 10
3759.1086649946569196
 20
195.4074197776924962
 30
0.0
 40
0.0720451848977111
 50
93.9571491028755332
 51
266.2091110086300887
  0
ARC
  5
F5C0
  8
0
 10
3759.1034372867488855
 20
195.4018281734063009
 30
0.0
 40
0.040570406287804
 50
271.345888930905403
 51
88.7369845854971544
  0
ARC
  5
F5C1
  8
0
 10
3759.1034373031570794
 20
195.4018274750166881
 30
0.0
 40
0.0405697077054341
 50
88.8270182704728768
 51
271.345888930905403
  0
ARC
  5
F5C2
  8
0
 10
3759.1033699790468745
 20
195.3963487304783087
 30
0.0
 40
0.0240375271672281
 50
270.6370328074248164
 51
88.5469603951224542
  0
ARC
  5
F5C3
  8
0
 10
3759.1033693632612085
 20
195.3963487348634089
 30
0.0
 40
0.0240375384063102
 50
88.5454928168164201
 51
270.6385003857615743
  0
ARC
  5
F5C4
  8
0
 10
3759.1013978001728901
 20
195.4608000532739993
 30
0.0
 40
0.0472967734258551
 50
254.2463601621520866
 51
289.2595805184192272
  0
ARC
  5
F5C5
  8
0
 10
3759.4904012305191827
 20
195.6289760126938972
 30
0.0
 40
0.096708019316174
 50
90.9706707180475576
 51
268.9424601152086893
  0
ARC
  5
F5C6
  8
0
 10
3759.486994462885832
 20
195.6289785952849059
 30
0.0
 40
0.0967077301822846
 50
270.960946793036328
 51
88.9521840402068733
  0
ARC
  5
F5C7
  8
0
 10
3759.4845007896619791
 20
195.6255573433097084
 30
0.0
 40
0.0720513145891333
 50
274.0284744974379123
 51
86.1377856140290561
  0
ARC
  5
F5C8
  8
0
 10
3759.4943258391781455
 20
195.6255715984171104
 30
0.0
 40
0.0720451848977111
 50
93.9571491028755332
 51
266.2091110086300887
  0
ARC
  5
F5C9
  8
0
 10
3759.4890981312701115
 20
195.6199799941308868
 30
0.0
 40
0.040570406287804
 50
271.345888930905403
 51
88.7369845854971544
  0
ARC
  5
F5CA
  8
0
 10
3759.4890981476778506
 20
195.6199792957413024
 30
0.0
 40
0.0405697077054341
 50
88.8270182704728768
 51
271.345888930905403
  0
ARC
  5
F5CB
  8
0
 10
3759.489030823567191
 20
195.6145005512028945
 30
0.0
 40
0.0240375271672281
 50
270.6370328074248164
 51
88.5469603951224542
  0
ARC
  5
F5CC
  8
0
 10
3759.4890302077810702
 20
195.6145005555879948
 30
0.0
 40
0.0240375384063102
 50
88.5454928168164201
 51
270.6385003857615743
  0
ARC
  5
F5CD
  8
0
 10
3759.4870586446932066
 20
195.6789518739986136
 30
0.0
 40
0.0472967734258551
 50
254.2463601621520866
 51
289.2595805184192272
  0
ARC
  5
F5CE
  8
0
 10
3758.6242608564029979
 20
195.2824749095632058
 30
0.0
 40
0.0720513145891333
 50
274.0284744974379123
 51
86.1377856140290561
  0
ARC
  5
F5CF
  8
0
 10
3758.6340859059191644
 20
195.2824891646704941
 30
0.0
 40
0.0720451848977111
 50
93.9571491028755332
 51
266.2091110086300887
  0
ARC
  5
F5D0
  8
0
 10
3758.6288581980111303
 20
195.2768975603842989
 30
0.0
 40
0.040570406287804
 50
271.345888930905403
 51
88.7369845854971544
  0
ARC
  5
F5D1
  8
0
 10
3758.6288582144188695
 20
195.2768968619946861
 30
0.0
 40
0.0405697077054341
 50
88.8270182704728768
 51
271.345888930905403
  0
ARC
  5
F5D2
  8
0
 10
3758.6287908903091193
 20
195.2714181174561929
 30
0.0
 40
0.0240375271672281
 50
270.6370328074248164
 51
88.5469603951224542
  0
ARC
  5
F5D3
  8
0
 10
3758.6287902745229985
 20
195.2714181218412932
 30
0.0
 40
0.0240375384063102
 50
88.5454928168164201
 51
270.6385003857615743
  0
ARC
  5
F5D4
  8
0
 10
3758.6268187114342254
 20
195.3358694402519973
 30
0.0
 40
0.0472967734258551
 50
254.2463601621520866
 51
289.2595805184192272
  0
ARC
  5
F5D5
  8
0
 10
3759.0113077165469804
 20
194.9657954117834038
 30
0.0
 40
0.096708019316174
 50
90.9706707180475576
 51
268.9424601152086893
  0
ARC
  5
F5D6
  8
0
 10
3759.0079009489140844
 20
194.9657979943744124
 30
0.0
 40
0.0967077301822846
 50
270.960946793036328
 51
88.9521840402068733
  0
ARC
  5
F5D7
  8
0
 10
3759.0054072756888672
 20
194.9623767423993002
 30
0.0
 40
0.0720513145891333
 50
274.0284744974379123
 51
86.1377856140290561
  0
ARC
  5
F5D8
  8
0
 10
3759.0152323252059432
 20
194.9623909975065885
 30
0.0
 40
0.0720451848977111
 50
93.9571491028755332
 51
266.2091110086300887
  0
ARC
  5
F5D9
  8
0
 10
3759.0100046172969996
 20
194.956799393220507
 30
0.0
 40
0.040570406287804
 50
271.345888930905403
 51
88.7369845854971544
  0
ARC
  5
F5DA
  8
0
 10
3759.0100046337051936
 20
194.9567986948308089
 30
0.0
 40
0.0405697077054341
 50
88.8270182704728768
 51
271.345888930905403
  0
ARC
  5
F5DB
  8
0
 10
3759.0099373095949886
 20
194.9513199502924863
 30
0.0
 40
0.0240375271672281
 50
270.6370328074248164
 51
88.5469603951224542
  0
ARC
  5
F5DC
  8
0
 10
3759.0099366938088679
 20
194.9513199546775013
 30
0.0
 40
0.0240375384063102
 50
88.5454928168164201
 51
270.6385003857615743
  0
ARC
  5
F5DD
  8
0
 10
3759.0079651307210042
 20
195.0157712730882054
 30
0.0
 40
0.0472967734258551
 50
254.2463601621520866
 51
289.2595805184192272
  0
ARC
  5
F5DE
  8
0
 10
3759.4662680734941205
 20
195.1330231153669104
 30
0.0
 40
0.096708019316174
 50
90.9706707180475576
 51
268.9424601152086893
  0
ARC
  5
F5DF
  8
0
 10
3759.4628613058612245
 20
195.1330256979578905
 30
0.0
 40
0.0967077301822846
 50
270.960946793036328
 51
88.9521840402068733
  0
ARC
  5
F5E0
  8
0
 10
3759.4603676326369168
 20
195.1296044459826931
 30
0.0
 40
0.0720513145891333
 50
274.0284744974379123
 51
86.1377856140290561
  0
ARC
  5
F5E1
  8
0
 10
3759.4701926821530833
 20
195.1296187010900951
 30
0.0
 40
0.0720451848977111
 50
93.9571491028755332
 51
266.2091110086300887
  0
ARC
  5
F5E2
  8
0
 10
3759.4649649742441397
 20
195.1240270968038999
 30
0.0
 40
0.040570406287804
 50
271.345888930905403
 51
88.7369845854971544
  0
ARC
  5
F5E3
  8
0
 10
3759.4649649906518789
 20
195.1240263984142871
 30
0.0
 40
0.0405697077054341
 50
88.8270182704728768
 51
271.345888930905403
  0
ARC
  5
F5E4
  8
0
 10
3759.4648976665430382
 20
195.1185476538759076
 30
0.0
 40
0.0240375271672281
 50
270.6370328074248164
 51
88.5469603951224542
  0
ARC
  5
F5E5
  8
0
 10
3759.4648970507569175
 20
195.1185476582610079
 30
0.0
 40
0.0240375384063102
 50
88.5454928168164201
 51
270.6385003857615743
  0
ARC
  5
F5E6
  8
0
 10
3759.4629254876681443
 20
195.1829989766715983
 30
0.0
 40
0.0472967734258551
 50
254.2463601621520866
 51
289.2595805184192272
  0
ARC
  5
F5E7
  8
0
 10
3759.3928112984490326
 20
194.6427919668498987
 30
0.0
 40
0.096708019316174
 50
90.9706707180475576
 51
268.9424601152086893
  0
ARC
  5
F5E8
  8
0
 10
3759.3894045308170462
 20
194.6427945494407936
 30
0.0
 40
0.0967077301822846
 50
270.960946793036328
 51
88.9521840402068733
  0
ARC
  5
F5E9
  8
0
 10
3759.386910857591829
 20
194.6393732974657951
 30
0.0
 40
0.0720513145891333
 50
274.0284744974379123
 51
86.1377856140290561
  0
ARC
  5
F5EA
  8
0
 10
3759.3967359071079954
 20
194.6393875525731119
 30
0.0
 40
0.0720451848977111
 50
93.9571491028755332
 51
266.2091110086300887
  0
ARC
  5
F5EB
  8
0
 10
3759.3915081991990519
 20
194.6337959482868882
 30
0.0
 40
0.040570406287804
 50
271.345888930905403
 51
88.7369845854971544
  0
ARC
  5
F5EC
  8
0
 10
3759.3915082156081553
 20
194.6337952498973038
 30
0.0
 40
0.0405697077054341
 50
88.8270182704728768
 51
271.345888930905403
  0
ARC
  5
F5ED
  8
0
 10
3759.3914408914979504
 20
194.6283165053588959
 30
0.0
 40
0.0240375271672281
 50
270.6370328074248164
 51
88.5469603951224542
  0
ARC
  5
F5EE
  8
0
 10
3759.3914402757118296
 20
194.628316509743911
 30
0.0
 40
0.0240375384063102
 50
88.5454928168164201
 51
270.6385003857615743
  0
ARC
  5
F5EF
  8
0
 10
3759.389468712623966
 20
194.6927678281547003
 30
0.0
 40
0.0472967734258551
 50
254.2463601621520866
 51
289.2595805184192272
  0
ARC
  5
F5F0
  8
0
 10
3759.0829942791829126
 20
194.3212692488928894
 30
0.0
 40
0.096708019316174
 50
90.9706707180475576
 51
268.9424601152086893
  0
ARC
  5
F5F1
  8
0
 10
3759.0795875115500166
 20
194.3212718314838128
 30
0.0
 40
0.0967077301822846
 50
270.960946793036328
 51
88.9521840402068733
  0
ARC
  5
F5F2
  8
0
 10
3759.0770938383261637
 20
194.3178505795087858
 30
0.0
 40
0.0720513145891333
 50
274.0284744974379123
 51
86.1377856140290561
  0
ARC
  5
F5F3
  8
0
 10
3759.0869188878418754
 20
194.3178648346161026
 30
0.0
 40
0.0720451848977111
 50
93.9571491028755332
 51
266.2091110086300887
  0
ARC
  5
F5F4
  8
0
 10
3759.0816911799338413
 20
194.3122732303299074
 30
0.0
 40
0.040570406287804
 50
271.345888930905403
 51
88.7369845854971544
  0
ARC
  5
F5F5
  8
0
 10
3759.0816911963420353
 20
194.3122725319402946
 30
0.0
 40
0.0405697077054341
 50
88.8270182704728768
 51
271.345888930905403
  0
ARC
  5
F5F6
  8
0
 10
3759.0816238722309208
 20
194.3067937874018867
 30
0.0
 40
0.0240375271672281
 50
270.6370328074248164
 51
88.5469603951224542
  0
ARC
  5
F5F7
  8
0
 10
3759.0816232564461643
 20
194.3067937917869017
 30
0.0
 40
0.0240375384063102
 50
88.5454928168164201
 51
270.6385003857615743
  0
ARC
  5
F5F8
  8
0
 10
3759.0796516933569364
 20
194.3712451101976058
 30
0.0
 40
0.0472967734258551
 50
254.2463601621520866
 51
289.2595805184192272
  0
ARC
  5
F5F9
  8
0
 10
3758.7273259866269655
 20
194.6467165466683014
 30
0.0
 40
0.096708019316174
 50
90.9706707180475576
 51
268.9424601152086893
  0
ARC
  5
F5FA
  8
0
 10
3758.723919218994979
 20
194.6467191292591963
 30
0.0
 40
0.0967077301822846
 50
270.960946793036328
 51
88.9521840402068733
  0
ARC
  5
F5FB
  8
0
 10
3758.7214255457702166
 20
194.6432978772841977
 30
0.0
 40
0.0720513145891333
 50
274.0284744974379123
 51
86.1377856140290561
  0
ARC
  5
F5FC
  8
0
 10
3758.7312505952868378
 20
194.6433121323914861
 30
0.0
 40
0.0720451848977111
 50
93.9571491028755332
 51
266.2091110086300887
  0
ARC
  5
F5FD
  8
0
 10
3758.7260228873778942
 20
194.6377205281054046
 30
0.0
 40
0.040570406287804
 50
271.345888930905403
 51
88.7369845854971544
  0
ARC
  5
F5FE
  8
0
 10
3758.7260229037860881
 20
194.6377198297157065
 30
0.0
 40
0.0405697077054341
 50
88.8270182704728768
 51
271.345888930905403
  0
ARC
  5
F5FF
  8
0
 10
3758.7259555796758832
 20
194.6322410851774123
 30
0.0
 40
0.0240375271672281
 50
270.6370328074248164
 51
88.5469603951224542
  0
ARC
  5
F600
  8
0
 10
3758.7259549638902172
 20
194.6322410895623989
 30
0.0
 40
0.0240375384063102
 50
88.5454928168164201
 51
270.6385003857615743
  0
ARC
  5
F601
  8
0
 10
3758.7239834008018988
 20
194.6966924079729893
 30
0.0
 40
0.0472967734258551
 50
254.2463601621520866
 51
289.2595805184192272
  0
ARC
  5
F602
  8
0
 10
3758.6088155477700639
 20
194.2130706899384904
 30
0.0
 40
0.096708019316174
 50
90.9706707180475576
 51
268.9424601152086893
  0
ARC
  5
F603
  8
0
 10
3758.6054087801371679
 20
194.2130732725294138
 30
0.0
 40
0.0967077301822846
 50
270.960946793036328
 51
88.9521840402068733
  0
ARC
  5
F604
  8
0
 10
3758.6029151069128602
 20
194.2096520205543015
 30
0.0
 40
0.0720513145891333
 50
274.0284744974379123
 51
86.1377856140290561
  0
ARC
  5
F605
  8
0
 10
3758.6127401564290267
 20
194.2096662756615899
 30
0.0
 40
0.0720451848977111
 50
93.9571491028755332
 51
266.2091110086300887
  0
ARC
  5
F606
  8
0
 10
3758.6075124485200831
 20
194.2040746713755084
 30
0.0
 40
0.040570406287804
 50
271.345888930905403
 51
88.7369845854971544
  0
ARC
  5
F607
  8
0
 10
3758.6075124649291865
 20
194.2040739729858103
 30
0.0
 40
0.0405697077054341
 50
88.8270182704728768
 51
271.345888930905403
  0
ARC
  5
F608
  8
0
 10
3758.6074451408180721
 20
194.1985952284474024
 30
0.0
 40
0.0240375271672281
 50
270.6370328074248164
 51
88.5469603951224542
  0
ARC
  5
F609
  8
0
 10
3758.6074445250319513
 20
194.1985952328325027
 30
0.0
 40
0.0240375384063102
 50
88.5454928168164201
 51
270.6385003857615743
  0
ARC
  5
F60A
  8
0
 10
3758.6054729619440877
 20
194.2630465512430931
 30
0.0
 40
0.0472967734258551
 50
254.2463601621520866
 51
289.2595805184192272
  0
ARC
  5
F60B
  8
0
 10
3758.2484377674650204
 20
194.5461093042432879
 30
0.0
 40
0.096708019316174
 50
90.9706707180475576
 51
268.9424601152086893
  0
ARC
  5
F60C
  8
0
 10
3758.245030999833034
 20
194.5461118868342112
 30
0.0
 40
0.0967077301822846
 50
270.960946793036328
 51
88.9521840402068733
  0
ARC
  5
F60D
  8
0
 10
3758.2425373266078168
 20
194.5426906348592127
 30
0.0
 40
0.0720513145891333
 50
274.0284744974379123
 51
86.1377856140290561
  0
ARC
  5
F60E
  8
0
 10
3758.2523623761248928
 20
194.542704889966501
 30
0.0
 40
0.0720451848977111
 50
93.9571491028755332
 51
266.2091110086300887
  0
ARC
  5
F60F
  8
0
 10
3758.2471346682159492
 20
194.5371132856803911
 30
0.0
 40
0.040570406287804
 50
271.345888930905403
 51
88.7369845854971544
  0
ARC
  5
F610
  8
0
 10
3758.2471346846241431
 20
194.537112587290693
 30
0.0
 40
0.0405697077054341
 50
88.8270182704728768
 51
271.345888930905403
  0
ARC
  5
F611
  8
0
 10
3758.2470673605139382
 20
194.5316338427523135
 30
0.0
 40
0.0240375271672281
 50
270.6370328074248164
 51
88.5469603951224542
  0
ARC
  5
F612
  8
0
 10
3758.2470667447278174
 20
194.5316338471374138
 30
0.0
 40
0.0240375384063102
 50
88.5454928168164201
 51
270.6385003857615743
  0
ARC
  5
F613
  8
0
 10
3758.2450951816399538
 20
194.5960851655480042
 30
0.0
 40
0.0472967734258551
 50
254.2463601621520866
 51
289.2595805184192272
  0
ARC
  5
F614
  8
0
 10
3758.3263803992531393
 20
194.9893519709021916
 30
0.0
 40
0.096708019316174
 50
90.9706707180475576
 51
268.9424601152086893
  0
ARC
  5
F615
  8
0
 10
3758.3229736316211529
 20
194.9893545534932002
 30
0.0
 40
0.0967077301822846
 50
270.960946793036328
 51
88.9521840402068733
  0
ARC
  5
F616
  8
0
 10
3758.3204799583959357
 20
194.985933301518088
 30
0.0
 40
0.0720513145891333
 50
274.0284744974379123
 51
86.1377856140290561
  0
ARC
  5
F617
  8
0
 10
3758.3303050079130117
 20
194.9859475566254901
 30
0.0
 40
0.0720451848977111
 50
93.9571491028755332
 51
266.2091110086300887
  0
ARC
  5
F618
  8
0
 10
3758.3250773000040681
 20
194.9803559523392948
 30
0.0
 40
0.040570406287804
 50
271.345888930905403
 51
88.7369845854971544
  0
ARC
  5
F619
  8
0
 10
3758.3250773164118073
 20
194.9803552539495968
 30
0.0
 40
0.0405697077054341
 50
88.8270182704728768
 51
271.345888930905403
  0
ARC
  5
F61A
  8
0
 10
3758.3250099923011476
 20
194.9748765094111889
 30
0.0
 40
0.0240375271672281
 50
270.6370328074248164
 51
88.5469603951224542
  0
ARC
  5
F61B
  8
0
 10
3758.3250093765159363
 20
194.9748765137962891
 30
0.0
 40
0.0240375384063102
 50
88.5454928168164201
 51
270.6385003857615743
  0
ARC
  5
F61C
  8
0
 10
3758.3230378134280727
 20
195.0393278322069932
 30
0.0
 40
0.0472967734258551
 50
254.2463601621520866
 51
289.2595805184192272
  0
ARC
  5
F61D
  8
0
 10
3757.9185126425709313
 20
194.8545879428106105
 30
0.0
 40
0.096708019316174
 50
90.9706707180475576
 51
268.9424601152086893
  0
ARC
  5
F61E
  8
0
 10
3757.9151058749380354
 20
194.8545905254015906
 30
0.0
 40
0.0967077301822846
 50
270.960946793036328
 51
88.9521840402068733
  0
ARC
  5
F61F
  8
0
 10
3757.9126122017141824
 20
194.8511692734265068
 30
0.0
 40
0.0720513145891333
 50
274.0284744974379123
 51
86.1377856140290561
  0
ARC
  5
F620
  8
0
 10
3757.9224372512298942
 20
194.8511835285337952
 30
0.0
 40
0.0720451848977111
 50
93.9571491028755332
 51
266.2091110086300887
  0
ARC
  5
F621
  8
0
 10
3757.9172095433209506
 20
194.8455919242477137
 30
0.0
 40
0.040570406287804
 50
271.345888930905403
 51
88.7369845854971544
  0
ARC
  5
F622
  8
0
 10
3757.9172095597291445
 20
194.8455912258579872
 30
0.0
 40
0.0405697077054341
 50
88.8270182704728768
 51
271.345888930905403
  0
ARC
  5
F623
  8
0
 10
3757.9171422356189396
 20
194.8401124813196077
 30
0.0
 40
0.0240375271672281
 50
270.6370328074248164
 51
88.5469603951224542
  0
ARC
  5
F624
  8
0
 10
3757.9171416198328188
 20
194.840112485704708
 30
0.0
 40
0.0240375384063102
 50
88.5454928168164201
 51
270.6385003857615743
  0
ARC
  5
F625
  8
0
 10
3757.9151700567440457
 20
194.9045638041152984
 30
0.0
 40
0.0472967734258551
 50
254.2463601621520866
 51
289.2595805184192272
  0
ARC
  5
F626
  8
0
 10
3757.7651972529029081
 20
194.4950657862551964
 30
0.0
 40
0.096708019316174
 50
90.9706707180475576
 51
268.9424601152086893
  0
ARC
  5
F627
  8
0
 10
3757.7617904852709216
 20
194.4950683688460913
 30
0.0
 40
0.0967077301822846
 50
270.960946793036328
 51
88.9521840402068733
  0
ARC
  5
F628
  8
0
 10
3757.7592968120470687
 20
194.4916471168710927
 30
0.0
 40
0.0720513145891333
 50
274.0284744974379123
 51
86.1377856140290561
  0
ARC
  5
F629
  8
0
 10
3757.7691218615627804
 20
194.4916613719784095
 30
0.0
 40
0.0720451848977111
 50
93.9571491028755332
 51
266.2091110086300887
  0
ARC
  5
F62A
  8
0
 10
3757.7638941536538368
 20
194.4860697676921859
 30
0.0
 40
0.040570406287804
 50
271.345888930905403
 51
88.7369845854971544
  0
ARC
  5
F62B
  8
0
 10
3757.7638941700620308
 20
194.4860690693024878
 30
0.0
 40
0.0405697077054341
 50
88.8270182704728768
 51
271.345888930905403
  0
ARC
  5
F62C
  8
0
 10
3757.7638268459518258
 20
194.4805903247641936
 30
0.0
 40
0.0240375271672281
 50
270.6370328074248164
 51
88.5469603951224542
  0
ARC
  5
F62D
  8
0
 10
3757.7638262301661598
 20
194.4805903291492086
 30
0.0
 40
0.0240375384063102
 50
88.5454928168164201
 51
270.6385003857615743
  0
ARC
  5
F62E
  8
0
 10
3757.7618546670778414
 20
194.5450416475599127
 30
0.0
 40
0.0472967734258551
 50
254.2463601621520866
 51
289.2595805184192272
  0
CIRCLE
  5
F62F
  8
0
 10
3758.6277641496608339
 20
195.2911791616076016
 30
0.0
 40
0.0907834420507712
  0
LINE
  5
F630
  8
0
 10
3748.8253103523497884
 20
177.4684629586878941
 30
0.0
 11
3748.8686174395361377
 21
177.468462958661803
 31
0.0
  0
LINE
  5
F631
  8
0
 10
3748.8253103523497884
 20
175.8542897303879045
 30
0.0
 11
3748.8686174385638878
 21
175.8542897303618133
 31
0.0
  0
LINE
  5
F632
  8
0
 10
3748.8686174385002232
 20
175.7479893188927065
 30
0.0
 11
3748.8686174395998023
 21
177.5747633710126081
 31
0.0
  0
ARC
  5
F633
  8
0
 10
3748.9001135025728217
 20
177.574763370993594
 30
0.0
 40
0.0314960629736361
 50
89.4999997912209437
 51
179.9999999654997964
  0
LINE
  5
F634
  8
0
 10
3748.900388354200004
 20
177.6062582346926035
 30
0.0
 11
3750.9436954406778568
 21
177.588426556446791
 31
0.0
  0
ARC
  5
F635
  8
0
 10
3750.9434205894408478
 20
177.556931692595299
 30
0.0
 40
0.0314960631226107
 50
359.9862003552599958
 51
89.5000005017446369
  0
LINE
  5
F636
  8
0
 10
3750.9749166516498917
 20
177.5569241067927067
 30
0.0
 11
3750.9749166516489822
 21
175.7658286324287076
 31
0.0
  0
ARC
  5
F637
  8
0
 10
3750.9434205142588326
 20
175.7658210630777944
 30
0.0
 40
0.0314961383003036
 50
270.500133099508389
 51
0.0137696836265901
  0
LINE
  5
F638
  8
0
 10
3750.9436954395919201
 20
175.734326124666012
 30
0.0
 11
3748.900388352992195
 21
175.7164944551660994
 31
0.0
  0
ARC
  5
F639
  8
0
 10
3748.9001135020939728
 20
175.7479893204443897
 30
0.0
 40
0.0314960645199766
 50
179.9861040404094013
 51
270.4999988743421113
  0
LINE
  5
F63A
  8
0
 10
3743.6734940161518352
 20
174.899456602681596
 30
0.0
 11
3743.6383070941578808
 21
174.9172818555213098
 31
0.0
  0
LINE
  5
F63B
  8
0
 10
3743.6383070941578808
 20
174.9172818555213098
 30
0.0
 11
3744.5635039445501207
 21
174.9172818555256015
 31
0.0
  0
LINE
  5
F63C
  8
0
 10
3744.5635039445501207
 20
174.9172818555256015
 30
0.0
 11
3744.5283069034830987
 21
174.8994362015642139
 31
0.0
  0
ARC
  5
F63D
  8
0
 10
3749.0653116458479417
 20
177.3155796530346038
 30
0.0
 40
0.0401683255312272
 50
12.8678591751842095
 51
165.6748195337852962
  0
ARC
  5
F63E
  8
0
 10
3749.0651682624838941
 20
177.3043057922012906
 30
0.0
 40
0.0441989572976616
 50
27.2236528320697708
 51
151.3190258769064087
  0
ARC
  5
F63F
  8
0
 10
3749.0656616704432054
 20
177.343101176157603
 30
0.0
 40
0.0430260789519477
 50
204.1204576940332913
 51
334.4222210149497982
  0
ARC
  5
F640
  8
0
 10
3739.2143178513911153
 20
177.3155796530346038
 30
0.0
 40
0.0401683255312272
 50
12.8678591751842095
 51
165.6748195337852962
  0
ARC
  5
F641
  8
0
 10
3739.2141744680279771
 20
177.3043057922012906
 30
0.0
 40
0.0441989572976616
 50
27.2236528320697708
 51
151.3190258769064087
  0
ARC
  5
F642
  8
0
 10
3739.2146678759859242
 20
177.343101176157603
 30
0.0
 40
0.0430260789519477
 50
204.1204576940332913
 51
334.4222210149497982
  0
ARC
  5
F643
  8
0
 10
3758.3232475099280236
 20
197.1996009905116125
 30
0.0
 40
0.0935412996378184
 50
269.4175705811096009
 51
90.5200901519926191
  0
ARC
  5
F644
  8
0
 10
3758.3212978303058662
 20
197.1996020511622021
 30
0.0
 40
0.0935428600368413
 50
89.3258638017161246
 51
270.6117969314050811
  0
ARC
  5
F646
  8
0
 10
3750.7931758233348774
 20
162.556292346597786
 30
0.0
 40
6.932902476884637
 50
230.7759931986082904
 51
270.0022889016175895
  0
ARC
  5
F647
  8
0
 10
3750.7909933555538373
 20
162.5683812800938881
 30
0.0
 40
6.9449918403273943
 50
270.0202901501725137
 51
317.5911510298225267
  0
ARC
  5
F648
  8
0
 10
3750.6986540723210055
 20
162.6567588636108894
 30
0.0
 40
7.0727745814830909
 50
317.5670220030103792
 51
0.0165475300837941
  0
ARC
  5
F649
  8
0
 10
3750.7979994594129494
 20
162.5720665551257014
 30
0.0
 40
6.3778303555636366
 50
224.5346721492595066
 51
269.9592730147069233
  0
ARC
  5
F64A
  8
0
 10
3750.7979861404178337
 20
162.553329049169605
 30
0.0
 40
6.3590928448738904
 50
269.9592730147069233
 51
318.4918027903157167
  0
ARC
  5
F64B
  8
0
 10
3750.6682062156050961
 20
162.668181732485607
 30
0.0
 40
6.5323959543357839
 50
318.4918027903157167
 51
359.8294259288305739
  0
ENDSEC
  0
EOF
