  0
SECTION
  2
HEADER
  9
$ACADVER
  1
AC1009
  9
$INSBASE
 10
153.5131939280927895
 20
-16.4351780460740109
 30
0.0
  9
$EXTMIN
 10
152.5022675920849053
 20
-23.0656140034241517
 30
-0.0000000000112498
  9
$EXTMAX
 10
155.6653368099561021
 20
-14.6166221522088708
 30
0.0000000000002956
  9
$LIMMIN
 10
0.0
 20
0.0
  9
$LIMMAX
 10
11.6929133858000007
 20
8.2677165353999982
  9
$ORTHOMODE
 70
     0
  9
$REGENMODE
 70
     1
  9
$FILLMODE
 70
     1
  9
$QTEXTMODE
 70
     0
  9
$MIRRTEXT
 70
     0
  9
$DRAGMODE
 70
     2
  9
$LTSCALE
 40
0.6431102362
  9
$OSMODE
 70
  4095
  9
$ATTMODE
 70
     1
  9
$TEXTSIZE
 40
0.2
  9
$TRACEWID
 40
0.05
  9
$TEXTSTYLE
  7
STANDARD
  9
$CLAYER
  8
0
  9
$CELTYPE
  6
BYLAYER
  9
$CECOLOR
 62
   256
  9
$DIMSCALE
 40
1.0
  9
$DIMASZ
 40
0.1875
  9
$DIMEXO
 40
0.0625
  9
$DIMDLI
 40
0.4443307087
  9
$DIMRND
 40
0.0
  9
$DIMDLE
 40
0.0
  9
$DIMEXE
 40
0.125
  9
$DIMTP
 40
0.01
  9
$DIMTM
 40
0.01
  9
$DIMTXT
 40
1.0
  9
$DIMCEN
 40
0.1052362205
  9
$DIMTSZ
 40
0.0
  9
$DIMTOL
 70
     1
  9
$DIMLIM
 70
     0
  9
$DIMTIH
 70
     1
  9
$DIMTOH
 70
     1
  9
$DIMSE1
 70
     0
  9
$DIMSE2
 70
     0
  9
$DIMTAD
 70
     0
  9
$DIMZIN
 70
     0
  9
$DIMBLK
  1

  9
$DIMASO
 70
     1
  9
$DIMSHO
 70
     1
  9
$DIMPOST
  1
\X
  9
$DIMAPOST
  1

  9
$DIMALT
 70
     1
  9
$DIMALTD
 70
     2
  9
$DIMALTF
 40
25.3999999999999986
  9
$DIMLFAC
 40
1.0
  9
$DIMTOFL
 70
     0
  9
$DIMTVP
 40
0.0
  9
$DIMTIX
 70
     0
  9
$DIMSOXD
 70
     0
  9
$DIMSAH
 70
     0
  9
$DIMBLK1
  1

  9
$DIMBLK2
  1

  9
$DIMSTYLE
  2
STANDARD
  9
$DIMCLRD
 70
     0
  9
$DIMCLRE
 70
     0
  9
$DIMCLRT
 70
     0
  9
$DIMTFAC
 40
1.0
  9
$DIMGAP
 40
0.09
  9
$LUNITS
 70
     2
  9
$LUPREC
 70
     4
  9
$SKETCHINC
 40
0.1
  9
$FILLETRAD
 40
0.0
  9
$AUNITS
 70
     0
  9
$AUPREC
 70
     0
  9
$MENU
  1
.
  9
$ELEVATION
 40
0.0
  9
$PELEVATION
 40
0.0
  9
$THICKNESS
 40
0.0
  9
$LIMCHECK
 70
     0
  9
$BLIPMODE
 70
     0
  9
$CHAMFERA
 40
0.0
  9
$CHAMFERB
 40
0.0
  9
$SKPOLY
 70
     0
  9
$TDCREATE
 40
2458172.4620254631154239
  9
$TDUPDATE
 40
2460073.6564236111007631
  9
$TDINDWG
 40
0.1058161227
  9
$TDUSRTIMER
 40
0.1058161227
  9
$USRTIMER
 70
     1
  9
$ANGBASE
 50
0.0
  9
$ANGDIR
 70
     0
  9
$PDMODE
 70
     0
  9
$PDSIZE
 40
0.3125
  9
$PLINEWID
 40
0.0
  9
$COORDS
 70
     1
  9
$SPLFRAME
 70
     0
  9
$SPLINETYPE
 70
     6
  9
$SPLINESEGS
 70
     8
  9
$ATTDIA
 70
     1
  9
$ATTREQ
 70
     1
  9
$HANDLING
 70
     1
  9
$HANDSEED
  5
4508
  9
$SURFTAB1
 70
     6
  9
$SURFTAB2
 70
     6
  9
$SURFTYPE
 70
     6
  9
$SURFU
 70
     6
  9
$SURFV
 70
     6
  9
$UCSNAME
  2

  9
$UCSORG
 10
0.0
 20
0.0
 30
0.0
  9
$UCSXDIR
 10
1.0
 20
0.0
 30
0.0
  9
$UCSYDIR
 10
0.0
 20
1.0
 30
0.0
  9
$PUCSNAME
  2

  9
$PUCSORG
 10
0.0
 20
0.0
 30
0.0
  9
$PUCSXDIR
 10
1.0
 20
0.0
 30
0.0
  9
$PUCSYDIR
 10
0.0
 20
1.0
 30
0.0
  9
$USERI1
 70
     0
  9
$USERI2
 70
     0
  9
$USERI3
 70
     0
  9
$USERI4
 70
     0
  9
$USERI5
 70
     0
  9
$USERR1
 40
0.0
  9
$USERR2
 40
0.0
  9
$USERR3
 40
0.0
  9
$USERR4
 40
0.0
  9
$USERR5
 40
0.0
  9
$WORLDVIEW
 70
     1
  9
$SHADEDGE
 70
     3
  9
$SHADEDIF
 70
    70
  9
$TILEMODE
 70
     1
  9
$MAXACTVP
 70
    64
  9
$PLIMCHECK
 70
     0
  9
$PEXTMIN
 10
1.0000000000000000E+20
 20
1.0000000000000000E+20
 30
1.0000000000000000E+20
  9
$PEXTMAX
 10
-1.0000000000000000E+20
 20
-1.0000000000000000E+20
 30
-1.0000000000000000E+20
  9
$PLIMMIN
 10
0.0
 20
0.0
  9
$PLIMMAX
 10
12.0
 20
9.0
  9
$UNITMODE
 70
     0
  9
$VISRETAIN
 70
     1
  9
$PLINEGEN
 70
     0
  9
$PSLTSCALE
 70
     1
  0
ENDSEC
  0
SECTION
  2
TABLES
  0
TABLE
  2
VPORT
 70
     1
  0
VPORT
  2
*ACTIVE
 70
     0
 10
0.0
 20
0.0
 11
1.0
 21
1.0
 12
29.4726436009478796
 22
-24.1533922481943399
 13
0.0
 23
0.0
 14
1.0
 24
1.0
 15
0.0
 25
0.0
 16
0.0
 26
0.0
 36
30.6214257250603907
 17
124.6111586000725993
 27
5.3122741703778242
 37
0.0
 40
8.5251088949199172
 41
2.8436090225563899
 42
50.0
 43
0.0
 44
0.0
 50
0.0
 51
0.0
 71
     0
 72
   100
 73
     1
 74
     1
 75
     0
 76
     0
 77
     0
 78
     0
  0
ENDTAB
  0
TABLE
  2
LTYPE
 70
     2
  0
LTYPE
  2
CONTINUOUS
 70
     0
  3
Solid line
 72
    65
 73
     0
 40
0.0
  0
LTYPE
  2
PHANTOM2
 70
     0
  3
___ _ _ ___ _ _ ___ _ _ ___ _ _
 72
    65
 73
     6
 40
1.25
 49
0.625
 49
-0.125
 49
0.125
 49
-0.125
 49
0.125
 49
-0.125
  0
ENDTAB
  0
TABLE
  2
LAYER
 70
     2
  0
LAYER
  2
0
 70
     0
 62
   255
  6
CONTINUOUS
  0
LAYER
  2
DEFPOINTS
 70
     0
 62
     7
  6
CONTINUOUS
  0
ENDTAB
  0
TABLE
  2
STYLE
 70
     1
  0
STYLE
  2
STANDARD
 70
     0
 40
0.0
 41
0.8
 50
0.0
 71
     0
 42
0.2
  3
txt
  4

  0
ENDTAB
  0
TABLE
  2
VIEW
 70
     0
  0
ENDTAB
  0
TABLE
  2
UCS
 70
     0
  0
ENDTAB
  0
TABLE
  2
APPID
 70
     9
  0
APPID
  2
ACAD
 70
     0
  0
APPID
  2
ACAD_MLEADERVER
 70
     0
  0
APPID
  2
ACAD_EXEMPT_FROM_CAD_STANDARDS
 70
     0
  0
APPID
  2
ACAD_DSTYLE_DIMJAG
 70
     0
  0
APPID
  2
ACAD_DSTYLE_DIMTALN
 70
     0
  0
APPID
  2
ACAD_NAV_VCDISPLAY
 70
     0
  0
APPID
  2
ACAECLAYERSTANDARD
 70
     0
  0
APPID
  2
ACCMTRANSPARENCY
 70
     0
  0
APPID
  2
ACDBATTR
 70
     0
  0
ENDTAB
  0
TABLE
  2
DIMSTYLE
 70
     1
  0
DIMSTYLE
  2
STANDARD
 70
     0
  3

  4

  5

  6

  7

 40
1.0
 41
0.1875
 42
0.0625
 43
0.38
 44
0.125
 45
0.0
 46
0.0
 47
0.01
 48
0.01
140
0.15625
141
0.09
142
0.0
143
25.3999999999999986
144
1.0
145
0.0
146
1.0
147
0.09
 71
     1
 72
     0
 73
     1
 74
     1
 75
     0
 76
     0
 77
     0
 78
     4
170
     0
171
     2
172
     0
173
     0
174
     0
175
     0
176
     0
177
     0
178
     0
  0
ENDTAB
  0
ENDSEC
  0
SECTION
  2
BLOCKS
  0
BLOCK
  8
0
  2
$MODEL_SPACE
 70
     0
 10
0.0
 20
0.0
 30
0.0
  3
$MODEL_SPACE
  1

  0
ENDBLK
  5
21
  8
0
  0
BLOCK
 67
     1
  8
0
  2
$PAPER_SPACE
 70
     0
 10
0.0
 20
0.0
 30
0.0
  3
$PAPER_SPACE
  1

  0
ENDBLK
  5
1D
 67
     1
  8
0
  0
BLOCK
  8
0
  2
_FILLED
 70
     0
 10
0.0
 20
0.0
 30
0.0
  3
_FILLED
  1

  0
SOLID
  5
2F06
  8
0
  6
BYBLOCK
 62
     0
 10
0.0
 20
0.0
 30
0.0
 11
-1.0
 21
0.1666666667
 31
0.0
 12
-1.0
 22
-0.1666666667
 32
0.0
 13
-1.0
 23
-0.1666666667
 33
0.0
  0
ENDBLK
  5
2F07
  8
0
  6
BYBLOCK
 62
     0
  0
ENDSEC
  0
SECTION
  2
ENTITIES
  0
ATTDEF
  5
3825
  8
DEFPOINTS
 10
153.5034307966668905
 20
-16.4308543737286392
 30
0.0
 40
0.001
  1
K-73167T-4E2
  3

  2
MODELNUMBER
 70
     0
1001
ACDBATTR
1070
     0
1070
     1
  0
ATTDEF
  5
3826
  8
DEFPOINTS
 10
153.5034307966668905
 20
-16.4325210403953115
 30
0.0
 40
0.001
  1
COMPOSED
  3

  2
TRADENAME
 70
     0
1001
ACDBATTR
1070
     0
1070
     1
  0
ATTDEF
  5
3827
  8
DEFPOINTS
 10
153.5034307966668905
 20
-16.4341877070619695
 30
0.0
 40
0.001
  1
BATHROOM SINK FAUCET
  3

  2
PRODUCT
 70
     0
1001
ACDBATTR
1070
     0
1070
     1
  0
LINE
  5
3E88
  8
0
 10
152.9737138496628859
 20
-23.0639151405895788
 30
0.0
 11
154.0524540071629076
 21
-23.0639151405895788
 31
0.0
  0
ARC
  5
3E89
  8
0
 10
154.0519283551147964
 20
-22.9129553546597187
 30
0.0
 40
0.1509415147211616
 50
270.1995322809672757
 51
354.2892582749042276
  0
ARC
  5
3E8A
  8
0
 10
154.0519283551147964
 20
-22.9129553546597187
 30
0.0
 40
0.1509415147211616
 50
5.710741725095823
 51
5.9368083677211967
  0
ARC
  5
3E8B
  8
0
 10
152.9742176663999942
 20
-22.91297496827044
 30
0.0
 40
0.1509218267578396
 50
186.5037965209697006
 51
269.8087312689069108
  0
ARC
  5
3E8C
  8
0
 10
154.7925501831770987
 20
-15.7857139351112608
 30
0.0
 40
0.0198273180955756
 50
2.5039499050831182
 51
89.8228463160325106
  0
ARC
  5
3E8D
  8
0
 10
154.7926373804509126
 20
-17.0847478610667096
 30
0.0
 40
0.0197215449206997
 50
269.9247746885785091
 51
359.6562277705028237
  0
LINE
  5
3E8E
  8
0
 10
154.7926114874628922
 20
-17.10446938888958
 30
0.0
 11
154.2021207368584896
 21
-17.1059637811543013
 31
0.0
  0
LINE
  5
3E8F
  8
0
 10
154.8123585703899892
 20
-15.7914778026813192
 30
0.0
 11
154.8326049553571977
 21
-15.7916539504933198
 31
0.0
  0
LINE
  5
3E90
  8
0
 10
154.8326049553571977
 20
-15.7916539504933198
 30
0.0
 11
154.8326049549949914
 21
-15.7916539503791409
 31
0.0
  0
ARC
  5
3E91
  8
0
 10
154.6284494389381052
 20
-16.4379042592905407
 30
0.0
 40
0.677730725660893
 50
63.4245440988503688
 51
72.4682667606130195
  0
ARC
  5
3E92
  8
0
 10
155.6155958120407945
 20
-17.0547391272409605
 30
0.0
 40
0.047443293824802
 50
278.1287446686744147
 51
339.3684470031078035
  0
ARC
  5
3E93
  8
0
 10
155.6159431382355933
 20
-15.8147768690466908
 30
0.0
 40
0.0465627336638973
 50
18.8965752811614287
 51
82.1481212533093554
  0
LINE
  5
3E94
  8
0
 10
155.6223041940747862
 20
-15.7686506819631393
 30
0.0
 11
154.9316499089700869
 21
-15.76262326724998
 31
0.0
  0
LINE
  5
3E95
  8
0
 10
154.8123585703899892
 20
-17.0788782978981786
 30
0.0
 11
154.8326049554237898
 21
-17.0787021502000016
 31
0.0
  0
LINE
  5
3E96
  8
0
 10
153.4048179304809025
 20
-15.7547469673717
 30
0.0
 11
153.4048118826532914
 21
-14.6369220740895702
 31
0.0
  0
ARC
  5
3E97
  8
0
 10
153.4244969238133933
 20
-14.63692207481885
 30
0.0
 40
0.0196850411601484
 50
89.9805787360773337
 51
179.9999978792735078
  0
LINE
  5
3E98
  8
0
 10
153.4245035963531905
 20
-14.6172370347895804
 30
0.0
 11
153.6018842598278979
 21
-14.6172370347895804
 31
0.0
  0
ARC
  5
3E99
  8
0
 10
154.6284493929051962
 20
-16.4324517213570296
 30
0.0
 40
0.6777308539872805
 50
287.531733893391106
 51
296.575454825685199
  0
LINE
  5
3E9A
  8
0
 10
154.7926114874668997
 20
-15.7658867117895802
 30
0.0
 11
154.2603843791756049
 21
-15.7647870429579697
 31
0.0
  0
LINE
  5
3E9B
  8
0
 10
154.2603843791756049
 20
-15.7647870429579697
 30
0.0
 11
153.621351644962914
 21
-15.7491520640920601
 31
0.0
  0
LINE
  5
3E9C
  8
0
 10
153.621351644962914
 20
-15.7491520640920601
 30
0.0
 11
153.5509370144808088
 21
-15.7472148848480504
 31
0.0
  0
ARC
  5
3E9D
  8
0
 10
155.3371013989253981
 20
-15.7976632652555402
 30
0.0
 40
0.03150024900014
 50
89.5031959200111231
 51
176.3325993998595038
  0
ARC
  5
3E9E
  8
0
 10
155.3371033472334943
 20
-17.0726923590283199
 30
0.0
 40
0.0315022028246972
 50
183.667443685876691
 51
269.9933537768304177
  0
LINE
  5
3E9F
  8
0
 10
154.9316499089700869
 20
-17.1077326817174793
 30
0.0
 11
155.6223041940747862
 21
-17.1017057509160004
 31
0.0
  0
LINE
  5
3EA0
  8
0
 10
154.8326049553571977
 20
-17.0787021502005807
 30
0.0
 11
154.8326049553571977
 21
-15.7916539504933198
 31
0.0
  0
LINE
  5
3EA1
  8
0
 10
152.8242671193270894
 20
-16.4351780460740109
 30
0.0
 11
152.8242671193270894
 21
-22.9300697401164904
 31
0.0
  0
LINE
  5
3EA2
  8
0
 10
153.6215699559461996
 20
-15.7491574054265993
 30
0.0
 11
153.6215759735324013
 21
-14.6369220740895702
 31
0.0
  0
ARC
  5
3EA3
  8
0
 10
153.6018909323722141
 20
-14.63692207481885
 30
0.0
 40
0.0196850411601484
 50
0.0000021207264847
 51
90.0194212639226663
  0
ARC
  5
3EA4
  8
0
 10
153.5131939280927895
 20
-16.4351780460740109
 30
0.0
 40
0.6889268087656717
 50
0.0
 51
180.0
  0
ARC
  5
3EA5
  8
0
 10
153.5131939280927895
 20
-16.4351780460740109
 30
0.0
 40
1.0038841512323691
 50
96.197638984998477
 51
226.6651205064873125
  0
ARC
  5
3EA6
  8
0
 10
153.5131939280927895
 20
-16.4351780460740109
 30
0.0
 40
1.0038841512323691
 50
41.8972697740905176
 51
83.8023610150015514
  0
LINE
  5
3EA7
  8
0
 10
154.2021207368584896
 20
-16.4351780460740109
 30
0.0
 11
154.2021207368584896
 21
-22.9279749862295184
 31
0.0
  0
LINE
  5
3EA8
  8
0
 10
155.6599963602627099
 20
-17.0714561080252203
 30
0.0
 11
155.6599963602627099
 21
-15.7996970217235706
 31
0.0
  0
LINE
  5
3EA9
  8
0
 10
155.305665656970092
 20
-15.79564836704537
 30
0.0
 11
155.305665656970092
 21
-17.0747074058547099
 31
0.0
  0
LINE
  5
3EAA
  8
0
 10
154.9316499089700869
 20
-17.1077326817174793
 30
0.0
 11
154.9316499089700869
 21
-15.76262326724998
 31
0.0
  0
LINE
  5
3EAB
  8
0
 10
154.8123585703899892
 20
-17.0848661887835114
 30
0.0
 11
154.8123585703899892
 21
-15.7848477140733596
 31
0.0
  0
ENDSEC
  0
EOF
