  0
SECTION
  2
HEADER
  9
$ACADVER
  1
AC1009
  9
$INSBASE
 10
4189.4856684880078319
 20
181.5837964360626131
 30
0.0
  9
$EXTMIN
 10
4188.4817314801066459
 20
181.5837964360626131
 30
0.0
  9
$EXTMAX
 10
4191.6325189322578808
 20
186.3532690601547017
 30
0.0
  9
$LIMMIN
 10
0.0
 20
0.0
  9
$LIMMAX
 10
11.6929133858000007
 20
8.2677165353999982
  9
$ORTHOMODE
 70
     1
  9
$REGENMODE
 70
     1
  9
$FILLMODE
 70
     1
  9
$QTEXTMODE
 70
     0
  9
$MIRRTEXT
 70
     0
  9
$DRAGMODE
 70
     2
  9
$LTSCALE
 40
0.6431102362
  9
$OSMODE
 70
  4095
  9
$ATTMODE
 70
     1
  9
$TEXTSIZE
 40
0.2
  9
$TRACEWID
 40
0.05
  9
$TEXTSTYLE
  7
STANDARD
  9
$CLAYER
  8
0
  9
$CELTYPE
  6
BYLAYER
  9
$CECOLOR
 62
   256
  9
$DIMSCALE
 40
1.0
  9
$DIMASZ
 40
0.1875
  9
$DIMEXO
 40
0.0625
  9
$DIMDLI
 40
0.4443307087
  9
$DIMRND
 40
0.0
  9
$DIMDLE
 40
0.0
  9
$DIMEXE
 40
0.125
  9
$DIMTP
 40
0.01
  9
$DIMTM
 40
0.01
  9
$DIMTXT
 40
2.0
  9
$DIMCEN
 40
0.1052362205
  9
$DIMTSZ
 40
0.0
  9
$DIMTOL
 70
     1
  9
$DIMLIM
 70
     0
  9
$DIMTIH
 70
     1
  9
$DIMTOH
 70
     1
  9
$DIMSE1
 70
     0
  9
$DIMSE2
 70
     0
  9
$DIMTAD
 70
     0
  9
$DIMZIN
 70
     0
  9
$DIMBLK
  1

  9
$DIMASO
 70
     1
  9
$DIMSHO
 70
     1
  9
$DIMPOST
  1
\X
  9
$DIMAPOST
  1

  9
$DIMALT
 70
     1
  9
$DIMALTD
 70
     2
  9
$DIMALTF
 40
25.3999999999999986
  9
$DIMLFAC
 40
1.0
  9
$DIMTOFL
 70
     0
  9
$DIMTVP
 40
0.0
  9
$DIMTIX
 70
     0
  9
$DIMSOXD
 70
     0
  9
$DIMSAH
 70
     0
  9
$DIMBLK1
  1

  9
$DIMBLK2
  1

  9
$DIMSTYLE
  2
STANDARD
  9
$DIMCLRD
 70
     0
  9
$DIMCLRE
 70
     0
  9
$DIMCLRT
 70
     0
  9
$DIMTFAC
 40
1.0
  9
$DIMGAP
 40
0.09
  9
$LUNITS
 70
     2
  9
$LUPREC
 70
     4
  9
$SKETCHINC
 40
0.1
  9
$FILLETRAD
 40
0.0
  9
$AUNITS
 70
     0
  9
$AUPREC
 70
     0
  9
$MENU
  1
.
  9
$ELEVATION
 40
0.0
  9
$PELEVATION
 40
0.0
  9
$THICKNESS
 40
0.0
  9
$LIMCHECK
 70
     0
  9
$BLIPMODE
 70
     0
  9
$CHAMFERA
 40
0.0
  9
$CHAMFERB
 40
0.0
  9
$SKPOLY
 70
     0
  9
$TDCREATE
 40
2458060.468368056230247
  9
$TDUPDATE
 40
2459613.4622685192152858
  9
$TDINDWG
 40
0.459659838
  9
$TDUSRTIMER
 40
0.459659838
  9
$USRTIMER
 70
     1
  9
$ANGBASE
 50
0.0
  9
$ANGDIR
 70
     0
  9
$PDMODE
 70
     0
  9
$PDSIZE
 40
0.3125
  9
$PLINEWID
 40
0.0
  9
$COORDS
 70
     1
  9
$SPLFRAME
 70
     0
  9
$SPLINETYPE
 70
     6
  9
$SPLINESEGS
 70
     8
  9
$ATTDIA
 70
     1
  9
$ATTREQ
 70
     1
  9
$HANDLING
 70
     1
  9
$HANDSEED
  5
10C6C
  9
$SURFTAB1
 70
     6
  9
$SURFTAB2
 70
     6
  9
$SURFTYPE
 70
     6
  9
$SURFU
 70
     6
  9
$SURFV
 70
     6
  9
$UCSNAME
  2

  9
$UCSORG
 10
0.0
 20
0.0
 30
0.0
  9
$UCSXDIR
 10
1.0
 20
0.0
 30
0.0
  9
$UCSYDIR
 10
0.0
 20
1.0
 30
0.0
  9
$PUCSNAME
  2

  9
$PUCSORG
 10
0.0
 20
0.0
 30
0.0
  9
$PUCSXDIR
 10
1.0
 20
0.0
 30
0.0
  9
$PUCSYDIR
 10
0.0
 20
1.0
 30
0.0
  9
$USERI1
 70
     0
  9
$USERI2
 70
     0
  9
$USERI3
 70
     0
  9
$USERI4
 70
     0
  9
$USERI5
 70
     0
  9
$USERR1
 40
0.0
  9
$USERR2
 40
0.0
  9
$USERR3
 40
0.0
  9
$USERR4
 40
0.0
  9
$USERR5
 40
0.0
  9
$WORLDVIEW
 70
     1
  9
$SHADEDGE
 70
     3
  9
$SHADEDIF
 70
    70
  9
$TILEMODE
 70
     1
  9
$MAXACTVP
 70
    64
  9
$PLIMCHECK
 70
     0
  9
$PEXTMIN
 10
1.0000000000000000E+20
 20
1.0000000000000000E+20
 30
1.0000000000000000E+20
  9
$PEXTMAX
 10
-1.0000000000000000E+20
 20
-1.0000000000000000E+20
 30
-1.0000000000000000E+20
  9
$PLIMMIN
 10
0.0
 20
0.0
  9
$PLIMMAX
 10
12.0
 20
9.0
  9
$UNITMODE
 70
     0
  9
$VISRETAIN
 70
     1
  9
$PLINEGEN
 70
     0
  9
$PSLTSCALE
 70
     1
  0
ENDSEC
  0
SECTION
  2
TABLES
  0
TABLE
  2
VPORT
 70
     1
  0
VPORT
  2
*ACTIVE
 70
     0
 10
0.0
 20
0.0
 11
1.0
 21
1.0
 12
386.5130578233702181
 22
57.9732705513587518
 13
0.0
 23
0.0
 14
1.0
 24
1.0
 15
0.0
 25
0.0
 16
0.0
 26
0.0
 36
17.1152628219792007
 17
3803.5440673828129547
 27
125.9952621967499056
 37
0.0
 40
4.803621592760976
 41
2.2831541218637992
 42
50.0
 43
0.0
 44
0.0
 50
0.0
 51
0.0
 71
     0
 72
   100
 73
     1
 74
     1
 75
     0
 76
     0
 77
     0
 78
     0
  0
ENDTAB
  0
TABLE
  2
LTYPE
 70
     2
  0
LTYPE
  2
CONTINUOUS
 70
     0
  3
Solid line
 72
    65
 73
     0
 40
0.0
  0
LTYPE
  2
PHANTOM2
 70
     0
  3
___ _ _ ___ _ _ ___ _ _ ___ _ _
 72
    65
 73
     6
 40
1.25
 49
0.625
 49
-0.125
 49
0.125
 49
-0.125
 49
0.125
 49
-0.125
  0
ENDTAB
  0
TABLE
  2
LAYER
 70
     2
  0
LAYER
  2
0
 70
     0
 62
   255
  6
CONTINUOUS
  0
LAYER
  2
DEFPOINTS
 70
     0
 62
     7
  6
CONTINUOUS
  0
ENDTAB
  0
TABLE
  2
STYLE
 70
     1
  0
STYLE
  2
STANDARD
 70
     0
 40
0.0
 41
0.8
 50
0.0
 71
     0
 42
0.2
  3
txt
  4

  0
ENDTAB
  0
TABLE
  2
VIEW
 70
     0
  0
ENDTAB
  0
TABLE
  2
UCS
 70
     0
  0
ENDTAB
  0
TABLE
  2
APPID
 70
     9
  0
APPID
  2
ACAD
 70
     0
  0
APPID
  2
ACAD_MLEADERVER
 70
     0
  0
APPID
  2
ACAD_EXEMPT_FROM_CAD_STANDARDS
 70
     0
  0
APPID
  2
ACAD_NAV_VCDISPLAY
 70
     0
  0
APPID
  2
ACAECLAYERSTANDARD
 70
     0
  0
APPID
  2
ACCMTRANSPARENCY
 70
     0
  0
APPID
  2
ACAD_DSTYLE_DIMJAG
 70
     0
  0
APPID
  2
ACAD_DSTYLE_DIMTALN
 70
     0
  0
APPID
  2
ACDBATTR
 70
     0
  0
ENDTAB
  0
TABLE
  2
DIMSTYLE
 70
     1
  0
DIMSTYLE
  2
STANDARD
 70
     0
  3

  4

  5

  6

  7

 40
1.0
 41
0.1875
 42
0.0625
 43
0.38
 44
0.125
 45
0.0
 46
0.0
 47
0.01
 48
0.01
140
0.15625
141
0.09
142
0.0
143
25.3999999999999986
144
1.0
145
0.0
146
1.0
147
0.09
 71
     1
 72
     0
 73
     1
 74
     1
 75
     0
 76
     0
 77
     0
 78
     4
170
     0
171
     2
172
     0
173
     0
174
     0
175
     0
176
     0
177
     0
178
     0
  0
ENDTAB
  0
ENDSEC
  0
SECTION
  2
BLOCKS
  0
BLOCK
  8
0
  2
$MODEL_SPACE
 70
     0
 10
0.0
 20
0.0
 30
0.0
  3
$MODEL_SPACE
  1

  0
ENDBLK
  5
21
  8
0
  0
BLOCK
 67
     1
  8
0
  2
$PAPER_SPACE
 70
     0
 10
0.0
 20
0.0
 30
0.0
  3
$PAPER_SPACE
  1

  0
ENDBLK
  5
1D
 67
     1
  8
0
  0
BLOCK
  8
0
  2
_FILLED
 70
     0
 10
0.0
 20
0.0
 30
0.0
  3
_FILLED
  1

  0
SOLID
  5
FAB7
  8
0
  6
BYBLOCK
 62
     0
 10
0.0
 20
0.0
 30
0.0
 11
-1.0
 21
0.1666666667
 31
0.0
 12
-1.0
 22
-0.1666666667
 32
0.0
 13
-1.0
 23
-0.1666666667
 33
0.0
  0
ENDBLK
  5
FAB8
  8
0
  6
BYBLOCK
 62
     0
  0
ENDSEC
  0
SECTION
  2
ENTITIES
  0
ATTDEF
  5
FFCD
  8
DEFPOINTS
 10
4189.4863976135766279
 20
181.5882936991876875
 30
0.0
 40
0.001
  1
K-73167T-B4
  3

  2
MODELNUMBER
 70
     0
1001
ACDBATTR
1070
     0
1070
     1
  0
ATTDEF
  5
FFCE
  8
DEFPOINTS
 10
4189.4863976135766279
 20
181.5866270325209939
 30
0.0
 40
0.001
  1
COMPOSED
  3

  2
TRADENAME
 70
     0
1001
ACDBATTR
1070
     0
1070
     1
  0
ATTDEF
  5
FFCF
  8
DEFPOINTS
 10
4189.4863976135766279
 20
181.5849603658543003
 30
0.0
 40
0.001
  1
BATHROOM SINK FAUCET
  3

  2
PRODUCT
 70
     0
1001
ACDBATTR
1070
     0
1070
     1
  0
LINE
  5
1057C
  8
0
 10
4188.4817314801066459
 20
181.5837964360626131
 30
0.0
 11
4190.4896054959071989
 21
181.5837964360626131
 31
0.0
  0
LINE
  5
1057D
  8
0
 10
4188.7966921101078697
 20
181.7727703041346956
 30
0.0
 11
4188.7966927209354253
 21
185.5421054568639079
 31
0.0
  0
LINE
  5
1057E
  8
0
 10
4188.7966927209354253
 20
185.6004093664357981
 30
0.0
 11
4188.7966921101078697
 21
186.3186435935423901
 31
0.0
  0
LINE
  5
1057F
  8
0
 10
4190.1746448660069291
 20
181.7727728139626038
 30
0.0
 11
4190.1746448660069291
 21
183.7022866316345926
 31
0.0
  0
LINE
  5
10580
  8
0
 10
4190.1746448660069291
 20
185.3001501790662076
 30
0.0
 11
4190.1746454768363037
 21
185.5426196203613074
 31
0.0
  0
LINE
  5
10581
  8
0
 10
4190.1746454768363037
 20
185.6006458134538946
 30
0.0
 11
4190.1746448660069291
 21
186.3176510040626965
 31
0.0
  0
ARC
  5
10582
  8
0
 10
4188.5014165318289088
 20
181.7215917041214084
 30
0.0
 40
0.0196850517215857
 50
90.0403456467087153
 51
179.9999780504199123
  0
LINE
  5
10583
  8
0
 10
4188.4817314801066459
 20
181.7215917116625974
 30
0.0
 11
4188.4817314801066459
 21
181.5837964360626131
 31
0.0
  0
LINE
  5
10584
  8
0
 10
4190.4896054959071989
 20
181.5837964360626131
 30
0.0
 11
4190.4896054959071989
 21
181.7215917116625974
 31
0.0
  0
ARC
  5
10585
  8
0
 10
4190.4699204566077242
 20
181.7215917116625974
 30
0.0
 40
0.0196850392999997
 50
0.0
 51
90.0000002910875878
  0
ARC
  5
10586
  8
0
 10
4188.8281881726343272
 20
181.7727728135886878
 30
0.0
 40
0.0314960626260604
 50
180.0045650507034054
 51
270.0000006801944892
  0
ARC
  5
10587
  8
0
 10
4190.1431488030084438
 20
181.7727728139626038
 30
0.0
 40
0.0314960629999999
 50
270.0
 51
0.0
  0
ARC
  5
10588
  8
0
 10
4188.8290014091116973
 20
186.3174184786273031
 30
0.0
 40
0.0323325178226799
 50
143.4872179062269026
 51
177.8284796142962136
  0
ARC
  5
10589
  8
0
 10
4188.8280790950975643
 20
186.3181012735695106
 30
0.0
 40
0.0311849673558998
 50
113.5746508769050962
 51
143.4872179062269026
  0
ARC
  5
1058A
  8
0
 10
4188.8322133736792239
 20
186.3086268601994959
 30
0.0
 40
0.0415221220941135
 50
95.8407008324860357
 51
113.5746508769050962
  0
ARC
  5
1058B
  8
0
 10
4188.8690900208966923
 20
185.9481303249359883
 30
0.0
 40
0.4038998794787665
 50
92.0819129807659351
 51
95.8407008324860357
  0
ARC
  5
1058C
  8
0
 10
4188.9666206871661416
 20
183.2651959163218862
 30
0.0
 40
3.0886064317463089
 50
91.0647451233747631
 51
92.0819129807659351
  0
ARC
  5
1058D
  8
0
 10
4190.0252256452677102
 20
183.1078930748741129
 30
0.0
 40
3.245375985280607
 50
89.1519119103867581
 51
90.003302795108624
  0
ARC
  5
1058E
  8
0
 10
4190.0455006841020804
 20
184.4775495148471123
 30
0.0
 40
1.875569487719968
 50
87.772035901281825
 51
89.1519119103867581
  0
ARC
  5
1058F
  8
0
 10
4190.1064438462781254
 20
186.044013655378393
 30
0.0
 40
0.307920301011853
 50
82.157329690618937
 51
87.772035901281825
  0
ARC
  5
10590
  8
0
 10
4190.1419560351678228
 20
186.3165232593212863
 30
0.0
 40
0.033174493547397
 50
40.4373196460196525
 51
78.692667177033826
  0
ARC
  5
10591
  8
0
 10
4190.1374292174450602
 20
186.3156248623014051
 30
0.0
 40
0.0372707626486189
 50
3.116293296863665
 51
36.9726571324732589
  0
ARC
  5
10592
  8
0
 10
4188.8285756286250034
 20
185.5404314114306885
 30
0.0
 40
0.031926675857955
 50
163.2739411333153896
 51
177.1667121322541902
  0
ARC
  5
10593
  8
0
 10
4188.8299503499811181
 20
185.5400182936475062
 30
0.0
 40
0.0333621287849689
 50
124.3118880818806957
 51
163.2739411333153896
  0
ARC
  5
10594
  8
0
 10
4188.8356669534678076
 20
185.5316418002662999
 30
0.0
 40
0.0435033908755813
 50
99.8982229039882554
 51
124.3118880818816052
  0
ARC
  5
10595
  8
0
 10
4188.9212888947313331
 20
185.040960340571786
 30
0.0
 40
0.5415991765570182
 50
94.2280510170251091
 51
99.8982229039882554
  0
ARC
  5
10596
  8
0
 10
4189.1210257284692489
 20
182.3391723983181976
 30
0.0
 40
3.2507600960409611
 50
91.2361142393964144
 51
94.2280510170251091
  0
ARC
  5
10597
  8
0
 10
4189.4912020181045591
 20
168.740283311176114
 30
0.0
 40
16.8546448152534296
 50
88.9117568431138352
 51
91.4969409765894852
  0
ARC
  5
10598
  8
0
 10
4189.7220637564869321
 20
179.4123027372799868
 30
0.0
 40
6.1802297435776374
 50
87.3289278337258139
 51
89.1725835803365356
  0
ARC
  5
10599
  8
0
 10
4189.8940149913260029
 20
183.0980667722637065
 30
0.0
 40
2.4904568848854911
 50
84.8230703492105391
 51
87.3289278337258139
  0
ARC
  5
1059A
  8
0
 10
4190.1022616750178713
 20
185.3965659707895952
 30
0.0
 40
0.182543271490676
 50
76.2682874550209107
 51
84.8230703492105391
  0
ARC
  5
1059B
  8
0
 10
4190.134896724733153
 20
185.5301190294750882
 30
0.0
 40
0.0450606691216649
 50
49.7749354790659524
 51
76.2682874550209107
  0
ARC
  5
1059C
  8
0
 10
4190.1456578660972809
 20
185.5428418269752058
 30
0.0
 40
0.0283971839014516
 50
16.9855515401600989
 51
49.7749354790649008
  0
ARC
  5
1059D
  8
0
 10
4190.1237011285329572
 20
185.5361350326122931
 30
0.0
 40
0.0513553940901172
 50
7.2540375109096873
 51
16.9855515401600989
  0
ARC
  5
1059E
  8
0
 10
4190.1372507092582964
 20
185.6068412677327046
 30
0.0
 40
0.0379045155077248
 50
292.669157375091288
 51
350.5928557763646722
  0
ARC
  5
1059F
  8
0
 10
4188.8310526466611918
 20
185.6044905476759936
 30
0.0
 40
0.0346014528056276
 50
186.773705730227789
 51
250.1375867757384981
  0
LINE
  5
105A0
  8
0
 10
4188.8212768207067711
 20
185.8024045305625975
 30
0.0
 11
4190.1500601553079832
 21
185.8024045305625975
 31
0.0
  0
ARC
  5
105A1
  8
0
 10
4188.8232166627631159
 20
185.8295653199095909
 30
0.0
 40
0.0272299736531466
 50
193.070140831101412
 51
265.9148330472266935
  0
ARC
  5
105A2
  8
0
 10
4190.1481203132516384
 20
185.8295653199095909
 30
0.0
 40
0.0272299736531466
 50
274.0851669527731929
 51
346.929859168898588
  0
ARC
  5
105A4
  8
0
 10
4189.4853871584373337
 20
193.5342964174996894
 30
0.0
 40
7.9018234310451563
 50
269.5734159983159088
 51
270.002039908543793
  0
ARC
  5
105A5
  8
0
 10
4189.4855108512174411
 20
177.9820426244878888
 30
0.0
 40
7.6700785103946219
 50
89.9988224471328522
 51
90.8848767663665029
  0
ARC
  5
105A6
  8
0
 10
4189.4336878225121836
 20
181.3373174643919867
 30
0.0
 40
4.3144034847704784
 50
90.8848767663665029
 51
92.1588678403556543
  0
ARC
  5
105A7
  8
0
 10
4189.3148875359420344
 20
184.4887532928765097
 30
0.0
 40
1.160729232545709
 50
92.1588678403556543
 51
94.4912801573814534
  0
ARC
  5
105A8
  8
0
 10
4189.2383890856781363
 20
185.4626531918210048
 30
0.0
 40
0.1838295314215246
 50
94.4912801573814534
 51
99.0527265557286114
  0
ARC
  5
105A9
  8
0
 10
4189.2136299924231935
 20
185.6180502747646983
 30
0.0
 40
0.0264724022972378
 50
99.0527265557286114
 51
108.2286161841343954
  0
ARC
  5
105AA
  8
0
 10
4189.2062787360500806
 20
185.640371668597794
 30
0.0
 40
0.0029716450135525
 50
108.2286161841343954
 51
132.3305684363567138
  0
ARC
  5
105AB
  8
0
 10
4189.2045971664092576
 20
185.6422948688646954
 30
0.0
 40
0.0004207171075323
 50
139.4248168814607141
 51
197.0184045800241961
  0
ARC
  5
105AC
  8
0
 10
4189.2048654480004188
 20
185.6424718746573035
 30
0.0
 40
0.0007346811857583
 50
204.1126530253397959
 51
227.2451332689390995
  0
ARC
  5
105AD
  8
0
 10
4189.2057245459909609
 20
185.6434010832720105
 30
0.0
 40
0.002000176348509
 50
227.2451332689358026
 51
251.6749287363068106
  0
ARC
  5
105AE
  8
0
 10
4189.2151569838333671
 20
185.6718803319647861
 30
0.0
 40
0.0320008178377713
 50
251.6749287363068106
 51
262.1987071165892189
  0
ARC
  5
105AF
  8
0
 10
4189.2519910525797968
 20
185.9407304728578083
 30
0.0
 40
0.3033624711319241
 50
262.1987071165892189
 51
266.4740914055722101
  0
ARC
  5
105B0
  8
0
 10
4189.3651216125272185
 20
187.7767733047211038
 30
0.0
 40
2.1428873565385831
 50
266.4740914055722101
 51
267.5966150420860004
  0
ARC
  5
105B1
  8
0
 10
4189.375402772934649
 20
188.0217284709129046
 30
0.0
 40
2.388058186172533
 50
267.5966150420860004
 51
268.9650388109153027
  0
ARC
  5
105B2
  8
0
 10
4189.9970386511377001
 20
222.4319446975063954
 30
0.0
 40
36.8038890191771415
 50
268.9650388109153027
 51
269.056731571293426
  0
ARC
  5
105B3
  8
0
 10
4189.4356879876786479
 20
188.3376009836258902
 30
0.0
 40
2.7049244036995872
 50
269.056731571293426
 51
269.8065718282657031
  0
LINE
  5
105B4
  8
0
 10
4189.4817314801521206
 20
185.6512956868074866
 30
0.0
 11
4189.4817314801066459
 21
185.6493030944625957
 31
0.0
  0
LINE
  5
105B5
  8
0
 10
4189.4817314801066459
 20
185.6493030944625957
 30
0.0
 11
4189.4413465747084047
 21
185.6491315875896078
 31
0.0
  0
LINE
  5
105B6
  8
0
 10
4189.4413465747084047
 20
185.6491315875896078
 30
0.0
 11
4189.426562617606578
 21
185.6510571491625967
 31
0.0
  0
LINE
  5
105B7
  8
0
 10
4189.426562617606578
 20
185.6510571491625967
 30
0.0
 11
4189.4413465747084047
 21
185.651162162262608
 31
0.0
  0
LINE
  5
105B8
  8
0
 10
4189.4413465747084047
 20
185.651162162262608
 30
0.0
 11
4189.4817314801521206
 21
185.6512956868074866
 31
0.0
  0
LINE
  5
105B9
  8
0
 10
4189.4817314801066459
 20
185.6490969542626033
 30
0.0
 11
4189.4817314801066459
 21
185.6471040848626046
 31
0.0
  0
LINE
  5
105BA
  8
0
 10
4189.4817314801066459
 20
185.6471040848626046
 30
0.0
 11
4189.4202085263077606
 21
185.6465287657626106
 31
0.0
  0
LINE
  5
105BB
  8
0
 10
4189.4202085263077606
 20
185.6465287657626106
 30
0.0
 11
4189.3916569779075871
 21
185.6482546412626107
 31
0.0
  0
LINE
  5
105BC
  8
0
 10
4189.3916569779075871
 20
185.6482546412626107
 30
0.0
 11
4189.4202085263077606
 21
185.6487031365626024
 31
0.0
  0
LINE
  5
105BD
  8
0
 10
4189.4202085263077606
 20
185.6487031365626024
 30
0.0
 11
4189.4817314801066459
 21
185.6490969542626033
 31
0.0
  0
LINE
  5
105BE
  8
0
 10
4189.4856684880078319
 20
185.6468999487626093
 30
0.0
 11
4189.4546855069065714
 21
185.646769504062604
 31
0.0
  0
LINE
  5
105BF
  8
0
 10
4189.4546855069065714
 20
185.646769504062604
 30
0.0
 11
4189.4231625422071374
 21
185.646350202362612
 31
0.0
  0
LINE
  5
105C0
  8
0
 10
4189.4231625422071374
 20
185.646350202362612
 30
0.0
 11
4189.4546855069538651
 21
185.6444447116564902
 31
0.0
  0
LINE
  5
105C1
  8
0
 10
4189.4546855069538651
 20
185.6444447116564902
 30
0.0
 11
4189.4856684879850945
 21
185.6447015552955122
 31
0.0
  0
LINE
  5
105C2
  8
0
 10
4189.4856684879632667
 20
185.6444954558940026
 30
0.0
 11
4189.4754398415070682
 21
185.6444657790069073
 31
0.0
  0
LINE
  5
105C3
  8
0
 10
4189.4754398415070682
 20
185.6444657790069073
 30
0.0
 11
4189.4576435498065621
 21
185.6442659046626034
 31
0.0
  0
LINE
  5
105C4
  8
0
 10
4189.4576435498065621
 20
185.6442659046626034
 30
0.0
 11
4189.4754398414879688
 21
185.6431901596650107
 31
0.0
  0
LINE
  5
105C5
  8
0
 10
4189.4754398414879688
 20
185.6431901596650107
 30
0.0
 11
4189.4856684880078319
 21
185.6432588595542086
 31
0.0
  0
ARC
  5
105C6
  8
0
 10
4189.2291519848631651
 20
185.6414603546211026
 30
0.0
 40
0.001646520008856
 50
108.5433467971309938
 51
143.7282418453615946
  0
ARC
  5
105C7
  8
0
 10
4189.2379780969868079
 20
185.6151480574037009
 30
0.0
 40
0.0293996683009232
 50
96.4812568580884857
 51
108.5433467971309938
  0
ARC
  5
105C8
  8
0
 10
4189.3015713489439804
 20
189.849359351434714
 30
0.0
 40
4.2055318556830104
 50
269.0883608708281258
 51
269.8400911610339108
  0
ARC
  5
105C9
  8
0
 10
4189.2888013607589528
 20
185.6361899023214903
 30
0.0
 40
0.007352680200744
 50
106.2579822990472991
 51
121.8654426986833954
  0
ARC
  5
105CA
  8
0
 10
4189.2937193534144171
 20
185.6148243499202124
 30
0.0
 40
0.0292678418734282
 50
99.3446336048744314
 51
103.7901424273483997
  0
ARC
  5
105CB
  8
0
 10
4189.298440201628182
 20
185.5878290375646031
 30
0.0
 40
0.0566721165116799
 50
98.7347102189149552
 51
99.6225629363426464
  0
LINE
  5
105CC
  8
0
 10
4189.2849196883080367
 20
185.6424344619626083
 30
0.0
 11
4189.2278245275074369
 21
185.6424344619626083
 31
0.0
  0
LINE
  5
105CD
  8
0
 10
4189.2387354064076135
 20
185.6448906987625946
 30
0.0
 11
4189.2604005641078402
 21
185.6466773830626096
 31
0.0
  0
LINE
  5
105CE
  8
0
 10
4189.2604005641078402
 20
185.6466773830626096
 30
0.0
 11
4189.3098464237082226
 21
185.6456810868625951
 31
0.0
  0
LINE
  5
105CF
  8
0
 10
4189.3098464237082226
 20
185.6456810868625951
 30
0.0
 11
4189.2939098855076736
 21
185.6443747461626117
 31
0.0
  0
LINE
  5
105D0
  8
0
 10
4189.2939098855076736
 20
185.6443747461626117
 30
0.0
 11
4189.2387354064076135
 21
185.6448906987625946
 31
0.0
  0
LINE
  5
105D1
  8
0
 10
4189.2643375719080723
 20
185.6469153661626024
 30
0.0
 11
4189.2978412768079579
 21
185.6484635127625893
 31
0.0
  0
LINE
  5
105D2
  8
0
 10
4189.2978412768079579
 20
185.6484635127625893
 30
0.0
 11
4189.3382317988071009
 21
185.6470539038625986
 31
0.0
  0
LINE
  5
105D3
  8
0
 10
4189.3382317988071009
 20
185.6470539038625986
 30
0.0
 11
4189.3137834316066801
 21
185.6459190699625879
 31
0.0
  0
LINE
  5
105D4
  8
0
 10
4189.3137834316066801
 20
185.6459190699625879
 30
0.0
 11
4189.2643375719080723
 21
185.6469153661626024
 31
0.0
  0
LINE
  5
105D5
  8
0
 10
4189.3089768166637441
 20
185.6488521374674008
 30
0.0
 11
4189.3533369589076756
 21
185.6500213999626112
 31
0.0
  0
LINE
  5
105D6
  8
0
 10
4189.3533369589076756
 20
185.6500213999626112
 30
0.0
 11
4189.3818845393279844
 21
185.6482957643742111
 31
0.0
  0
LINE
  5
105D7
  8
0
 10
4189.3818845393279844
 20
185.6482957643742111
 30
0.0
 11
4189.3493673387074523
 21
185.6474425286629923
 31
0.0
  0
LINE
  5
105D8
  8
0
 10
4189.3493673387074523
 20
185.6474425286629923
 30
0.0
 11
4189.3089768182417174
 21
185.6488521375090954
 31
0.0
  0
LINE
  5
105D9
  8
0
 10
4189.3188987681078288
 20
185.6458159998626058
 30
0.0
 11
4189.3494619938937831
 21
185.6471610502227918
 31
0.0
  0
LINE
  5
105DA
  8
0
 10
4189.3494619938937831
 20
185.6471610502227918
 30
0.0
 11
4189.368351500506833
 21
185.6477267384626089
 31
0.0
  0
LINE
  5
105DB
  8
0
 10
4189.368351500506833
 20
185.6477267384626089
 30
0.0
 11
4189.38483788020676
 21
185.6481172416625895
 31
0.0
  0
LINE
  5
105DC
  8
0
 10
4189.38483788020676
 20
185.6481172416625895
 30
0.0
 11
4189.4133894286069335
 21
185.6463913661625895
 31
0.0
  0
LINE
  5
105DD
  8
0
 10
4189.4133894286069335
 20
185.6463913661625895
 30
0.0
 11
4189.368351500506833
 21
185.6448195652261859
 31
0.0
  0
LINE
  5
105DE
  8
0
 10
4189.368351500506833
 20
185.6448195652261859
 30
0.0
 11
4189.3188987681078288
 21
185.6458159998626058
 31
0.0
  0
LINE
  5
105DF
  8
0
 10
4189.2908263701074247
 20
185.6424344619626083
 30
0.0
 11
4189.3479294669068622
 21
185.6424344619626083
 31
0.0
  0
ARC
  5
105E0
  8
0
 10
4189.3495687849635942
 20
185.6402090364441051
 30
0.0
 40
0.0027640337243794
 50
101.2573177121495007
 51
126.3765223314994017
  0
ARC
  5
105E1
  8
0
 10
4189.3586902580600508
 20
185.5988651813433137
 30
0.0
 40
0.0451015903266819
 50
95.2303222952580484
 51
102.3689808504574046
  0
ARC
  5
105E2
  8
0
 10
4189.3794039027116014
 20
185.4002215724406994
 30
0.0
 40
0.2448193144233488
 50
93.5102108624162156
 51
95.8198907806816038
  0
ARC
  5
105E3
  8
0
 10
4189.2915724124168264
 20
185.6419156605026046
 30
0.0
 40
0.0009086991147735
 50
111.0948253867590978
 51
145.1850602709021132
  0
ARC
  5
105E4
  8
0
 10
4189.295994887787856
 20
185.6309847991103936
 30
0.0
 40
0.0127001953175868
 50
98.9477443642515766
 51
111.9608397458832059
  0
ARC
  5
105E5
  8
0
 10
4189.3101745596986802
 20
185.5501368063432039
 30
0.0
 40
0.0947805585842641
 50
95.359152669339494
 51
99.8137587233947841
  0
ARC
  5
105E6
  8
0
 10
4189.3442460680807926
 20
185.186934365978999
 30
0.0
 40
0.4595775985530274
 50
93.6533650841411855
 51
95.359152669339494
  0
ARC
  5
105E7
  8
0
 10
4189.3591232303833749
 20
187.0188770681126016
 30
0.0
 40
1.374008922782838
 50
268.1581621095028254
 51
269.5332180977397911
  0
ARC
  5
105E8
  8
0
 10
4189.3954353227745742
 20
187.5933746992211013
 30
0.0
 40
1.949039995839601
 50
268.6033356785491151
 51
269.0880445286884992
  0
LINE
  5
105E9
  8
0
 10
4189.3538374986073904
 20
185.6424344619626083
 30
0.0
 11
4189.4168834281081217
 21
185.6424344619626083
 31
0.0
  0
LINE
  5
105EA
  8
0
 10
4189.4478664092066538
 20
185.6443073119625922
 30
0.0
 11
4189.4293734592956753
 21
185.6436833671023976
 31
0.0
  0
ARC
  5
105EB
  8
0
 10
4189.4337061402884501
 20
185.5152680892533965
 30
0.0
 40
0.1284883485365095
 50
91.9324040416435651
 51
95.6198507185045656
  0
ARC
  5
105EC
  8
0
 10
4189.426952030727989
 20
185.5839069533741963
 30
0.0
 40
0.059517980524075
 50
95.6198507185045656
 51
98.6960159099102441
  0
ARC
  5
105ED
  8
0
 10
4189.4186175123722933
 20
185.6383986161779092
 30
0.0
 40
0.0043926187446054
 50
98.6960159099102441
 51
113.2517746062644051
  0
ARC
  5
105EE
  8
0
 10
4189.354651124922384
 20
185.6415706240489953
 30
0.0
 40
0.0011866775974042
 50
108.2235475546244032
 51
133.2854752348576142
  0
ARC
  5
105EF
  8
0
 10
4189.3588184065947644
 20
185.62891329929721
 30
0.0
 40
0.0145123710657312
 50
96.8122689199981608
 51
108.2235475546244032
  0
ARC
  5
105F0
  8
0
 10
4189.3735346013791059
 20
185.5248627125220082
 30
0.0
 40
0.1195955075045827
 50
94.202340078138235
 51
97.8999286830813134
  0
ARC
  5
105F1
  8
0
 10
4189.4019512523627782
 20
185.1530549276835984
 30
0.0
 40
0.4924872397454907
 50
92.4920778191666813
 51
94.329682736953913
  0
ARC
  5
105F2
  8
0
 10
4189.3516790413623312
 20
186.7242671416724136
 30
0.0
 40
1.07957652246694
 50
271.5317607148907086
 51
272.6449932461054004
  0
ARC
  5
105F3
  8
0
 10
4189.4162294758916687
 20
185.3269706350845922
 30
0.0
 40
0.3192101967725117
 50
89.8826205160295757
 51
92.6449932461054431
  0
ARC
  5
105F4
  8
0
 10
4189.4798170016847507
 20
186.4300888323334959
 30
0.0
 40
0.7864308222062237
 50
265.4100376789249935
 51
267.6715840397744728
  0
LINE
  5
105F5
  8
0
 10
4189.4227995139081031
 20
185.6424344619626083
 30
0.0
 11
4189.4583920973082058
 21
185.6424344619626083
 31
0.0
  0
ARC
  5
105F6
  8
0
 10
4189.4598799220148067
 20
185.635787938178396
 30
0.0
 40
0.0068110131975053
 50
95.6080950650978565
 51
102.6176558264627943
  0
ARC
  5
105F7
  8
0
 10
4189.4667440872472071
 20
185.5658834637129075
 30
0.0
 40
0.0770516874156636
 50
92.6580574292258063
 51
95.6080950650978565
  0
ARC
  5
105F8
  8
0
 10
4189.4763198642458519
 20
185.3596208218131949
 30
0.0
 40
0.2835364881844846
 50
91.5559949181383388
 51
92.6580574292258063
  0
ARC
  5
105F9
  8
0
 10
4189.5362266077981985
 20
186.846388359461713
 30
0.0
 40
1.2052332211595631
 50
266.2972355955225794
 51
266.7843859353368998
  0
LINE
  5
105FA
  8
0
 10
4189.4583920973082058
 20
185.6436710583625995
 30
0.0
 11
4189.450824452107554
 21
185.6441285050626107
 31
0.0
  0
LINE
  5
105FB
  8
0
 10
4189.450824452107554
 20
185.6441285050626107
 30
0.0
 11
4189.4348214182591619
 21
185.6435947297437963
 31
0.0
  0
ARC
  5
105FC
  8
0
 10
4189.4465974966333306
 20
185.3939998632868082
 30
0.0
 40
0.2498725142618957
 50
92.7012559176704656
 51
94.3630651710103052
  0
ARC
  5
105FD
  8
0
 10
4189.4313430913070988
 20
185.5939333842233054
 30
0.0
 40
0.0493579021362545
 50
94.3630651710103052
 51
98.7426900351920835
  0
ARC
  5
105FE
  8
0
 10
4189.4245677186781904
 20
185.6379910717510882
 30
0.0
 40
0.0047822865537615
 50
98.7426900351920835
 51
111.6996109023460946
  0
LINE
  5
105FF
  8
0
 10
4189.3887036370078931
 20
185.6484331638822027
 30
0.0
 11
4189.4261351443601598
 21
185.6489893410430909
 31
0.0
  0
LINE
  5
10600
  8
0
 10
4189.4261351443601598
 20
185.6489893410430909
 30
0.0
 11
4189.4113511872083109
 21
185.6509149026466048
 31
0.0
  0
LINE
  5
10601
  8
0
 10
4189.4113511872083109
 20
185.6509149026466048
 30
0.0
 11
4189.3601560565493855
 21
185.6501587995471994
 31
0.0
  0
LINE
  5
10602
  8
0
 10
4189.3601560565493855
 20
185.6501587995471994
 30
0.0
 11
4189.3887036380747304
 21
185.6484331638980905
 31
0.0
  0
LINE
  5
10603
  8
0
 10
4189.3887036380747304
 20
185.6484331638980905
 30
0.0
 11
4189.3887036380747304
 21
185.6505804200137106
 31
0.0
  0
LINE
  5
10604
  8
0
 10
4189.2849196883080367
 20
185.6424344619626083
 30
0.0
 11
4189.2849196883080367
 21
185.6438604617233921
 31
0.0
  0
LINE
  5
10605
  8
0
 10
4189.2939098855076736
 20
185.6443747461626117
 30
0.0
 11
4189.2939098855076736
 21
185.6460021959015023
 31
0.0
  0
LINE
  5
10606
  8
0
 10
4189.3137834316066801
 20
185.6459190699625879
 30
0.0
 11
4189.3137834316066801
 21
185.6479071395795017
 31
0.0
  0
LINE
  5
10607
  8
0
 10
4189.3493673387010858
 20
185.6474425286627081
 30
0.0
 11
4189.3493673387010858
 21
185.649916767114405
 31
0.0
  0
LINE
  5
10608
  8
0
 10
4189.3479294669068622
 20
185.6449137427119069
 30
0.0
 11
4189.3479294669068622
 21
185.6424344619626083
 31
0.0
  0
LINE
  5
10609
  8
0
 10
4189.368351500506833
 20
185.6477267384626089
 30
0.0
 11
4189.368351500506833
 21
185.6448195652261859
 31
0.0
  0
LINE
  5
1060A
  8
0
 10
4189.4202085263077606
 20
185.6465287657626106
 30
0.0
 11
4189.4202405998239556
 21
185.6487033418700037
 31
0.0
  0
LINE
  5
1060B
  8
0
 10
4189.4168834281081217
 20
185.6461801619944936
 30
0.0
 11
4189.4168834281081217
 21
185.6424344619626083
 31
0.0
  0
LINE
  5
1060C
  8
0
 10
4189.441346575249554
 20
185.6491315875919099
 30
0.0
 11
4189.441346575249554
 21
185.6511621622643986
 31
0.0
  0
LINE
  5
1060D
  8
0
 10
4189.4546855069538651
 20
185.6444447116564902
 30
0.0
 11
4189.4546855069538651
 21
185.646769504062803
 31
0.0
  0
LINE
  5
1060E
  8
0
 10
4189.4583921080848086
 20
185.6436710576651876
 30
0.0
 11
4189.4583921080848086
 21
185.6424344643749862
 31
0.0
  0
LINE
  5
1060F
  8
0
 10
4189.4754398415070682
 20
185.6444657790069073
 30
0.0
 11
4189.4754398415070682
 21
185.6431901596652096
 31
0.0
  0
ARC
  5
10610
  8
0
 10
4189.4336878225121836
 20
189.9472766603333014
 30
0.0
 40
4.3144034847704784
 50
267.8411321596444168
 51
269.1151232336334829
  0
LINE
  5
10611
  8
0
 10
4189.4817314801521206
 20
185.6332984379178015
 30
0.0
 11
4189.4817314801066459
 21
185.6352910302626071
 31
0.0
  0
LINE
  5
10612
  8
0
 10
4189.4817314801066459
 20
185.6352910302626071
 30
0.0
 11
4189.4413465747084047
 21
185.6354625371355951
 31
0.0
  0
LINE
  5
10613
  8
0
 10
4189.4413465747084047
 20
185.6354625371355951
 30
0.0
 11
4189.426562617606578
 21
185.6335369755626061
 31
0.0
  0
LINE
  5
10614
  8
0
 10
4189.426562617606578
 20
185.6335369755626061
 30
0.0
 11
4189.4413465747084047
 21
185.6334319624625948
 31
0.0
  0
LINE
  5
10615
  8
0
 10
4189.4413465747084047
 20
185.6334319624625948
 30
0.0
 11
4189.4817314801521206
 21
185.6332984379178015
 31
0.0
  0
LINE
  5
10616
  8
0
 10
4189.4817314801066459
 20
185.6354971704625996
 30
0.0
 11
4189.4817314801066459
 21
185.6374900398625982
 31
0.0
  0
LINE
  5
10617
  8
0
 10
4189.4817314801066459
 20
185.6374900398625982
 30
0.0
 11
4189.4202085263077606
 21
185.6380653589625922
 31
0.0
  0
LINE
  5
10618
  8
0
 10
4189.4202085263077606
 20
185.6380653589625922
 30
0.0
 11
4189.3916569779075871
 21
185.6363394834625922
 31
0.0
  0
LINE
  5
10619
  8
0
 10
4189.3916569779075871
 20
185.6363394834625922
 30
0.0
 11
4189.4202085263077606
 21
185.6358909881626005
 31
0.0
  0
LINE
  5
1061A
  8
0
 10
4189.4202085263077606
 20
185.6358909881626005
 30
0.0
 11
4189.4817314801066459
 21
185.6354971704625996
 31
0.0
  0
LINE
  5
1061B
  8
0
 10
4189.4856684880078319
 20
185.6376941759625936
 30
0.0
 11
4189.4546855069065714
 21
185.6378246206625988
 31
0.0
  0
LINE
  5
1061C
  8
0
 10
4189.4546855069065714
 20
185.6378246206625988
 30
0.0
 11
4189.4231625422071374
 21
185.6382439223625909
 31
0.0
  0
LINE
  5
1061D
  8
0
 10
4189.4231625422071374
 20
185.6382439223625909
 30
0.0
 11
4189.4546855069538651
 21
185.6401494130687126
 31
0.0
  0
LINE
  5
1061E
  8
0
 10
4189.4546855069538651
 20
185.6401494130687126
 30
0.0
 11
4189.4856684879850945
 21
185.6398925694296906
 31
0.0
  0
LINE
  5
1061F
  8
0
 10
4189.4856684879632667
 20
185.6400986688312003
 30
0.0
 11
4189.4754398415070682
 21
185.6401283457184093
 31
0.0
  0
LINE
  5
10620
  8
0
 10
4189.4754398415070682
 20
185.6401283457184093
 30
0.0
 11
4189.4576435498065621
 21
185.6403282200625995
 31
0.0
  0
LINE
  5
10621
  8
0
 10
4189.4576435498065621
 20
185.6403282200625995
 30
0.0
 11
4189.4754398414879688
 21
185.6414039650601921
 31
0.0
  0
LINE
  5
10622
  8
0
 10
4189.4754398414879688
 20
185.6414039650601921
 30
0.0
 11
4189.4856684880078319
 21
185.6413352651711079
 31
0.0
  0
ARC
  5
10623
  8
0
 10
4189.2291519848631651
 20
185.6431337701041002
 30
0.0
 40
0.001646520008856
 50
216.2717581546384054
 51
251.4566532028688925
  0
ARC
  5
10624
  8
0
 10
4189.2379780969868079
 20
185.6694460673215872
 30
0.0
 40
0.0293996683009232
 50
251.4566532028688925
 51
263.5187431419115001
  0
ARC
  5
10625
  8
0
 10
4189.3015713489439804
 20
181.4352347732904889
 30
0.0
 40
4.2055318556830104
 50
90.1599088389660892
 51
90.9116391291719452
  0
ARC
  5
10626
  8
0
 10
4189.2888013607589528
 20
185.6484042224037125
 30
0.0
 40
0.007352680200744
 50
238.1345573013165904
 51
253.7420177009526867
  0
ARC
  5
10627
  8
0
 10
4189.2937193534144171
 20
185.6697697748049904
 30
0.0
 40
0.0292678418734282
 50
256.2098575726515719
 51
260.6553663951256112
  0
ARC
  5
10628
  8
0
 10
4189.298440201628182
 20
185.6967650871605997
 30
0.0
 40
0.0566721165116799
 50
260.3774370636572826
 51
261.2652897810850732
  0
LINE
  5
10629
  8
0
 10
4189.2849196883080367
 20
185.6421596627625945
 30
0.0
 11
4189.2278245275074369
 21
185.6421596627625945
 31
0.0
  0
LINE
  5
1062A
  8
0
 10
4189.2387354064076135
 20
185.6397034259626082
 30
0.0
 11
4189.2604005641078402
 21
185.6379167416625933
 31
0.0
  0
LINE
  5
1062B
  8
0
 10
4189.2604005641078402
 20
185.6379167416625933
 30
0.0
 11
4189.3098464237082226
 21
185.6389130378626078
 31
0.0
  0
LINE
  5
1062C
  8
0
 10
4189.3098464237082226
 20
185.6389130378626078
 30
0.0
 11
4189.2939098855076736
 21
185.6402193785625911
 31
0.0
  0
LINE
  5
1062D
  8
0
 10
4189.2939098855076736
 20
185.6402193785625911
 30
0.0
 11
4189.2387354064076135
 21
185.6397034259626082
 31
0.0
  0
LINE
  5
1062E
  8
0
 10
4189.2643375719080723
 20
185.6376787585626005
 30
0.0
 11
4189.2978412768079579
 21
185.6361306119626136
 31
0.0
  0
LINE
  5
1062F
  8
0
 10
4189.2978412768079579
 20
185.6361306119626136
 30
0.0
 11
4189.3382317988071009
 21
185.6375402208626042
 31
0.0
  0
LINE
  5
10630
  8
0
 10
4189.3382317988071009
 20
185.6375402208626042
 30
0.0
 11
4189.3137834316066801
 21
185.6386750547625866
 31
0.0
  0
LINE
  5
10631
  8
0
 10
4189.3137834316066801
 20
185.6386750547625866
 30
0.0
 11
4189.2643375719080723
 21
185.6376787585626005
 31
0.0
  0
LINE
  5
10632
  8
0
 10
4189.3089768166637441
 20
185.6357419872578021
 30
0.0
 11
4189.3533369589076756
 21
185.6345727247625916
 31
0.0
  0
LINE
  5
10633
  8
0
 10
4189.3533369589076756
 20
185.6345727247625916
 30
0.0
 11
4189.3818845393279844
 21
185.6362983603509917
 31
0.0
  0
LINE
  5
10634
  8
0
 10
4189.3818845393279844
 20
185.6362983603509917
 30
0.0
 11
4189.3493673387074523
 21
185.6371515960622958
 31
0.0
  0
LINE
  5
10635
  8
0
 10
4189.3493673387074523
 20
185.6371515960622958
 30
0.0
 11
4189.3089768182417174
 21
185.6357419872161927
 31
0.0
  0
LINE
  5
10636
  8
0
 10
4189.3188987681078288
 20
185.638778124862597
 30
0.0
 11
4189.3494619938937831
 21
185.637433074502411
 31
0.0
  0
LINE
  5
10637
  8
0
 10
4189.3494619938937831
 20
185.637433074502411
 30
0.0
 11
4189.368351500506833
 21
185.636867386262594
 31
0.0
  0
LINE
  5
10638
  8
0
 10
4189.368351500506833
 20
185.636867386262594
 30
0.0
 11
4189.38483788020676
 21
185.6364768830626133
 31
0.0
  0
LINE
  5
10639
  8
0
 10
4189.38483788020676
 20
185.6364768830626133
 30
0.0
 11
4189.4133894286069335
 21
185.6382027585626133
 31
0.0
  0
LINE
  5
1063A
  8
0
 10
4189.4133894286069335
 20
185.6382027585626133
 30
0.0
 11
4189.368351500506833
 21
185.6397745594991022
 31
0.0
  0
LINE
  5
1063B
  8
0
 10
4189.368351500506833
 20
185.6397745594991022
 30
0.0
 11
4189.3188987681078288
 21
185.638778124862597
 31
0.0
  0
LINE
  5
1063C
  8
0
 10
4189.2908263701074247
 20
185.6421596627625945
 30
0.0
 11
4189.3479294669068622
 21
185.6421596627625945
 31
0.0
  0
ARC
  5
1063D
  8
0
 10
4189.3495687849635942
 20
185.6443850882810978
 30
0.0
 40
0.0027640337243794
 50
233.6234776685006125
 51
258.7426822878505277
  0
ARC
  5
1063E
  8
0
 10
4189.3586902580600508
 20
185.6857289433818892
 30
0.0
 40
0.0451015903266819
 50
257.6310191495426238
 51
264.7696777047419232
  0
ARC
  5
1063F
  8
0
 10
4189.3794039027116014
 20
185.8843725522845034
 30
0.0
 40
0.2448193144233488
 50
264.1801092193184104
 51
266.4897891375837844
  0
ARC
  5
10640
  8
0
 10
4189.2915724124168264
 20
185.6426784642225982
 30
0.0
 40
0.0009086991147735
 50
214.8149397290978015
 51
248.905174613240888
  0
ARC
  5
10641
  8
0
 10
4189.295994887787856
 20
185.6536093256148945
 30
0.0
 40
0.0127001953175868
 50
248.0391602541166947
 51
261.052255635748395
  0
ARC
  5
10642
  8
0
 10
4189.3101745596986802
 20
185.7344573183821126
 30
0.0
 40
0.0947805585842641
 50
260.1862412766053012
 51
264.640847330660506
  0
ARC
  5
10643
  8
0
 10
4189.3442460680807926
 20
186.0976597587462038
 30
0.0
 40
0.4595775985530274
 50
264.640847330660506
 51
266.3466349158587718
  0
ARC
  5
10644
  8
0
 10
4189.3591232303833749
 20
184.2657170566126013
 30
0.0
 40
1.374008922782838
 50
90.4667819022602231
 51
91.8418378904972457
  0
ARC
  5
10645
  8
0
 10
4189.3954353227745742
 20
183.6912194255041015
 30
0.0
 40
1.949039995839601
 50
90.9119554713115008
 51
91.3966643214508849
  0
LINE
  5
10646
  8
0
 10
4189.3538374986073904
 20
185.6421596627625945
 30
0.0
 11
4189.4168834281081217
 21
185.6421596627625945
 31
0.0
  0
LINE
  5
10647
  8
0
 10
4189.4478664092066538
 20
185.6402868127626107
 30
0.0
 11
4189.4293734592956753
 21
185.6409107576228052
 31
0.0
  0
ARC
  5
10648
  8
0
 10
4189.4337061402884501
 20
185.7693260354718916
 30
0.0
 40
0.1284883485365095
 50
264.3801492814953917
 51
268.0675959583563781
  0
ARC
  5
10649
  8
0
 10
4189.426952030727989
 20
185.7006871713510066
 30
0.0
 40
0.059517980524075
 50
261.3039840900897275
 51
264.3801492814953917
  0
ARC
  5
1064A
  8
0
 10
4189.4186175123722933
 20
185.6461955085472937
 30
0.0
 40
0.0043926187446054
 50
246.7482253937355097
 51
261.3039840900897275
  0
ARC
  5
1064B
  8
0
 10
4189.354651124922384
 20
185.6430235006762075
 30
0.0
 40
0.0011866775974042
 50
226.7145247651423858
 51
251.776452445375611
  0
ARC
  5
1064C
  8
0
 10
4189.3588184065947644
 20
185.6556808254279929
 30
0.0
 40
0.0145123710657312
 50
251.776452445375611
 51
263.1877310800019245
  0
ARC
  5
1064D
  8
0
 10
4189.3735346013791059
 20
185.7597314122031946
 30
0.0
 40
0.1195955075045827
 50
262.1000713169186724
 51
265.7976599218617935
  0
ARC
  5
1064E
  8
0
 10
4189.4019512523627782
 20
186.1315391970416044
 30
0.0
 40
0.4924872397454907
 50
265.6703172630461154
 51
267.5079221808333045
  0
ARC
  5
1064F
  8
0
 10
4189.3516790413623312
 20
184.5603269830527893
 30
0.0
 40
1.07957652246694
 50
87.3550067538945427
 51
88.4682392851092914
  0
ARC
  5
10650
  8
0
 10
4189.4162294758916687
 20
185.9576234896406959
 30
0.0
 40
0.3192101967725117
 50
267.3550067538945996
 51
270.1173794839704101
  0
ARC
  5
10651
  8
0
 10
4189.4798170016847507
 20
184.8545052923917922
 30
0.0
 40
0.7864308222062237
 50
92.3284159602254562
 51
94.5899623210750207
  0
LINE
  5
10652
  8
0
 10
4189.4227995139081031
 20
185.6421596627625945
 30
0.0
 11
4189.4583920973082058
 21
185.6421596627625945
 31
0.0
  0
ARC
  5
10653
  8
0
 10
4189.4598799220148067
 20
185.6488061865468069
 30
0.0
 40
0.0068110131975053
 50
257.3823441735372057
 51
264.3919049349020725
  0
ARC
  5
10654
  8
0
 10
4189.4667440872472071
 20
185.7187106610122953
 30
0.0
 40
0.0770516874156636
 50
264.3919049349020725
 51
267.3419425707742221
  0
ARC
  5
10655
  8
0
 10
4189.4763198642458519
 20
185.924973302912008
 30
0.0
 40
0.2835364881844846
 50
267.3419425707742221
 51
268.4440050818615759
  0
ARC
  5
10656
  8
0
 10
4189.5362266077981985
 20
184.4382057652634899
 30
0.0
 40
1.2052332211595631
 50
93.2156140646630575
 51
93.7027644044774206
  0
LINE
  5
10657
  8
0
 10
4189.4583920973082058
 20
185.6409230663626033
 30
0.0
 11
4189.450824452107554
 21
185.6404656196625922
 31
0.0
  0
LINE
  5
10658
  8
0
 10
4189.450824452107554
 20
185.6404656196625922
 30
0.0
 11
4189.4348214182591619
 21
185.6409993949814066
 31
0.0
  0
ARC
  5
10659
  8
0
 10
4189.4465974966333306
 20
185.8905942614383946
 30
0.0
 40
0.2498725142618957
 50
265.6369348289896948
 51
267.298744082329506
  0
ARC
  5
1065A
  8
0
 10
4189.4313430913070988
 20
185.6906607405018974
 30
0.0
 40
0.0493579021362545
 50
261.2573099648079165
 51
265.6369348289896948
  0
ARC
  5
1065B
  8
0
 10
4189.4245677186781904
 20
185.6466030529742
 30
0.0
 40
0.0047822865537615
 50
248.3003890976538912
 51
261.2573099648079165
  0
LINE
  5
1065C
  8
0
 10
4189.3887036370078931
 20
185.6361609608430001
 30
0.0
 11
4189.4261351443601598
 21
185.6356047836821972
 31
0.0
  0
LINE
  5
1065D
  8
0
 10
4189.4261351443601598
 20
185.6356047836821972
 30
0.0
 11
4189.4113511872083109
 21
185.6336792220785981
 31
0.0
  0
LINE
  5
1065E
  8
0
 10
4189.4113511872083109
 20
185.6336792220785981
 30
0.0
 11
4189.3601560565493855
 21
185.6344353251780035
 31
0.0
  0
LINE
  5
1065F
  8
0
 10
4189.3601560565493855
 20
185.6344353251780035
 30
0.0
 11
4189.3887036380747304
 21
185.6361609608271124
 31
0.0
  0
LINE
  5
10660
  8
0
 10
4189.3887036380747304
 20
185.6361609608271124
 30
0.0
 11
4189.3887036380747304
 21
185.6340137047114922
 31
0.0
  0
LINE
  5
10661
  8
0
 10
4189.2849196883080367
 20
185.6421596627625945
 30
0.0
 11
4189.2849196883080367
 21
185.6407336630018108
 31
0.0
  0
LINE
  5
10662
  8
0
 10
4189.2939098855076736
 20
185.6402193785625911
 30
0.0
 11
4189.2939098855076736
 21
185.6385919288237858
 31
0.0
  0
LINE
  5
10663
  8
0
 10
4189.3137834316066801
 20
185.6386750547625866
 30
0.0
 11
4189.3137834316066801
 21
185.6366869851457011
 31
0.0
  0
LINE
  5
10664
  8
0
 10
4189.3493673387010858
 20
185.6371515960624947
 30
0.0
 11
4189.3493673387010858
 21
185.6346773576107978
 31
0.0
  0
LINE
  5
10665
  8
0
 10
4189.3479294669068622
 20
185.6396803820132959
 30
0.0
 11
4189.3479294669068622
 21
185.6421596627625945
 31
0.0
  0
LINE
  5
10666
  8
0
 10
4189.368351500506833
 20
185.636867386262594
 30
0.0
 11
4189.368351500506833
 21
185.6397745594991022
 31
0.0
  0
LINE
  5
10667
  8
0
 10
4189.4202085263077606
 20
185.6380653589625922
 30
0.0
 11
4189.4202405998239556
 21
185.6358907828551992
 31
0.0
  0
LINE
  5
10668
  8
0
 10
4189.4168834281081217
 20
185.6384139627307945
 30
0.0
 11
4189.4168834281081217
 21
185.6421596627625945
 31
0.0
  0
LINE
  5
10669
  8
0
 10
4189.441346575249554
 20
185.6354625371334066
 30
0.0
 11
4189.441346575249554
 21
185.6334319624608042
 31
0.0
  0
LINE
  5
1066A
  8
0
 10
4189.4546855069538651
 20
185.6401494130687126
 30
0.0
 11
4189.4546855069538651
 21
185.6378246206623999
 31
0.0
  0
LINE
  5
1066B
  8
0
 10
4189.4583921080848086
 20
185.6409230670601005
 30
0.0
 11
4189.4583921080848086
 21
185.6421596603501882
 31
0.0
  0
LINE
  5
1066C
  8
0
 10
4189.4754398415070682
 20
185.6401283457184093
 30
0.0
 11
4189.4754398415070682
 21
185.6414039650601069
 31
0.0
  0
ARC
  5
1066D
  8
0
 10
4189.4859498175792396
 20
193.5342964174996894
 30
0.0
 40
7.9018234310451563
 50
269.997960091456207
 51
270.4265840016840912
  0
ARC
  5
1066E
  8
0
 10
4189.4858261247982227
 20
177.9820426244878888
 30
0.0
 40
7.6700785103946219
 50
89.1151232336334971
 51
90.0011775528671336
  0
ARC
  5
1066F
  8
0
 10
4189.5376491535025707
 20
181.3373174643919867
 30
0.0
 40
4.3144034847704784
 50
87.8411321596443742
 51
89.1151232336334971
  0
ARC
  5
10670
  8
0
 10
4189.6564494400736294
 20
184.4887532928765097
 30
0.0
 40
1.160729232545709
 50
85.5087198426704873
 51
87.8411321596443742
  0
ARC
  5
10671
  8
0
 10
4189.732947890336618
 20
185.4626531918210048
 30
0.0
 40
0.1838295314215246
 50
80.9472734442713886
 51
85.5087198426704873
  0
ARC
  5
10672
  8
0
 10
4189.7577069835915609
 20
185.6180502747646983
 30
0.0
 40
0.0264724022972378
 50
71.7713838158655903
 51
80.9472734442713886
  0
ARC
  5
10673
  8
0
 10
4189.7650582399646737
 20
185.640371668597794
 30
0.0
 40
0.0029716450135525
 50
47.669431563643279
 51
71.7713838158655903
  0
ARC
  5
10674
  8
0
 10
4189.7667398096073157
 20
185.6422948688646954
 30
0.0
 40
0.0004207171075323
 50
342.9815954199756902
 51
40.5751831185392291
  0
ARC
  5
10675
  8
0
 10
4189.766471528015245
 20
185.6424718746573035
 30
0.0
 40
0.0007346811857583
 50
312.7548667310608721
 51
335.8873469746602041
  0
ARC
  5
10676
  8
0
 10
4189.7656124300247029
 20
185.6434010832720105
 30
0.0
 40
0.002000176348509
 50
288.3250712636931894
 51
312.7548667310642259
  0
ARC
  5
10677
  8
0
 10
4189.7561799921822967
 20
185.6718803319647861
 30
0.0
 40
0.0320008178377713
 50
277.8012928834107811
 51
288.3250712636931894
  0
ARC
  5
10678
  8
0
 10
4189.7193459234349575
 20
185.9407304728578083
 30
0.0
 40
0.3033624711319241
 50
273.5259085944277899
 51
277.8012928834107811
  0
ARC
  5
10679
  8
0
 10
4189.6062153634893548
 20
187.7767733047211038
 30
0.0
 40
2.1428873565385831
 50
272.4033849579141133
 51
273.5259085944277899
  0
ARC
  5
1067A
  8
0
 10
4189.5959342030810149
 20
188.0217284709129046
 30
0.0
 40
2.388058186172533
 50
271.0349611890848109
 51
272.4033849579141133
  0
ARC
  5
1067B
  8
0
 10
4188.9742983248779638
 20
222.4319446975063954
 30
0.0
 40
36.8038890191771415
 50
270.9432684287065172
 51
271.0349611890848109
  0
ARC
  5
1067C
  8
0
 10
4189.5356489883361064
 20
188.3376009836258902
 30
0.0
 40
2.7049244036995872
 50
270.1934281717341833
 51
270.9432684287065172
  0
LINE
  5
1067D
  8
0
 10
4189.4896054958644527
 20
185.6512956868074866
 30
0.0
 11
4189.4896054959081084
 21
185.6493030944625957
 31
0.0
  0
LINE
  5
1067E
  8
0
 10
4189.4896054959081084
 20
185.6493030944625957
 30
0.0
 11
4189.5299904013072592
 21
185.6491315875896078
 31
0.0
  0
LINE
  5
1067F
  8
0
 10
4189.5299904013072592
 20
185.6491315875896078
 30
0.0
 11
4189.5447743584090858
 21
185.6510571491625967
 31
0.0
  0
LINE
  5
10680
  8
0
 10
4189.5447743584090858
 20
185.6510571491625967
 30
0.0
 11
4189.5299904013072592
 21
185.651162162262608
 31
0.0
  0
LINE
  5
10681
  8
0
 10
4189.5299904013072592
 20
185.651162162262608
 30
0.0
 11
4189.4896054958644527
 21
185.6512956868074866
 31
0.0
  0
LINE
  5
10682
  8
0
 10
4189.4896054959081084
 20
185.6490969542626033
 30
0.0
 11
4189.4896054959081084
 21
185.6471040848626046
 31
0.0
  0
LINE
  5
10683
  8
0
 10
4189.4896054959081084
 20
185.6471040848626046
 30
0.0
 11
4189.5511284497079032
 21
185.6465287657626106
 31
0.0
  0
LINE
  5
10684
  8
0
 10
4189.5511284497079032
 20
185.6465287657626106
 30
0.0
 11
4189.5796799981080767
 21
185.6482546412626107
 31
0.0
  0
LINE
  5
10685
  8
0
 10
4189.5796799981080767
 20
185.6482546412626107
 30
0.0
 11
4189.5511284497079032
 21
185.6487031365626024
 31
0.0
  0
LINE
  5
10686
  8
0
 10
4189.5511284497079032
 20
185.6487031365626024
 30
0.0
 11
4189.4896054959081084
 21
185.6490969542626033
 31
0.0
  0
LINE
  5
10687
  8
0
 10
4189.4856684880078319
 20
185.6468999487626093
 30
0.0
 11
4189.5166514691081829
 21
185.646769504062604
 31
0.0
  0
LINE
  5
10688
  8
0
 10
4189.5166514691081829
 20
185.646769504062604
 30
0.0
 11
4189.5481744338076169
 21
185.646350202362612
 31
0.0
  0
LINE
  5
10689
  8
0
 10
4189.5481744338076169
 20
185.646350202362612
 30
0.0
 11
4189.5166514690617987
 21
185.6444447116564902
 31
0.0
  0
LINE
  5
1068A
  8
0
 10
4189.5166514690617987
 20
185.6444447116564902
 30
0.0
 11
4189.4856684880305693
 21
185.6447015552955122
 31
0.0
  0
LINE
  5
1068B
  8
0
 10
4189.4856684880523972
 20
185.6444954558940026
 30
0.0
 11
4189.4958971345067766
 21
185.6444657790069073
 31
0.0
  0
LINE
  5
1068C
  8
0
 10
4189.4958971345067766
 20
185.6444657790069073
 30
0.0
 11
4189.5136934262081922
 21
185.6442659046626034
 31
0.0
  0
LINE
  5
1068D
  8
0
 10
4189.5136934262081922
 20
185.6442659046626034
 30
0.0
 11
4189.4958971345267855
 21
185.6431901596650107
 31
0.0
  0
LINE
  5
1068E
  8
0
 10
4189.4958971345267855
 20
185.6431901596650107
 30
0.0
 11
4189.4856684880078319
 21
185.6432588595542086
 31
0.0
  0
ARC
  5
1068F
  8
0
 10
4189.7421849911534082
 20
185.6414603546211026
 30
0.0
 40
0.001646520008856
 50
36.2717581546383627
 51
71.4566532028689352
  0
ARC
  5
10690
  8
0
 10
4189.7333588790279464
 20
185.6151480574037009
 30
0.0
 40
0.0293996683009232
 50
71.4566532028689352
 51
83.5187431419115001
  0
ARC
  5
10691
  8
0
 10
4189.6697656270716834
 20
189.849359351434714
 30
0.0
 40
4.2055318556830104
 50
270.1599088389660892
 51
270.9116391291718742
  0
ARC
  5
10692
  8
0
 10
4189.6825356152558015
 20
185.6361899023214903
 30
0.0
 40
0.007352680200744
 50
58.1345573013165478
 51
73.7420177009527436
  0
ARC
  5
10693
  8
0
 10
4189.6776176226012467
 20
185.6148243499202124
 30
0.0
 40
0.0292678418734282
 50
76.2098575726516145
 51
80.6553663951255544
  0
ARC
  5
10694
  8
0
 10
4189.6728967743865724
 20
185.5878290375646031
 30
0.0
 40
0.0566721165116799
 50
80.3774370636573536
 51
81.265289781085059
  0
LINE
  5
10695
  8
0
 10
4189.6864172877076271
 20
185.6424344619626083
 30
0.0
 11
4189.743512448508227
 21
185.6424344619626083
 31
0.0
  0
LINE
  5
10696
  8
0
 10
4189.7326015696080503
 20
185.6448906987625946
 30
0.0
 11
4189.7109364119078236
 21
185.6466773830626096
 31
0.0
  0
LINE
  5
10697
  8
0
 10
4189.7109364119078236
 20
185.6466773830626096
 30
0.0
 11
4189.6614905523074412
 21
185.6456810868625951
 31
0.0
  0
LINE
  5
10698
  8
0
 10
4189.6614905523074412
 20
185.6456810868625951
 30
0.0
 11
4189.6774270905079902
 21
185.6443747461626117
 31
0.0
  0
LINE
  5
10699
  8
0
 10
4189.6774270905079902
 20
185.6443747461626117
 30
0.0
 11
4189.7326015696080503
 21
185.6448906987625946
 31
0.0
  0
LINE
  5
1069A
  8
0
 10
4189.7069994041075915
 20
185.6469153661626024
 30
0.0
 11
4189.6734956992067964
 21
185.6484635127625893
 31
0.0
  0
LINE
  5
1069B
  8
0
 10
4189.6734956992067964
 20
185.6484635127625893
 30
0.0
 11
4189.633105177206744
 21
185.6470539038625986
 31
0.0
  0
LINE
  5
1069C
  8
0
 10
4189.633105177206744
 20
185.6470539038625986
 30
0.0
 11
4189.6575535444080742
 21
185.6459190699625879
 31
0.0
  0
LINE
  5
1069D
  8
0
 10
4189.6575535444080742
 20
185.6459190699625879
 30
0.0
 11
4189.7069994041075915
 21
185.6469153661626024
 31
0.0
  0
LINE
  5
1069E
  8
0
 10
4189.6623601593519197
 20
185.6488521374674008
 30
0.0
 11
4189.6180000171079882
 21
185.6500213999626112
 31
0.0
  0
LINE
  5
1069F
  8
0
 10
4189.6180000171079882
 20
185.6500213999626112
 30
0.0
 11
4189.5894524366867699
 21
185.6482957643742111
 31
0.0
  0
LINE
  5
106A0
  8
0
 10
4189.5894524366867699
 20
185.6482957643742111
 30
0.0
 11
4189.6219696373082115
 21
185.6474425286629923
 31
0.0
  0
LINE
  5
106A1
  8
0
 10
4189.6219696373082115
 20
185.6474425286629923
 30
0.0
 11
4189.6623601577730369
 21
185.6488521375090954
 31
0.0
  0
LINE
  5
106A2
  8
0
 10
4189.6524382079069255
 20
185.6458159998626058
 30
0.0
 11
4189.6218749821218807
 21
185.6471610502227918
 31
0.0
  0
LINE
  5
106A3
  8
0
 10
4189.6218749821218807
 20
185.6471610502227918
 30
0.0
 11
4189.6029854755079214
 21
185.6477267384626089
 31
0.0
  0
LINE
  5
106A4
  8
0
 10
4189.6029854755079214
 20
185.6477267384626089
 30
0.0
 11
4189.5864990958079943
 21
185.6481172416625895
 31
0.0
  0
LINE
  5
106A5
  8
0
 10
4189.5864990958079943
 20
185.6481172416625895
 30
0.0
 11
4189.5579475474078208
 21
185.6463913661625895
 31
0.0
  0
LINE
  5
106A6
  8
0
 10
4189.5579475474078208
 20
185.6463913661625895
 30
0.0
 11
4189.6029854755079214
 21
185.6448195652261859
 31
0.0
  0
LINE
  5
106A7
  8
0
 10
4189.6029854755079214
 20
185.6448195652261859
 30
0.0
 11
4189.6524382079069255
 21
185.6458159998626058
 31
0.0
  0
LINE
  5
106A8
  8
0
 10
4189.6805106059082391
 20
185.6424344619626083
 30
0.0
 11
4189.6234075091078921
 21
185.6424344619626083
 31
0.0
  0
ARC
  5
106A9
  8
0
 10
4189.6217681910511601
 20
185.6402090364441051
 30
0.0
 40
0.0027640337243794
 50
53.6234776685005983
 51
78.7426822878505135
  0
ARC
  5
106AA
  8
0
 10
4189.6126467179547035
 20
185.5988651813433137
 30
0.0
 40
0.0451015903266819
 50
77.6310191495425386
 51
84.7696777047419374
  0
ARC
  5
106AB
  8
0
 10
4189.5919330733031529
 20
185.4002215724406994
 30
0.0
 40
0.2448193144233488
 50
84.1801092193183962
 51
86.4897891375837986
  0
ARC
  5
106AC
  8
0
 10
4189.6797645635988374
 20
185.6419156605026046
 30
0.0
 40
0.0009086991147735
 50
34.8149397290978726
 51
68.9051746132408596
  0
ARC
  5
106AD
  8
0
 10
4189.6753420882268983
 20
185.6309847991103936
 30
0.0
 40
0.0127001953175868
 50
68.0391602541167515
 51
81.052255635748466
  0
ARC
  5
106AE
  8
0
 10
4189.6611624163160741
 20
185.5501368063432039
 30
0.0
 40
0.0947805585842641
 50
80.1862412766052302
 51
84.6408473306605202
  0
ARC
  5
106AF
  8
0
 10
4189.6270909079339617
 20
185.186934365978999
 30
0.0
 40
0.4595775985530274
 50
84.6408473306605202
 51
86.3466349158588145
  0
ARC
  5
106B0
  8
0
 10
4189.6122137456322889
 20
187.0188770681126016
 30
0.0
 40
1.374008922782838
 50
270.4667819022603226
 51
271.8418378904971746
  0
ARC
  5
106B1
  8
0
 10
4189.5759016532401802
 20
187.5933746992211013
 30
0.0
 40
1.949039995839601
 50
270.9119554713115008
 51
271.3966643214508849
  0
LINE
  5
106B2
  8
0
 10
4189.6174994774082734
 20
185.6424344619626083
 30
0.0
 11
4189.5544535479066326
 21
185.6424344619626083
 31
0.0
  0
LINE
  5
106B3
  8
0
 10
4189.5234705668081006
 20
185.6443073119625922
 30
0.0
 11
4189.5419635167190791
 21
185.6436833671023976
 31
0.0
  0
ARC
  5
106B4
  8
0
 10
4189.5376308357272137
 20
185.5152680892533965
 30
0.0
 40
0.1284883485365095
 50
84.3801492814954486
 51
88.0675959583564349
  0
ARC
  5
106B5
  8
0
 10
4189.5443849452867653
 20
185.5839069533741963
 30
0.0
 40
0.059517980524075
 50
81.3039840900897559
 51
84.3801492814954486
  0
ARC
  5
106B6
  8
0
 10
4189.55271946364428
 20
185.6383986161779092
 30
0.0
 40
0.0043926187446054
 50
66.7482253937355807
 51
81.3039840900897559
  0
ARC
  5
106B7
  8
0
 10
4189.6166858510932798
 20
185.6415706240489953
 30
0.0
 40
0.0011866775974042
 50
46.7145247651423219
 51
71.7764524453755541
  0
ARC
  5
106B8
  8
0
 10
4189.6125185694208994
 20
185.62891329929721
 30
0.0
 40
0.0145123710657312
 50
71.7764524453755541
 51
83.1877310800018392
  0
ARC
  5
106B9
  8
0
 10
4189.5978023746356484
 20
185.5248627125220082
 30
0.0
 40
0.1195955075045827
 50
82.1000713169187009
 51
85.797659921861765
  0
ARC
  5
106BA
  8
0
 10
4189.5693857236528856
 20
185.1530549276835984
 30
0.0
 40
0.4924872397454907
 50
85.6703172630460728
 51
87.5079221808333045
  0
ARC
  5
106BB
  8
0
 10
4189.6196579346533326
 20
186.7242671416724136
 30
0.0
 40
1.07957652246694
 50
267.3550067538945996
 51
268.4682392851092914
  0
ARC
  5
106BC
  8
0
 10
4189.5551075001221761
 20
185.3269706350845922
 30
0.0
 40
0.3192101967725117
 50
87.3550067538945427
 51
90.1173794839704385
  0
ARC
  5
106BD
  8
0
 10
4189.4915199743300036
 20
186.4300888323334959
 30
0.0
 40
0.7864308222062237
 50
272.3284159602255272
 51
274.5899623210750065
  0
LINE
  5
106BE
  8
0
 10
4189.5485374621066512
 20
185.6424344619626083
 30
0.0
 11
4189.5129448787065485
 21
185.6424344619626083
 31
0.0
  0
ARC
  5
106BF
  8
0
 10
4189.5114570539999477
 20
185.635787938178396
 30
0.0
 40
0.0068110131975053
 50
77.3823441735372057
 51
84.3919049349021435
  0
ARC
  5
106C0
  8
0
 10
4189.5045928887675473
 20
185.5658834637129075
 30
0.0
 40
0.0770516874156636
 50
84.3919049349021435
 51
87.3419425707742079
  0
ARC
  5
106C1
  8
0
 10
4189.4950171117689024
 20
185.3596208218131949
 30
0.0
 40
0.2835364881844846
 50
87.3419425707742079
 51
88.4440050818616754
  0
ARC
  5
106C2
  8
0
 10
4189.4351103682165558
 20
186.846388359461713
 30
0.0
 40
1.2052332211595631
 50
273.2156140646631002
 51
273.7027644044774206
  0
LINE
  5
106C3
  8
0
 10
4189.5129448787065485
 20
185.6436710583625995
 30
0.0
 11
4189.5205125239081099
 21
185.6441285050626107
 31
0.0
  0
LINE
  5
106C4
  8
0
 10
4189.5205125239081099
 20
185.6441285050626107
 30
0.0
 11
4189.5365155577555925
 21
185.6435947297437963
 31
0.0
  0
ARC
  5
106C5
  8
0
 10
4189.5247394793832427
 20
185.3939998632868082
 30
0.0
 40
0.2498725142618957
 50
85.6369348289896948
 51
87.298744082329506
  0
ARC
  5
106C6
  8
0
 10
4189.5399938847076555
 20
185.5939333842233054
 30
0.0
 40
0.0493579021362545
 50
81.2573099648079165
 51
85.6369348289896948
  0
ARC
  5
106C7
  8
0
 10
4189.5467692573365639
 20
185.6379910717510882
 30
0.0
 40
0.0047822865537615
 50
68.3003890976539054
 51
81.2573099648079165
  0
LINE
  5
106C8
  8
0
 10
4189.5826333390068612
 20
185.6484331638822027
 30
0.0
 11
4189.5452018316545946
 21
185.6489893410430909
 31
0.0
  0
LINE
  5
106C9
  8
0
 10
4189.5452018316545946
 20
185.6489893410430909
 30
0.0
 11
4189.5599857888073529
 21
185.6509149026466048
 31
0.0
  0
LINE
  5
106CA
  8
0
 10
4189.5599857888073529
 20
185.6509149026466048
 30
0.0
 11
4189.6111809194662783
 21
185.6501587995471994
 31
0.0
  0
LINE
  5
106CB
  8
0
 10
4189.6111809194662783
 20
185.6501587995471994
 30
0.0
 11
4189.5826333379400239
 21
185.6484331638980905
 31
0.0
  0
LINE
  5
106CC
  8
0
 10
4189.5826333379400239
 20
185.6484331638980905
 30
0.0
 11
4189.5826333379400239
 21
185.6505804200137106
 31
0.0
  0
LINE
  5
106CD
  8
0
 10
4189.6864172877076271
 20
185.6424344619626083
 30
0.0
 11
4189.6864172877076271
 21
185.6438604617233921
 31
0.0
  0
LINE
  5
106CE
  8
0
 10
4189.6774270905079902
 20
185.6443747461626117
 30
0.0
 11
4189.6774270905079902
 21
185.6460021959015023
 31
0.0
  0
LINE
  5
106CF
  8
0
 10
4189.6575535444080742
 20
185.6459190699625879
 30
0.0
 11
4189.6575535444080742
 21
185.6479071395795017
 31
0.0
  0
LINE
  5
106D0
  8
0
 10
4189.6219696373136685
 20
185.6474425286627081
 30
0.0
 11
4189.6219696373136685
 21
185.649916767114405
 31
0.0
  0
LINE
  5
106D1
  8
0
 10
4189.6234075091078921
 20
185.6449137427119069
 30
0.0
 11
4189.6234075091078921
 21
185.6424344619626083
 31
0.0
  0
LINE
  5
106D2
  8
0
 10
4189.6029854755079214
 20
185.6477267384626089
 30
0.0
 11
4189.6029854755079214
 21
185.6448195652261859
 31
0.0
  0
LINE
  5
106D3
  8
0
 10
4189.5511284497079032
 20
185.6465287657626106
 30
0.0
 11
4189.5510963761907988
 21
185.6487033418700037
 31
0.0
  0
LINE
  5
106D4
  8
0
 10
4189.5544535479066326
 20
185.6461801619944936
 30
0.0
 11
4189.5544535479066326
 21
185.6424344619626083
 31
0.0
  0
LINE
  5
106D5
  8
0
 10
4189.5299904007652003
 20
185.6491315875919099
 30
0.0
 11
4189.5299904007652003
 21
185.6511621622643986
 31
0.0
  0
LINE
  5
106D6
  8
0
 10
4189.5166514690617987
 20
185.6444447116564902
 30
0.0
 11
4189.5166514690617987
 21
185.646769504062803
 31
0.0
  0
LINE
  5
106D7
  8
0
 10
4189.5129448679308553
 20
185.6436710576651876
 30
0.0
 11
4189.5129448679308553
 21
185.6424344643749862
 31
0.0
  0
LINE
  5
106D8
  8
0
 10
4189.4958971345067766
 20
185.6444657790069073
 30
0.0
 11
4189.4958971345067766
 21
185.6431901596652096
 31
0.0
  0
ARC
  5
106D9
  8
0
 10
4189.5376491535025707
 20
189.9472766603333014
 30
0.0
 40
4.3144034847704784
 50
270.8848767663665171
 51
272.1588678403556969
  0
LINE
  5
106DA
  8
0
 10
4189.4896054958644527
 20
185.6332984379178015
 30
0.0
 11
4189.4896054959081084
 21
185.6352910302626071
 31
0.0
  0
LINE
  5
106DB
  8
0
 10
4189.4896054959081084
 20
185.6352910302626071
 30
0.0
 11
4189.5299904013072592
 21
185.6354625371355951
 31
0.0
  0
LINE
  5
106DC
  8
0
 10
4189.5299904013072592
 20
185.6354625371355951
 30
0.0
 11
4189.5447743584090858
 21
185.6335369755626061
 31
0.0
  0
LINE
  5
106DD
  8
0
 10
4189.5447743584090858
 20
185.6335369755626061
 30
0.0
 11
4189.5299904013072592
 21
185.6334319624625948
 31
0.0
  0
LINE
  5
106DE
  8
0
 10
4189.5299904013072592
 20
185.6334319624625948
 30
0.0
 11
4189.4896054958644527
 21
185.6332984379178015
 31
0.0
  0
LINE
  5
106DF
  8
0
 10
4189.4896054959081084
 20
185.6354971704625996
 30
0.0
 11
4189.4896054959081084
 21
185.6374900398625982
 31
0.0
  0
LINE
  5
106E0
  8
0
 10
4189.4896054959081084
 20
185.6374900398625982
 30
0.0
 11
4189.5511284497079032
 21
185.6380653589625922
 31
0.0
  0
LINE
  5
106E1
  8
0
 10
4189.5511284497079032
 20
185.6380653589625922
 30
0.0
 11
4189.5796799981080767
 21
185.6363394834625922
 31
0.0
  0
LINE
  5
106E2
  8
0
 10
4189.5796799981080767
 20
185.6363394834625922
 30
0.0
 11
4189.5511284497079032
 21
185.6358909881626005
 31
0.0
  0
LINE
  5
106E3
  8
0
 10
4189.5511284497079032
 20
185.6358909881626005
 30
0.0
 11
4189.4896054959081084
 21
185.6354971704625996
 31
0.0
  0
LINE
  5
106E4
  8
0
 10
4189.4856684880078319
 20
185.6376941759625936
 30
0.0
 11
4189.5166514691081829
 21
185.6378246206625988
 31
0.0
  0
LINE
  5
106E5
  8
0
 10
4189.5166514691081829
 20
185.6378246206625988
 30
0.0
 11
4189.5481744338076169
 21
185.6382439223625909
 31
0.0
  0
LINE
  5
106E6
  8
0
 10
4189.5481744338076169
 20
185.6382439223625909
 30
0.0
 11
4189.5166514690617987
 21
185.6401494130687126
 31
0.0
  0
LINE
  5
106E7
  8
0
 10
4189.5166514690617987
 20
185.6401494130687126
 30
0.0
 11
4189.4856684880305693
 21
185.6398925694296906
 31
0.0
  0
LINE
  5
106E8
  8
0
 10
4189.4856684880523972
 20
185.6400986688312003
 30
0.0
 11
4189.4958971345067766
 21
185.6401283457184093
 31
0.0
  0
LINE
  5
106E9
  8
0
 10
4189.4958971345067766
 20
185.6401283457184093
 30
0.0
 11
4189.5136934262081922
 21
185.6403282200625995
 31
0.0
  0
LINE
  5
106EA
  8
0
 10
4189.5136934262081922
 20
185.6403282200625995
 30
0.0
 11
4189.4958971345267855
 21
185.6414039650601921
 31
0.0
  0
LINE
  5
106EB
  8
0
 10
4189.4958971345267855
 20
185.6414039650601921
 30
0.0
 11
4189.4856684880078319
 21
185.6413352651711079
 31
0.0
  0
ARC
  5
106EC
  8
0
 10
4189.7421849911534082
 20
185.6431337701041002
 30
0.0
 40
0.001646520008856
 50
288.5433467971311075
 51
323.7282418453615946
  0
ARC
  5
106ED
  8
0
 10
4189.7333588790279464
 20
185.6694460673215872
 30
0.0
 40
0.0293996683009232
 50
276.4812568580884999
 51
288.5433467971311075
  0
ARC
  5
106EE
  8
0
 10
4189.6697656270716834
 20
181.4352347732904889
 30
0.0
 40
4.2055318556830104
 50
89.0883608708280406
 51
89.840091161033925
  0
ARC
  5
106EF
  8
0
 10
4189.6825356152558015
 20
185.6484042224037125
 30
0.0
 40
0.007352680200744
 50
286.2579822990472849
 51
301.8654426986834096
  0
ARC
  5
106F0
  8
0
 10
4189.6776176226012467
 20
185.6697697748049904
 30
0.0
 40
0.0292678418734282
 50
279.3446336048745025
 51
283.7901424273484281
  0
ARC
  5
106F1
  8
0
 10
4189.6728967743865724
 20
185.6967650871605997
 30
0.0
 40
0.0566721165116799
 50
278.7347102189149268
 51
279.6225629363426037
  0
LINE
  5
106F2
  8
0
 10
4189.6864172877076271
 20
185.6421596627625945
 30
0.0
 11
4189.743512448508227
 21
185.6421596627625945
 31
0.0
  0
LINE
  5
106F3
  8
0
 10
4189.7326015696080503
 20
185.6397034259626082
 30
0.0
 11
4189.7109364119078236
 21
185.6379167416625933
 31
0.0
  0
LINE
  5
106F4
  8
0
 10
4189.7109364119078236
 20
185.6379167416625933
 30
0.0
 11
4189.6614905523074412
 21
185.6389130378626078
 31
0.0
  0
LINE
  5
106F5
  8
0
 10
4189.6614905523074412
 20
185.6389130378626078
 30
0.0
 11
4189.6774270905079902
 21
185.6402193785625911
 31
0.0
  0
LINE
  5
106F6
  8
0
 10
4189.6774270905079902
 20
185.6402193785625911
 30
0.0
 11
4189.7326015696080503
 21
185.6397034259626082
 31
0.0
  0
LINE
  5
106F7
  8
0
 10
4189.7069994041075915
 20
185.6376787585626005
 30
0.0
 11
4189.6734956992067964
 21
185.6361306119626136
 31
0.0
  0
LINE
  5
106F8
  8
0
 10
4189.6734956992067964
 20
185.6361306119626136
 30
0.0
 11
4189.633105177206744
 21
185.6375402208626042
 31
0.0
  0
LINE
  5
106F9
  8
0
 10
4189.633105177206744
 20
185.6375402208626042
 30
0.0
 11
4189.6575535444080742
 21
185.6386750547625866
 31
0.0
  0
LINE
  5
106FA
  8
0
 10
4189.6575535444080742
 20
185.6386750547625866
 30
0.0
 11
4189.7069994041075915
 21
185.6376787585626005
 31
0.0
  0
LINE
  5
106FB
  8
0
 10
4189.6623601593519197
 20
185.6357419872578021
 30
0.0
 11
4189.6180000171079882
 21
185.6345727247625916
 31
0.0
  0
LINE
  5
106FC
  8
0
 10
4189.6180000171079882
 20
185.6345727247625916
 30
0.0
 11
4189.5894524366867699
 21
185.6362983603509917
 31
0.0
  0
LINE
  5
106FD
  8
0
 10
4189.5894524366867699
 20
185.6362983603509917
 30
0.0
 11
4189.6219696373082115
 21
185.6371515960622958
 31
0.0
  0
LINE
  5
106FE
  8
0
 10
4189.6219696373082115
 20
185.6371515960622958
 30
0.0
 11
4189.6623601577730369
 21
185.6357419872161927
 31
0.0
  0
LINE
  5
106FF
  8
0
 10
4189.6524382079069255
 20
185.638778124862597
 30
0.0
 11
4189.6218749821218807
 21
185.637433074502411
 31
0.0
  0
LINE
  5
10700
  8
0
 10
4189.6218749821218807
 20
185.637433074502411
 30
0.0
 11
4189.6029854755079214
 21
185.636867386262594
 31
0.0
  0
LINE
  5
10701
  8
0
 10
4189.6029854755079214
 20
185.636867386262594
 30
0.0
 11
4189.5864990958079943
 21
185.6364768830626133
 31
0.0
  0
LINE
  5
10702
  8
0
 10
4189.5864990958079943
 20
185.6364768830626133
 30
0.0
 11
4189.5579475474078208
 21
185.6382027585626133
 31
0.0
  0
LINE
  5
10703
  8
0
 10
4189.5579475474078208
 20
185.6382027585626133
 30
0.0
 11
4189.6029854755079214
 21
185.6397745594991022
 31
0.0
  0
LINE
  5
10704
  8
0
 10
4189.6029854755079214
 20
185.6397745594991022
 30
0.0
 11
4189.6524382079069255
 21
185.638778124862597
 31
0.0
  0
LINE
  5
10705
  8
0
 10
4189.6805106059082391
 20
185.6421596627625945
 30
0.0
 11
4189.6234075091078921
 21
185.6421596627625945
 31
0.0
  0
ARC
  5
10706
  8
0
 10
4189.6217681910511601
 20
185.6443850882810978
 30
0.0
 40
0.0027640337243794
 50
281.2573177121494723
 51
306.3765223314994159
  0
ARC
  5
10707
  8
0
 10
4189.6126467179547035
 20
185.6857289433818892
 30
0.0
 40
0.0451015903266819
 50
275.2303222952580199
 51
282.3689808504573762
  0
ARC
  5
10708
  8
0
 10
4189.5919330733031529
 20
185.8843725522845034
 30
0.0
 40
0.2448193144233488
 50
273.5102108624162156
 51
275.8198907806815896
  0
ARC
  5
10709
  8
0
 10
4189.6797645635988374
 20
185.6426784642225982
 30
0.0
 40
0.0009086991147735
 50
291.0948253867592257
 51
325.1850602709021132
  0
ARC
  5
1070A
  8
0
 10
4189.6753420882268983
 20
185.6536093256148945
 30
0.0
 40
0.0127001953175868
 50
278.9477443642514913
 51
291.9608397458832769
  0
ARC
  5
1070B
  8
0
 10
4189.6611624163160741
 20
185.7344573183821126
 30
0.0
 40
0.0947805585842641
 50
275.3591526693393803
 51
279.8137587233948125
  0
ARC
  5
1070C
  8
0
 10
4189.6270909079339617
 20
186.0976597587462038
 30
0.0
 40
0.4595775985530274
 50
273.6533650841412282
 51
275.3591526693393803
  0
ARC
  5
1070D
  8
0
 10
4189.6122137456322889
 20
184.2657170566126013
 30
0.0
 40
1.374008922782838
 50
88.1581621095027543
 51
89.5332180977397769
  0
ARC
  5
1070E
  8
0
 10
4189.5759016532401802
 20
183.6912194255041015
 30
0.0
 40
1.949039995839601
 50
88.6033356785491151
 51
89.088044528688485
  0
LINE
  5
1070F
  8
0
 10
4189.6174994774082734
 20
185.6421596627625945
 30
0.0
 11
4189.5544535479066326
 21
185.6421596627625945
 31
0.0
  0
LINE
  5
10710
  8
0
 10
4189.5234705668081006
 20
185.6402868127626107
 30
0.0
 11
4189.5419635167190791
 21
185.6409107576228052
 31
0.0
  0
ARC
  5
10711
  8
0
 10
4189.5376308357272137
 20
185.7693260354718916
 30
0.0
 40
0.1284883485365095
 50
271.9324040416436219
 51
275.6198507185044946
  0
ARC
  5
10712
  8
0
 10
4189.5443849452867653
 20
185.7006871713510066
 30
0.0
 40
0.059517980524075
 50
275.6198507185044946
 51
278.6960159099102157
  0
ARC
  5
10713
  8
0
 10
4189.55271946364428
 20
185.6461955085472937
 30
0.0
 40
0.0043926187446054
 50
278.6960159099102157
 51
293.2517746062644051
  0
ARC
  5
10714
  8
0
 10
4189.6166858510932798
 20
185.6430235006762075
 30
0.0
 40
0.0011866775974042
 50
288.2235475546244743
 51
313.2854752348576994
  0
ARC
  5
10715
  8
0
 10
4189.6125185694208994
 20
185.6556808254279929
 30
0.0
 40
0.0145123710657312
 50
276.8122689199980755
 51
288.2235475546244743
  0
ARC
  5
10716
  8
0
 10
4189.5978023746356484
 20
185.7597314122031946
 30
0.0
 40
0.1195955075045827
 50
274.2023400781382065
 51
277.8999286830813276
  0
ARC
  5
10717
  8
0
 10
4189.5693857236528856
 20
186.1315391970416044
 30
0.0
 40
0.4924872397454907
 50
272.4920778191666955
 51
274.3296827369538846
  0
ARC
  5
10718
  8
0
 10
4189.6196579346533326
 20
184.5603269830527893
 30
0.0
 40
1.07957652246694
 50
91.5317607148906944
 51
92.6449932461054431
  0
ARC
  5
10719
  8
0
 10
4189.5551075001221761
 20
185.9576234896406959
 30
0.0
 40
0.3192101967725117
 50
269.8826205160295899
 51
272.6449932461054004
  0
ARC
  5
1071A
  8
0
 10
4189.4915199743300036
 20
184.8545052923917922
 30
0.0
 40
0.7864308222062237
 50
85.4100376789250078
 51
87.6715840397745438
  0
LINE
  5
1071B
  8
0
 10
4189.5485374621066512
 20
185.6421596627625945
 30
0.0
 11
4189.5129448787065485
 21
185.6421596627625945
 31
0.0
  0
ARC
  5
1071C
  8
0
 10
4189.5114570539999477
 20
185.6488061865468069
 30
0.0
 40
0.0068110131975053
 50
275.6080950650979275
 51
282.6176558264627943
  0
ARC
  5
1071D
  8
0
 10
4189.5045928887675473
 20
185.7187106610122953
 30
0.0
 40
0.0770516874156636
 50
272.6580574292257779
 51
275.6080950650979275
  0
ARC
  5
1071E
  8
0
 10
4189.4950171117689024
 20
185.924973302912008
 30
0.0
 40
0.2835364881844846
 50
271.5559949181383104
 51
272.6580574292257779
  0
ARC
  5
1071F
  8
0
 10
4189.4351103682165558
 20
184.4382057652634899
 30
0.0
 40
1.2052332211595631
 50
86.2972355955225936
 51
86.7843859353369425
  0
LINE
  5
10720
  8
0
 10
4189.5129448787065485
 20
185.6409230663626033
 30
0.0
 11
4189.5205125239081099
 21
185.6404656196625922
 31
0.0
  0
LINE
  5
10721
  8
0
 10
4189.5205125239081099
 20
185.6404656196625922
 30
0.0
 11
4189.5365155577555925
 21
185.6409993949814066
 31
0.0
  0
ARC
  5
10722
  8
0
 10
4189.5247394793832427
 20
185.8905942614383946
 30
0.0
 40
0.2498725142618957
 50
272.7012559176703803
 51
274.3630651710103052
  0
ARC
  5
10723
  8
0
 10
4189.5399938847076555
 20
185.6906607405018974
 30
0.0
 40
0.0493579021362545
 50
274.3630651710103052
 51
278.7426900351920835
  0
ARC
  5
10724
  8
0
 10
4189.5467692573365639
 20
185.6466030529742
 30
0.0
 40
0.0047822865537615
 50
278.7426900351920835
 51
291.6996109023460804
  0
LINE
  5
10725
  8
0
 10
4189.5826333390068612
 20
185.6361609608430001
 30
0.0
 11
4189.5452018316545946
 21
185.6356047836821972
 31
0.0
  0
LINE
  5
10726
  8
0
 10
4189.5452018316545946
 20
185.6356047836821972
 30
0.0
 11
4189.5599857888073529
 21
185.6336792220785981
 31
0.0
  0
LINE
  5
10727
  8
0
 10
4189.5599857888073529
 20
185.6336792220785981
 30
0.0
 11
4189.6111809194662783
 21
185.6344353251780035
 31
0.0
  0
LINE
  5
10728
  8
0
 10
4189.6111809194662783
 20
185.6344353251780035
 30
0.0
 11
4189.5826333379400239
 21
185.6361609608271124
 31
0.0
  0
LINE
  5
10729
  8
0
 10
4189.5826333379400239
 20
185.6361609608271124
 30
0.0
 11
4189.5826333379400239
 21
185.6340137047114922
 31
0.0
  0
LINE
  5
1072A
  8
0
 10
4189.6864172877076271
 20
185.6421596627625945
 30
0.0
 11
4189.6864172877076271
 21
185.6407336630018108
 31
0.0
  0
LINE
  5
1072B
  8
0
 10
4189.6774270905079902
 20
185.6402193785625911
 30
0.0
 11
4189.6774270905079902
 21
185.6385919288237858
 31
0.0
  0
LINE
  5
1072C
  8
0
 10
4189.6575535444080742
 20
185.6386750547625866
 30
0.0
 11
4189.6575535444080742
 21
185.6366869851457011
 31
0.0
  0
LINE
  5
1072D
  8
0
 10
4189.6219696373136685
 20
185.6371515960624947
 30
0.0
 11
4189.6219696373136685
 21
185.6346773576107978
 31
0.0
  0
LINE
  5
1072E
  8
0
 10
4189.6234075091078921
 20
185.6396803820132959
 30
0.0
 11
4189.6234075091078921
 21
185.6421596627625945
 31
0.0
  0
LINE
  5
1072F
  8
0
 10
4189.6029854755079214
 20
185.636867386262594
 30
0.0
 11
4189.6029854755079214
 21
185.6397745594991022
 31
0.0
  0
LINE
  5
10730
  8
0
 10
4189.5511284497079032
 20
185.6380653589625922
 30
0.0
 11
4189.5510963761907988
 21
185.6358907828551992
 31
0.0
  0
LINE
  5
10731
  8
0
 10
4189.5544535479066326
 20
185.6384139627307945
 30
0.0
 11
4189.5544535479066326
 21
185.6421596627625945
 31
0.0
  0
LINE
  5
10732
  8
0
 10
4189.5299904007652003
 20
185.6354625371334066
 30
0.0
 11
4189.5299904007652003
 21
185.6334319624608042
 31
0.0
  0
LINE
  5
10733
  8
0
 10
4189.5166514690617987
 20
185.6401494130687126
 30
0.0
 11
4189.5166514690617987
 21
185.6378246206623999
 31
0.0
  0
LINE
  5
10734
  8
0
 10
4189.5129448679308553
 20
185.6409230670601005
 30
0.0
 11
4189.5129448679308553
 21
185.6421596603501882
 31
0.0
  0
LINE
  5
10735
  8
0
 10
4189.4958971345067766
 20
185.6401283457184093
 30
0.0
 11
4189.4958971345067766
 21
185.6414039650601069
 31
0.0
  0
ARC
  5
10736
  8
0
 10
4189.4609435527554524
 20
180.0612576908006019
 30
0.0
 40
5.6789213725317893
 50
89.750544369046537
 51
92.5934794394269147
  0
ARC
  5
10737
  8
0
 10
4189.2204902926478098
 20
185.3697811693699009
 30
0.0
 40
0.3649549356018523
 50
92.5934794394269147
 51
97.9001929724684317
  0
ARC
  5
10738
  8
0
 10
4189.1733492507037226
 20
185.709499945869311
 30
0.0
 40
0.0219809935276217
 50
97.9001929724684317
 51
118.5673445747111998
  0
ARC
  5
10739
  8
0
 10
4189.3169140021063868
 20
185.7482584029467887
 30
0.0
 40
0.1548280539474969
 50
218.959561122569994
 51
223.3291113306036095
  0
ARC
  5
1073A
  8
0
 10
4189.3196158522541737
 20
185.7504431624383017
 30
0.0
 40
0.1583027004412481
 50
202.9414968047001935
 51
218.959561122569994
  0
ARC
  5
1073B
  8
0
 10
4189.3185865428713441
 20
185.7500074863584985
 30
0.0
 40
0.1571849833692172
 50
187.7522319820936048
 51
202.9414968047001935
  0
ARC
  5
1073C
  8
0
 10
4189.4699086856107897
 20
177.8410716050572944
 30
0.0
 40
7.9517580513079622
 50
89.8864438846619436
 51
91.6951605878872442
  0
ARC
  5
1073D
  8
0
 10
4189.2680437775688915
 20
184.6620373716577035
 30
0.0
 40
1.127805865790255
 50
91.6951605878872442
 51
97.6069470528145757
  0
ARC
  5
1073E
  8
0
 10
4189.7357646141117584
 20
185.9047617646654089
 30
0.0
 40
0.6295195428872143
 50
191.4385031007882105
 51
196.2367995572082009
  0
ARC
  5
1073F
  8
0
 10
4189.1320376155854319
 20
185.7289422920812001
 30
0.0
 40
0.0007121195137051
 50
196.2367995572114125
 51
233.7665509746013868
  0
ARC
  5
10740
  8
0
 10
4189.1384001024516692
 20
185.7408282405158104
 30
0.0
 40
0.0141871426840517
 50
241.4361741636419083
 51
261.4093279300407175
  0
ARC
  5
10741
  8
0
 10
4189.1807667117282108
 20
185.997134629247995
 30
0.0
 40
0.273970169887399
 50
260.6552448427967761
 51
266.4114048227935996
  0
ARC
  5
10742
  8
0
 10
4189.4804561669743634
 20
177.659492254658204
 30
0.0
 40
8.081733862150001
 50
89.9630470363609049
 51
91.859094108051849
  0
ARC
  5
10743
  8
0
 10
4189.2411475082499237
 20
185.0322034268234006
 30
0.0
 40
0.7051398878072228
 50
91.859094108051849
 51
98.957669978969335
  0
ARC
  5
10744
  8
0
 10
4189.1632747349949568
 20
187.098727001662013
 30
0.0
 40
1.33010418043252
 50
263.9568637510683971
 51
268.1783780955660745
  0
ARC
  5
10745
  8
0
 10
4189.485431522331055
 20
172.3548770696218071
 30
0.0
 40
13.4417566800295596
 50
89.9989899286636472
 51
90.4091502529572182
  0
ARC
  5
10746
  8
0
 10
4189.842106218698973
 20
150.2193858277088054
 30
0.0
 40
35.5797847955001671
 50
90.7289618535550062
 51
91.0207156074675652
  0
ARC
  5
10747
  8
0
 10
4189.3060682951672788
 20
181.4332611234200101
 30
0.0
 40
4.3613598242623706
 50
91.2845221684466424
 51
92.8467064964598165
  0
ARC
  5
10748
  8
0
 10
4189.1443866058843923
 20
184.6847570508178933
 30
0.0
 40
1.105846541455054
 50
92.8467064964598165
 51
96.3624674436480859
  0
ARC
  5
10749
  8
0
 10
4189.0277895206336325
 20
185.7304266278246132
 30
0.0
 40
0.0536964834471699
 50
96.3624674436480859
 51
108.2071338527244961
  0
ARC
  5
1074A
  8
0
 10
4189.0122201642498112
 20
185.7777612302938053
 30
0.0
 40
0.0038670799876493
 50
108.2071338527244961
 51
131.1632236352457141
  0
ARC
  5
1074B
  8
0
 10
4189.0102624550427208
 20
185.7800004018614004
 30
0.0
 40
0.0008927708827105
 50
131.1632236351946972
 51
221.8653970000021047
  0
ARC
  5
1074C
  8
0
 10
4189.0360219120229885
 20
185.8731650008161864
 30
0.0
 40
0.0979872500078748
 50
257.3032827459027772
 51
262.5077317980499174
  0
ARC
  5
1074D
  8
0
 10
4189.0186914115110994
 20
185.7962429558735948
 30
0.0
 40
0.0191370930888491
 50
241.6280713598000887
 51
257.3032827459027772
  0
ARC
  5
1074E
  8
0
 10
4190.4877248646798762
 20
185.3114730259003125
 30
0.0
 40
0.3132846827228382
 50
182.0712556191587908
 51
194.2651286854230932
  0
ARC
  5
1074F
  8
0
 10
4190.2629100901385755
 20
185.2543141523993881
 30
0.0
 40
0.0813174012553114
 50
194.2651286854230932
 51
231.598280047536889
  0
ARC
  5
10750
  8
0
 10
4190.2592155715574336
 20
185.2496531174724907
 30
0.0
 40
0.0753697366597221
 50
231.598280047536889
 51
257.5194006756229896
  0
ARC
  5
10751
  8
0
 10
4190.3727310920257878
 20
186.0104033100855077
 30
0.0
 40
0.8443757160086729
 50
261.1570086032426161
 51
268.1376559890749718
  0
LINE
  5
10752
  8
0
 10
4190.3452903068891828
 20
185.1664736014625987
 30
0.0
 11
4190.765202306334686
 21
185.1664736014625987
 31
0.0
  0
ARC
  5
10753
  8
0
 10
4190.7651952761525536
 20
185.1467850822396883
 30
0.0
 40
0.0196885204780889
 50
0.950689415120329
 51
89.9795413910893842
  0
LINE
  5
10754
  8
0
 10
4190.7848810864079496
 20
185.1471117521847987
 30
0.0
 11
4190.7848810864079496
 21
183.8459019806824131
 31
0.0
  0
LINE
  5
10755
  8
0
 10
4190.8051274720573929
 20
183.8581740558626052
 30
0.0
 11
4190.8171843826576151
 21
183.8618613716704999
 31
0.0
  0
LINE
  5
10756
  8
0
 10
4190.8171843826576151
 20
183.8618613716704999
 30
0.0
 11
4190.8173320248870368
 21
183.85763345725411
 31
0.0
  0
ARC
  5
10757
  8
0
 10
4190.6022654368580334
 20
184.4971822319627108
 30
0.0
 40
0.6747416339001294
 50
288.5866923319791795
 51
296.5796095393890255
  0
ARC
  5
10758
  8
0
 10
4190.7650817801295489
 20
183.8477786224867998
 30
0.0
 40
0.0198880444879631
 50
270.3291953418005846
 51
354.5854978075921053
  0
LINE
  5
10759
  8
0
 10
4190.7651960471075654
 20
183.8278909062626099
 30
0.0
 11
4190.3911864705623884
 21
183.8278909062626099
 31
0.0
  0
ARC
  5
1075A
  8
0
 10
4190.388870389119802
 20
177.7889856785785128
 30
0.0
 40
6.0389056718236089
 50
89.9780255393782085
 51
90.4788550882537237
  0
ARC
  5
1075B
  8
0
 10
4190.3440635729466521
 20
183.1500544639795862
 30
0.0
 40
0.677649646172786
 50
90.4788453194893378
 51
96.6037625063321315
  0
ARC
  5
1075C
  8
0
 10
4190.2813285769561844
 20
183.6919455197150057
 30
0.0
 40
0.1321392466311982
 50
96.6037625063321315
 51
115.3184151694490964
  0
ARC
  5
1075D
  8
0
 10
4190.2552281424177636
 20
183.7471155148570858
 30
0.0
 40
0.0711067876681018
 50
115.3184151694490964
 51
148.5142916949365031
  0
ARC
  5
1075E
  8
0
 10
4190.2799615845478911
 20
183.7319673269454938
 30
0.0
 40
0.1001104211756249
 50
148.5142916949365031
 51
170.0283787612953859
  0
ARC
  5
1075F
  8
0
 10
4190.9101365300839461
 20
183.621172285248889
 30
0.0
 40
0.7399510288639874
 50
170.0283787612953859
 51
173.7065180458625946
  0
ARC
  5
10760
  8
0
 10
4190.6022654388216324
 20
184.4971822363100102
 30
0.0
 40
0.6747416291332134
 50
63.4137529511504212
 51
72.5032665064895241
  0
LINE
  5
10761
  8
0
 10
4190.8051274720573929
 20
185.1407063318625887
 30
0.0
 11
4190.8051274720573929
 21
183.8581740558626052
 31
0.0
  0
ARC
  5
10762
  8
0
 10
4189.5103934232602114
 20
180.0612576908006019
 30
0.0
 40
5.6789213725317893
 50
87.4065205605730853
 51
90.2494556309534488
  0
ARC
  5
10763
  8
0
 10
4189.7508466833669445
 20
185.3697811693699009
 30
0.0
 40
0.3649549356018523
 50
82.0998070275315825
 51
87.4065205605730853
  0
ARC
  5
10764
  8
0
 10
4189.7979877253119412
 20
185.709499945869311
 30
0.0
 40
0.0219809935276217
 50
61.4326554252887576
 51
82.0998070275315825
  0
ARC
  5
10765
  8
0
 10
4189.6517211237623997
 20
185.7504431624383017
 30
0.0
 40
0.1583027004412481
 50
321.0404388774298923
 51
337.0585031952998065
  0
ARC
  5
10766
  8
0
 10
4189.6527504331443197
 20
185.7500074863584985
 30
0.0
 40
0.1571849833692172
 50
337.0585031952998065
 51
352.2477680179064237
  0
ARC
  5
10767
  8
0
 10
4189.5014282904039646
 20
177.8410716050572944
 30
0.0
 40
7.9517580513079622
 50
88.3048394121127558
 51
90.1135561153380564
  0
ARC
  5
10768
  8
0
 10
4189.7032931984467723
 20
184.6620373716577035
 30
0.0
 40
1.127805865790255
 50
82.3930529471854101
 51
88.3048394121127558
  0
ARC
  5
10769
  8
0
 10
4189.2355723619039054
 20
185.9047617646654089
 30
0.0
 40
0.6295195428872143
 50
343.7632004427916854
 51
348.5614968992118179
  0
ARC
  5
1076A
  8
0
 10
4189.8392993604302319
 20
185.7289422920812001
 30
0.0
 40
0.0007121195137051
 50
306.2334490253987269
 51
343.7632004427886159
  0
ARC
  5
1076B
  8
0
 10
4189.8329368735630851
 20
185.7408282405158104
 30
0.0
 40
0.0141871426840517
 50
278.5906720699592825
 51
298.5638258363580917
  0
ARC
  5
1076C
  8
0
 10
4189.7905702642883625
 20
185.997134629247995
 30
0.0
 40
0.273970169887399
 50
273.5885951772062867
 51
279.3447551572032239
  0
ARC
  5
1076D
  8
0
 10
4189.4908808090403909
 20
177.659492254658204
 30
0.0
 40
8.081733862150001
 50
88.1409058919481367
 51
90.0369529636391235
  0
ARC
  5
1076E
  8
0
 10
4189.7301894677639211
 20
185.0322034268234006
 30
0.0
 40
0.7051398878072228
 50
81.0423300210306508
 51
88.1409058919481367
  0
ARC
  5
1076F
  8
0
 10
4189.8080622410197975
 20
187.098727001662013
 30
0.0
 40
1.33010418043252
 50
271.8216219044339255
 51
276.0431362489316029
  0
ARC
  5
10770
  8
0
 10
4189.4859054536836993
 20
172.3548770696218071
 30
0.0
 40
13.4417566800295596
 50
89.590849747042796
 51
90.0010100713363386
  0
ARC
  5
10771
  8
0
 10
4189.1292307573157814
 20
150.2193858277088054
 30
0.0
 40
35.5797847955001671
 50
88.9792843925324348
 51
89.2710381464449938
  0
ARC
  5
10772
  8
0
 10
4189.665268680848385
 20
181.4332611234200101
 30
0.0
 40
4.3613598242623706
 50
87.1532935035401977
 51
88.7154778315533719
  0
ARC
  5
10773
  8
0
 10
4189.8269503701312715
 20
184.6847570508178933
 30
0.0
 40
1.105846541455054
 50
83.6375325563519141
 51
87.1532935035401977
  0
ARC
  5
10774
  8
0
 10
4189.9435474553811218
 20
185.7304266278246132
 30
0.0
 40
0.0536964834471699
 50
71.792866147275447
 51
83.6375325563519141
  0
ARC
  5
10775
  8
0
 10
4189.9591168117649431
 20
185.7777612302938053
 30
0.0
 40
0.0038670799876493
 50
48.8367763647543072
 51
71.792866147275447
  0
ARC
  5
10776
  8
0
 10
4189.9610745209720335
 20
185.7800004018614004
 30
0.0
 40
0.0008927708827105
 50
318.1346029999979237
 51
48.8367763648053383
  0
ARC
  5
10777
  8
0
 10
4189.9353150639917658
 20
185.8731650008161864
 30
0.0
 40
0.0979872500078748
 50
277.4922682019500826
 51
282.6967172540971092
  0
ARC
  5
10778
  8
0
 10
4189.9526455645045644
 20
185.7962429558735948
 30
0.0
 40
0.0191370930888491
 50
282.6967172540971092
 51
298.3719286401998829
  0
LINE
  5
10779
  8
0
 10
4190.8051274720573929
 20
183.8581740558626052
 30
0.0
 11
4190.7848810864979896
 21
183.8584304486365113
 31
0.0
  0
LINE
  5
1077A
  8
0
 10
4190.9041724029575562
 20
183.8246268785626114
 30
0.0
 11
4190.9041724470580448
 21
185.1697375276625905
 31
0.0
  0
LINE
  5
1077B
  8
0
 10
4190.9041724470580448
 20
185.1697375276625905
 30
0.0
 11
4191.1987609087582314
 21
185.1671666834625967
 31
0.0
  0
LINE
  5
1077C
  8
0
 10
4190.7848810864079496
 20
185.1408830193630877
 30
0.0
 11
4190.8051274720573929
 21
185.1407063318625887
 31
0.0
  0
LINE
  5
1077D
  8
0
 10
4190.9041724029575562
 20
183.8246268785626114
 30
0.0
 11
4191.2191330329578705
 21
183.8273754879625983
 31
0.0
  0
ARC
  5
1077E
  8
0
 10
4191.3508619861231637
 20
183.1701949185211049
 30
0.0
 40
0.6702528015259449
 50
79.6655168865227239
 51
101.3344793746060049
  0
LINE
  5
1077F
  8
0
 10
4191.4711015369566667
 20
183.8295743755626006
 30
0.0
 11
4191.6012976398578758
 21
183.8307105754626036
 31
0.0
  0
ARC
  5
10780
  8
0
 10
4191.6009372831040309
 20
183.8622910898899931
 30
0.0
 40
0.0315816964133946
 50
270.6536697592929954
 51
359.8429372099637931
  0
ARC
  5
10781
  8
0
 10
4191.199448040039897
 20
185.2459038435557943
 30
0.0
 40
0.078740158298954
 50
269.4999981837161158
 51
283.3117265755749941
  0
ARC
  5
10782
  8
0
 10
4191.1994480402636327
 20
185.2459038426096924
 30
0.0
 40
0.0787401573267421
 50
283.3117265755749941
 51
326.3522726132662797
  0
ARC
  5
10783
  8
0
 10
4191.1994480399307577
 20
185.2459038428310976
 30
0.0
 40
0.0787401577262427
 50
326.3522726132662797
 51
359.9574427086619721
  0
LINE
  5
10784
  8
0
 10
4191.2781881392511423
 20
185.2458079370692872
 30
0.0
 11
4191.2781882035578747
 21
186.0402132620625935
 31
0.0
  0
ARC
  5
10785
  8
0
 10
4191.3096842071072388
 20
186.0402132595129956
 30
0.0
 40
0.0314960035496591
 50
89.9998765704066841
 51
179.9999953619341966
  0
ARC
  5
10786
  8
0
 10
4191.3096488860674071
 20
169.6442507795090933
 30
0.0
 40
16.4274584835915896
 50
89.0006236475733203
 51
89.9998765704066841
  0
ARC
  5
10787
  8
0
 10
4191.5955151484267844
 20
186.0317400732618012
 30
0.0
 40
0.0374760286646397
 50
9.1054532448645737
 51
89.0006236475733203
  0
LINE
  5
10788
  8
0
 10
4191.6325189322578808
 20
186.0376707314626117
 30
0.0
 11
4191.6325188608579992
 21
183.8622045162682923
 31
0.0
  0
LINE
  5
10789
  8
0
 10
4188.5014026703183845
 20
181.7412767509626121
 30
0.0
 11
4190.4699204566077242
 21
181.7412767509626121
 31
0.0
  0
LINE
  5
1078A
  8
0
 10
4190.025412723768568
 20
186.3532690547625918
 30
0.0
 11
4188.9092274657423332
 21
186.3532690547625918
 31
0.0
  0
ARC
  5
108D4
  8
0
 10
4189.6544229739092771
 20
185.7482584029467887
 30
0.0
 40
0.1548280539474969
 50
316.6708886694286207
 51
321.0404388773998789
  0
ENDSEC
  0
EOF
