  0
SECTION
  2
HEADER
  9
$ACADVER
  1
AC1009
  9
$INSBASE
 10
-92.0698568596443039
 20
1.87448982178382
 30
0.0
  9
$EXTMIN
 10
-94.4386629987539976
 20
-1.5055581763962169
 30
-0.0000000349181948
  9
$EXTMAX
 10
-89.7019475983485677
 20
1.879810050100079
 30
0.0000000814935746
  9
$LIMMIN
 10
0.0
 20
0.0
  9
$LIMMAX
 10
11.6929133858000007
 20
8.2677165353999982
  9
$ORTHOMODE
 70
     0
  9
$REGENMODE
 70
     1
  9
$FILLMODE
 70
     1
  9
$QTEXTMODE
 70
     0
  9
$MIRRTEXT
 70
     0
  9
$DRAGMODE
 70
     2
  9
$LTSCALE
 40
0.6431102362
  9
$OSMODE
 70
  2039
  9
$ATTMODE
 70
     1
  9
$TEXTSIZE
 40
0.2
  9
$TRACEWID
 40
0.05
  9
$TEXTSTYLE
  7
STANDARD
  9
$CLAYER
  8
0
  9
$CELTYPE
  6
BYLAYER
  9
$CECOLOR
 62
   256
  9
$DIMSCALE
 40
1.0
  9
$DIMASZ
 40
0.1875
  9
$DIMEXO
 40
0.0625
  9
$DIMDLI
 40
0.4443307087
  9
$DIMRND
 40
0.0
  9
$DIMDLE
 40
0.0
  9
$DIMEXE
 40
0.125
  9
$DIMTP
 40
0.01
  9
$DIMTM
 40
0.01
  9
$DIMTXT
 40
1.0
  9
$DIMCEN
 40
0.1052362205
  9
$DIMTSZ
 40
0.0
  9
$DIMTOL
 70
     1
  9
$DIMLIM
 70
     0
  9
$DIMTIH
 70
     1
  9
$DIMTOH
 70
     1
  9
$DIMSE1
 70
     0
  9
$DIMSE2
 70
     0
  9
$DIMTAD
 70
     0
  9
$DIMZIN
 70
     0
  9
$DIMBLK
  1

  9
$DIMASO
 70
     1
  9
$DIMSHO
 70
     1
  9
$DIMPOST
  1
\X
  9
$DIMAPOST
  1

  9
$DIMALT
 70
     1
  9
$DIMALTD
 70
     2
  9
$DIMALTF
 40
25.3999999999999986
  9
$DIMLFAC
 40
1.0
  9
$DIMTOFL
 70
     0
  9
$DIMTVP
 40
0.0
  9
$DIMTIX
 70
     0
  9
$DIMSOXD
 70
     0
  9
$DIMSAH
 70
     0
  9
$DIMBLK1
  1

  9
$DIMBLK2
  1

  9
$DIMSTYLE
  2
STANDARD
  9
$DIMCLRD
 70
     0
  9
$DIMCLRE
 70
     0
  9
$DIMCLRT
 70
     0
  9
$DIMTFAC
 40
1.0
  9
$DIMGAP
 40
0.09
  9
$LUNITS
 70
     2
  9
$LUPREC
 70
     4
  9
$SKETCHINC
 40
0.1
  9
$FILLETRAD
 40
0.0
  9
$AUNITS
 70
     0
  9
$AUPREC
 70
     0
  9
$MENU
  1
.
  9
$ELEVATION
 40
0.0
  9
$PELEVATION
 40
0.0
  9
$THICKNESS
 40
0.0
  9
$LIMCHECK
 70
     0
  9
$BLIPMODE
 70
     0
  9
$CHAMFERA
 40
0.0
  9
$CHAMFERB
 40
0.0
  9
$SKPOLY
 70
     0
  9
$TDCREATE
 40
2458172.4620254631154239
  9
$TDUPDATE
 40
2459131.8298495369963348
  9
$TDINDWG
 40
0.1504920486
  9
$TDUSRTIMER
 40
0.1504920486
  9
$USRTIMER
 70
     1
  9
$ANGBASE
 50
0.0
  9
$ANGDIR
 70
     0
  9
$PDMODE
 70
     0
  9
$PDSIZE
 40
0.3125
  9
$PLINEWID
 40
0.0
  9
$COORDS
 70
     1
  9
$SPLFRAME
 70
     0
  9
$SPLINETYPE
 70
     6
  9
$SPLINESEGS
 70
     8
  9
$ATTDIA
 70
     1
  9
$ATTREQ
 70
     1
  9
$HANDLING
 70
     1
  9
$HANDSEED
  5
14F0D
  9
$SURFTAB1
 70
     6
  9
$SURFTAB2
 70
     6
  9
$SURFTYPE
 70
     6
  9
$SURFU
 70
     6
  9
$SURFV
 70
     6
  9
$UCSNAME
  2

  9
$UCSORG
 10
0.0
 20
0.0
 30
0.0
  9
$UCSXDIR
 10
1.0
 20
0.0
 30
0.0
  9
$UCSYDIR
 10
0.0
 20
1.0
 30
0.0
  9
$PUCSNAME
  2

  9
$PUCSORG
 10
0.0
 20
0.0
 30
0.0
  9
$PUCSXDIR
 10
1.0
 20
0.0
 30
0.0
  9
$PUCSYDIR
 10
0.0
 20
1.0
 30
0.0
  9
$USERI1
 70
     0
  9
$USERI2
 70
     0
  9
$USERI3
 70
     0
  9
$USERI4
 70
     0
  9
$USERI5
 70
     0
  9
$USERR1
 40
0.0
  9
$USERR2
 40
0.0
  9
$USERR3
 40
0.0
  9
$USERR4
 40
0.0
  9
$USERR5
 40
0.0
  9
$WORLDVIEW
 70
     1
  9
$SHADEDGE
 70
     3
  9
$SHADEDIF
 70
    70
  9
$TILEMODE
 70
     1
  9
$MAXACTVP
 70
    64
  9
$PLIMCHECK
 70
     0
  9
$PEXTMIN
 10
1.0000000000000000E+20
 20
1.0000000000000000E+20
 30
1.0000000000000000E+20
  9
$PEXTMAX
 10
-1.0000000000000000E+20
 20
-1.0000000000000000E+20
 30
-1.0000000000000000E+20
  9
$PLIMMIN
 10
0.0
 20
0.0
  9
$PLIMMAX
 10
12.0
 20
9.0
  9
$UNITMODE
 70
     0
  9
$VISRETAIN
 70
     1
  9
$PLINEGEN
 70
     0
  9
$PSLTSCALE
 70
     1
  0
ENDSEC
  0
SECTION
  2
TABLES
  0
TABLE
  2
VPORT
 70
     1
  0
VPORT
  2
*ACTIVE
 70
     0
 10
0.0
 20
0.0
 11
1.0
 21
1.0
 12
-216.681463898623889
 22
-5.1251482335258931
 13
0.0
 23
0.0
 14
1.0
 24
1.0
 15
0.0
 25
0.0
 16
0.0
 26
0.0
 36
30.6214257250603907
 17
124.6111586000725993
 27
5.3122741703778242
 37
0.0
 40
3.4135405002258081
 41
2.6486111111111108
 42
50.0
 43
0.0
 44
0.0
 50
0.0
 51
0.0
 71
     0
 72
   100
 73
     1
 74
     1
 75
     0
 76
     0
 77
     0
 78
     0
  0
ENDTAB
  0
TABLE
  2
LTYPE
 70
     2
  0
LTYPE
  2
CONTINUOUS
 70
     0
  3
Solid line
 72
    65
 73
     0
 40
0.0
  0
LTYPE
  2
PHANTOM2
 70
     0
  3
___ _ _ ___ _ _ ___ _ _ ___ _ _
 72
    65
 73
     6
 40
1.25
 49
0.625
 49
-0.125
 49
0.125
 49
-0.125
 49
0.125
 49
-0.125
  0
ENDTAB
  0
TABLE
  2
LAYER
 70
     2
  0
LAYER
  2
0
 70
     0
 62
   255
  6
CONTINUOUS
  0
LAYER
  2
DEFPOINTS
 70
     0
 62
     7
  6
CONTINUOUS
  0
ENDTAB
  0
TABLE
  2
STYLE
 70
     1
  0
STYLE
  2
STANDARD
 70
     0
 40
0.0
 41
0.8
 50
0.0
 71
     0
 42
0.2
  3
txt
  4

  0
ENDTAB
  0
TABLE
  2
VIEW
 70
     0
  0
ENDTAB
  0
TABLE
  2
UCS
 70
     0
  0
ENDTAB
  0
TABLE
  2
APPID
 70
     9
  0
APPID
  2
ACAD
 70
     0
  0
APPID
  2
ACAD_MLEADERVER
 70
     0
  0
APPID
  2
ACAD_EXEMPT_FROM_CAD_STANDARDS
 70
     0
  0
APPID
  2
ACAD_DSTYLE_DIMJAG
 70
     0
  0
APPID
  2
ACAD_DSTYLE_DIMTALN
 70
     0
  0
APPID
  2
ACAD_NAV_VCDISPLAY
 70
     0
  0
APPID
  2
ACAECLAYERSTANDARD
 70
     0
  0
APPID
  2
ACCMTRANSPARENCY
 70
     0
  0
APPID
  2
ACDBATTR
 70
     0
  0
ENDTAB
  0
TABLE
  2
DIMSTYLE
 70
     1
  0
DIMSTYLE
  2
STANDARD
 70
     0
  3

  4

  5

  6

  7

 40
1.0
 41
0.1875
 42
0.0625
 43
0.38
 44
0.125
 45
0.0
 46
0.0
 47
0.01
 48
0.01
140
0.15625
141
0.09
142
0.0
143
25.3999999999999986
144
1.0
145
0.0
146
1.0
147
0.09
 71
     1
 72
     0
 73
     1
 74
     1
 75
     0
 76
     0
 77
     0
 78
     4
170
     0
171
     2
172
     0
173
     0
174
     0
175
     0
176
     0
177
     0
178
     0
  0
ENDTAB
  0
ENDSEC
  0
SECTION
  2
BLOCKS
  0
BLOCK
  8
0
  2
$MODEL_SPACE
 70
     0
 10
0.0
 20
0.0
 30
0.0
  3
$MODEL_SPACE
  1

  0
ENDBLK
  5
21
  8
0
  0
BLOCK
 67
     1
  8
0
  2
$PAPER_SPACE
 70
     0
 10
0.0
 20
0.0
 30
0.0
  3
$PAPER_SPACE
  1

  0
ENDBLK
  5
1D
 67
     1
  8
0
  0
BLOCK
  8
0
  2
_FILLED
 70
     0
 10
0.0
 20
0.0
 30
0.0
  3
_FILLED
  1

  0
SOLID
  5
69C2
  8
0
  6
BYBLOCK
 62
     0
 10
0.0
 20
0.0
 30
0.0
 11
-1.0
 21
0.1666666667
 31
0.0
 12
-1.0
 22
-0.1666666667
 32
0.0
 13
-1.0
 23
-0.1666666667
 33
0.0
  0
ENDBLK
  5
69C3
  8
0
  6
BYBLOCK
 62
     0
  0
ENDSEC
  0
SECTION
  2
ENTITIES
  0
ATTDEF
  5
145FE
  8
DEFPOINTS
 10
-92.069588057721333
 20
1.8782313155615511
 30
0.0
 40
0.001
  1
K-73193T-4CD
  3

  2
MODELNUMBER
 70
     0
1001
ACDBATTR
1070
     0
1070
     1
  0
ATTDEF
  5
145FF
  8
DEFPOINTS
 10
-92.069588057721333
 20
1.8765646488948859
 30
0.0
 40
0.001
  1
TAUT
  3

  2
TRADENAME
 70
     0
1001
ACDBATTR
1070
     0
1070
     1
  0
ATTDEF
  5
14600
  8
DEFPOINTS
 10
-92.069588057721333
 20
1.874897982228221
 30
0.0
 40
0.001
  1
VALVE TRIM
  3

  2
PRODUCT
 70
     0
1001
ACDBATTR
1070
     0
1070
     1
  0
LINE
  5
14C56
  8
0
 10
-94.4320615840443054
 20
1.6382693492838201
 30
0.0
 11
-94.4320615840443054
 21
1.87448982178382
 31
0.0
  0
LINE
  5
14C57
  8
0
 10
-89.7076521352443024
 20
1.6382693492838201
 30
0.0
 11
-89.7076521352443024
 21
1.87448982178382
 31
0.0
  0
LINE
  5
14C58
  8
0
 10
-93.0341587553353548
 20
-1.47774168850729
 30
0.0
 11
-93.0341587553353548
 21
-0.442746398716178
 31
0.0
  0
LINE
  5
14C59
  8
0
 10
-91.1052711521637946
 20
-1.4738742027600049
 30
0.0
 11
-91.1052711521637946
 21
-0.442746398716178
 31
0.0
  0
LINE
  5
14C5A
  8
0
 10
-89.7076521352443024
 20
1.87448982178382
 30
0.0
 11
-94.4320615840443054
 21
1.87448982178382
 31
0.0
  0
ARC
  5
14C5B
  8
0
 10
-94.3926915053443025
 20
1.6382693492838181
 30
0.0
 40
0.0393700786999975
 50
179.9999999999972999
 51
270.0000000000040927
  0
LINE
  5
14C5C
  8
0
 10
-94.3926915053443025
 20
1.598899270583821
 30
0.0
 11
-89.747022214044307
 21
1.5988992705841321
 31
0.0
  0
ARC
  5
14C5D
  8
0
 10
-89.747022214044307
 20
1.6382693492841329
 30
0.0
 40
0.0393700787000011
 50
270.0000000000048885
 51
359.9999999995450253
  0
ARC
  5
14C5E
  8
0
 10
-93.0026957246554673
 20
-1.473642717740878
 30
0.0
 40
0.0317289120662448
 50
187.4226289039266078
 51
269.6994628549861091
  0
LINE
  5
14C5F
  8
0
 10
-93.0028621535443136
 20
-1.505371193316178
 30
0.0
 11
-91.1368644264443049
 21
-1.505371193316178
 31
0.0
  0
ARC
  5
14C60
  8
0
 10
-91.1368416305534339
 20
-1.473800613230912
 30
0.0
 40
0.0315705641566551
 50
270.0391535533102001
 51
359.8664460597038897
  0
LINE
  5
14C61
  8
0
 10
-93.0341587553353548
 20
-0.4427463987161798
 30
0.0
 11
-92.8769434738443067
 21
-0.4427463987161762
 31
0.0
  0
LINE
  5
14C62
  8
0
 10
-91.262770245544317
 20
-0.4427463987161762
 30
0.0
 11
-91.1052711521637946
 21
-0.442746398716178
 31
0.0
  0
LINE
  5
14C63
  8
0
 10
-93.0245812691443064
 20
-0.4033841940161782
 30
0.0
 11
-93.0324552848442892
 21
-0.3955101782161776
 31
0.0
  0
LINE
  5
14C64
  8
0
 10
-93.0324552848442892
 20
-0.3955101782161776
 30
0.0
 11
-93.0324552848442892
 21
1.598899270583821
 31
0.0
  0
LINE
  5
14C65
  8
0
 10
-91.1072584344443044
 20
1.598899270583821
 30
0.0
 11
-91.1072584344443044
 21
-0.3955101782161776
 31
0.0
  0
LINE
  5
14C66
  8
0
 10
-91.1072584344443044
 20
-0.3955101782161776
 30
0.0
 11
-91.1151324502443032
 21
-0.4033841940161782
 31
0.0
  0
LINE
  5
14C67
  8
0
 10
-91.1151324502443032
 20
-0.4033841940161782
 30
0.0
 11
-93.0245812691443064
 21
-0.4033841940161782
 31
0.0
  0
LINE
  5
14C68
  8
0
 10
-92.8769434738443067
 20
-0.4033841940161782
 30
0.0
 11
-92.8769434738443067
 21
-0.4821243514161786
 31
0.0
  0
ARC
  5
14C69
  8
0
 10
-92.1171009541443055
 20
-0.4821243514161769
 30
0.0
 40
0.7598425196999923
 50
180.0000000000001137
 51
193.2725120817001141
  0
LINE
  5
14C6A
  8
0
 10
-91.262770245544317
 20
-0.4033841940161782
 30
0.0
 11
-91.2627702454443011
 21
-0.4821243504511728
 31
0.0
  0
ARC
  5
14C6B
  8
0
 10
-92.0226127651442738
 20
-0.4821243514161822
 30
0.0
 40
0.7598425196999675
 50
346.7113739616995076
 51
0.0000000727663076
  0
ARC
  5
14C6C
  8
0
 10
-92.7540515792656777
 20
-0.4323183126314465
 30
0.0
 40
0.2817451326858615
 50
186.1811778935885116
 51
228.5721955995931012
  0
ARC
  5
14C6D
  8
0
 10
-92.3797370489928369
 20
-0.0081569416890428
 30
0.0
 40
0.8474519791824496
 50
228.5721955995931012
 51
254.8914244375737042
  0
ARC
  5
14C6E
  8
0
 10
-91.9435030638272934
 20
1.6076364970880119
 30
0.0
 40
2.5210972601809019
 50
254.8914244375737042
 51
261.3164864639659868
  0
ARC
  5
14C6F
  8
0
 10
-92.0694893468107267
 20
1.092528554813194
 30
0.0
 40
1.99342166560409
 50
262.660979900996324
 51
269.9901575107834901
  0
ARC
  5
14C70
  8
0
 10
-92.0665154639842171
 20
1.027664402558631
 30
0.0
 40
1.9285603352839189
 50
269.9014750764895894
 51
283.2214007136835789
  0
ARC
  5
14C71
  8
0
 10
-91.8086686510981167
 20
0.0755335818251162
 30
0.0
 40
0.9432798891883895
 50
281.2015814277473851
 51
309.7058333160151165
  0
ARC
  5
14C72
  8
0
 10
-91.4311669088158965
 20
-0.4006324688290377
 30
0.0
 40
0.3360656728265313
 50
312.0544301985731863
 51
338.7146857971889062
  0
ARC
  5
14C73
  8
0
 10
-91.3689637096618839
 20
-0.4393954640006168
 30
0.0
 40
0.264381114480776
 50
341.6499260943572835
 51
355.8639416121607155
  0
ARC
  5
14C74
  8
0
 10
-91.3990915930726118
 20
-0.4420589119626595
 30
0.0
 40
0.2345695679885998
 50
324.0456671038987793
 51
359.832074782000916
  0
ARC
  5
14C75
  8
0
 10
-91.5494487504506225
 20
-0.3271699741276279
 30
0.0
 40
0.4237636737111812
 50
308.9391748047081023
 51
323.4074556908694831
  0
ARC
  5
14C76
  8
0
 10
-91.9572764874189517
 20
0.3509984373532617
 30
0.0
 40
1.2124804332205541
 50
275.3803133295286898
 51
303.7808692448014085
  0
ARC
  5
14C77
  8
0
 10
-92.1496978671851394
 20
2.5883539228685901
 30
0.0
 40
3.459181136412107
 50
271.3239674501314767
 51
275.7632679010673087
  0
ARC
  5
14C78
  8
0
 10
-92.0793012648509972
 20
0.879449623846261
 30
0.0
 40
1.7493793011712231
 50
254.9488795936539134
 51
270.312116507712517
  0
ARC
  5
14C79
  8
0
 10
-92.3000192214390154
 20
0.0991383213160937
 30
0.0
 40
0.9385796411267289
 50
233.6259860895239058
 51
255.5907398629097997
  0
ARC
  5
14C7A
  8
0
 10
-92.6739342872495655
 20
-0.4103529858422892
 30
0.0
 40
0.3066063742982017
 50
193.3758697791832049
 51
233.4216948841776968
  0
ARC
  5
14C7B
  8
0
 10
-92.8321873728198881
 20
-0.4511058692601449
 30
0.0
 40
0.1432474381660534
 50
176.654497576881397
 51
192.2225975107477041
  0
LINE
  5
14C7C
  8
0
 10
-92.2985186262186943
 20
-0.8561400995161783
 30
0.0
 11
-91.8312719507383832
 21
-0.8561400995161783
 31
0.0
  0
ARC
  5
14C7D
  8
0
 10
-92.0695094849747591
 20
-1.0037522536742249
 30
0.0
 40
0.1411088272020622
 50
73.1431514997879475
 51
108.0657111466042011
  0
ENDSEC
  0
EOF
