  0
SECTION
  2
HEADER
  9
$ACADVER
  1
AC1009
  9
$INSBASE
 10
5389.4670413826788717
 20
-13.5730050187528395
 30
0.0
  9
$EXTMIN
 10
5385.0252972448288347
 20
-35.9970392686684235
 30
-0.0015258207003583
  9
$EXTMAX
 10
5395.315724984584449
 20
-13.5668073114855297
 30
0.0000000349246037
  9
$LIMMIN
 10
0.0
 20
0.0
  9
$LIMMAX
 10
11.6929133858000007
 20
8.2677165353999982
  9
$ORTHOMODE
 70
     0
  9
$REGENMODE
 70
     1
  9
$FILLMODE
 70
     1
  9
$QTEXTMODE
 70
     0
  9
$MIRRTEXT
 70
     0
  9
$DRAGMODE
 70
     2
  9
$LTSCALE
 40
0.6431102362
  9
$OSMODE
 70
  4095
  9
$ATTMODE
 70
     1
  9
$TEXTSIZE
 40
0.2
  9
$TRACEWID
 40
0.05
  9
$TEXTSTYLE
  7
STANDARD
  9
$CLAYER
  8
0
  9
$CELTYPE
  6
BYLAYER
  9
$CECOLOR
 62
   256
  9
$DIMSCALE
 40
1.0
  9
$DIMASZ
 40
0.1875
  9
$DIMEXO
 40
0.0625
  9
$DIMDLI
 40
0.4443307087
  9
$DIMRND
 40
0.0
  9
$DIMDLE
 40
0.0
  9
$DIMEXE
 40
0.125
  9
$DIMTP
 40
0.01
  9
$DIMTM
 40
0.01
  9
$DIMTXT
 40
2.0
  9
$DIMCEN
 40
0.1052362205
  9
$DIMTSZ
 40
0.0
  9
$DIMTOL
 70
     1
  9
$DIMLIM
 70
     0
  9
$DIMTIH
 70
     1
  9
$DIMTOH
 70
     1
  9
$DIMSE1
 70
     0
  9
$DIMSE2
 70
     0
  9
$DIMTAD
 70
     0
  9
$DIMZIN
 70
     0
  9
$DIMBLK
  1

  9
$DIMASO
 70
     1
  9
$DIMSHO
 70
     1
  9
$DIMPOST
  1
\X
  9
$DIMAPOST
  1

  9
$DIMALT
 70
     1
  9
$DIMALTD
 70
     2
  9
$DIMALTF
 40
25.3999999999999986
  9
$DIMLFAC
 40
1.0
  9
$DIMTOFL
 70
     0
  9
$DIMTVP
 40
0.0
  9
$DIMTIX
 70
     0
  9
$DIMSOXD
 70
     0
  9
$DIMSAH
 70
     0
  9
$DIMBLK1
  1

  9
$DIMBLK2
  1

  9
$DIMSTYLE
  2
STANDARD
  9
$DIMCLRD
 70
     0
  9
$DIMCLRE
 70
     0
  9
$DIMCLRT
 70
     0
  9
$DIMTFAC
 40
1.0
  9
$DIMGAP
 40
0.09
  9
$LUNITS
 70
     2
  9
$LUPREC
 70
     4
  9
$SKETCHINC
 40
0.1
  9
$FILLETRAD
 40
0.0
  9
$AUNITS
 70
     0
  9
$AUPREC
 70
     0
  9
$MENU
  1
.
  9
$ELEVATION
 40
0.0
  9
$PELEVATION
 40
0.0
  9
$THICKNESS
 40
0.0
  9
$LIMCHECK
 70
     0
  9
$BLIPMODE
 70
     0
  9
$CHAMFERA
 40
0.0
  9
$CHAMFERB
 40
0.0
  9
$SKPOLY
 70
     0
  9
$TDCREATE
 40
2458060.468368056230247
  9
$TDUPDATE
 40
2460119.6810763888061047
  9
$TDINDWG
 40
0.6019862269
  9
$TDUSRTIMER
 40
0.6019862269
  9
$USRTIMER
 70
     1
  9
$ANGBASE
 50
0.0
  9
$ANGDIR
 70
     0
  9
$PDMODE
 70
     0
  9
$PDSIZE
 40
0.3125
  9
$PLINEWID
 40
0.0
  9
$COORDS
 70
     1
  9
$SPLFRAME
 70
     0
  9
$SPLINETYPE
 70
     6
  9
$SPLINESEGS
 70
     8
  9
$ATTDIA
 70
     1
  9
$ATTREQ
 70
     1
  9
$HANDLING
 70
     1
  9
$HANDSEED
  5
23F48
  9
$SURFTAB1
 70
     6
  9
$SURFTAB2
 70
     6
  9
$SURFTYPE
 70
     6
  9
$SURFU
 70
     6
  9
$SURFV
 70
     6
  9
$UCSNAME
  2

  9
$UCSORG
 10
0.0
 20
0.0
 30
0.0
  9
$UCSXDIR
 10
1.0
 20
0.0
 30
0.0
  9
$UCSYDIR
 10
0.0
 20
1.0
 30
0.0
  9
$PUCSNAME
  2

  9
$PUCSORG
 10
0.0
 20
0.0
 30
0.0
  9
$PUCSXDIR
 10
1.0
 20
0.0
 30
0.0
  9
$PUCSYDIR
 10
0.0
 20
1.0
 30
0.0
  9
$USERI1
 70
     0
  9
$USERI2
 70
     0
  9
$USERI3
 70
     0
  9
$USERI4
 70
     0
  9
$USERI5
 70
     0
  9
$USERR1
 40
0.0
  9
$USERR2
 40
0.0
  9
$USERR3
 40
0.0
  9
$USERR4
 40
0.0
  9
$USERR5
 40
0.0
  9
$WORLDVIEW
 70
     1
  9
$SHADEDGE
 70
     3
  9
$SHADEDIF
 70
    70
  9
$TILEMODE
 70
     1
  9
$MAXACTVP
 70
    64
  9
$PLIMCHECK
 70
     0
  9
$PEXTMIN
 10
1.0000000000000000E+20
 20
1.0000000000000000E+20
 30
1.0000000000000000E+20
  9
$PEXTMAX
 10
-1.0000000000000000E+20
 20
-1.0000000000000000E+20
 30
-1.0000000000000000E+20
  9
$PLIMMIN
 10
0.0
 20
0.0
  9
$PLIMMAX
 10
12.0
 20
9.0
  9
$UNITMODE
 70
     0
  9
$VISRETAIN
 70
     1
  9
$PLINEGEN
 70
     0
  9
$PSLTSCALE
 70
     1
  0
ENDSEC
  0
SECTION
  2
TABLES
  0
TABLE
  2
VPORT
 70
     1
  0
VPORT
  2
*ACTIVE
 70
     0
 10
0.0
 20
0.0
 11
1.0
 21
1.0
 12
1597.8126009584570966
 22
-144.9625797231823867
 13
0.0
 23
0.0
 14
1.0
 24
1.0
 15
0.0
 25
0.0
 16
0.0
 26
0.0
 36
5.1040778033513332
 17
3792.35791015625
 27
120.1806564331053977
 37
0.0
 40
22.6313999567988198
 41
2.8398203592814371
 42
50.0
 43
0.0
 44
0.0
 50
0.0
 51
0.0
 71
     0
 72
   100
 73
     1
 74
     1
 75
     0
 76
     0
 77
     0
 78
     0
  0
ENDTAB
  0
TABLE
  2
LTYPE
 70
     2
  0
LTYPE
  2
CONTINUOUS
 70
     0
  3
Solid line
 72
    65
 73
     0
 40
0.0
  0
LTYPE
  2
PHANTOM2
 70
     0
  3
___ _ _ ___ _ _ ___ _ _ ___ _ _
 72
    65
 73
     6
 40
1.25
 49
0.625
 49
-0.125
 49
0.125
 49
-0.125
 49
0.125
 49
-0.125
  0
ENDTAB
  0
TABLE
  2
LAYER
 70
     2
  0
LAYER
  2
0
 70
     0
 62
   255
  6
CONTINUOUS
  0
LAYER
  2
DEFPOINTS
 70
     0
 62
     7
  6
CONTINUOUS
  0
ENDTAB
  0
TABLE
  2
STYLE
 70
     1
  0
STYLE
  2
STANDARD
 70
     0
 40
0.0
 41
0.8
 50
0.0
 71
     0
 42
0.2
  3
txt
  4

  0
ENDTAB
  0
TABLE
  2
VIEW
 70
     0
  0
ENDTAB
  0
TABLE
  2
UCS
 70
     0
  0
ENDTAB
  0
TABLE
  2
APPID
 70
     9
  0
APPID
  2
ACAD
 70
     0
  0
APPID
  2
ACAD_MLEADERVER
 70
     0
  0
APPID
  2
ACAD_EXEMPT_FROM_CAD_STANDARDS
 70
     0
  0
APPID
  2
ACAD_NAV_VCDISPLAY
 70
     0
  0
APPID
  2
ACAECLAYERSTANDARD
 70
     0
  0
APPID
  2
ACCMTRANSPARENCY
 70
     0
  0
APPID
  2
ACAD_DSTYLE_DIMJAG
 70
     0
  0
APPID
  2
ACAD_DSTYLE_DIMTALN
 70
     0
  0
APPID
  2
ACDBATTR
 70
     0
  0
ENDTAB
  0
TABLE
  2
DIMSTYLE
 70
     1
  0
DIMSTYLE
  2
STANDARD
 70
     0
  3

  4

  5

  6

  7

 40
1.0
 41
0.1875
 42
0.0625
 43
0.38
 44
0.125
 45
0.0
 46
0.0
 47
0.01
 48
0.01
140
0.15625
141
0.09
142
0.0
143
25.3999999999999986
144
1.0
145
0.0
146
1.0
147
0.09
 71
     1
 72
     0
 73
     1
 74
     1
 75
     0
 76
     0
 77
     0
 78
     4
170
     0
171
     2
172
     0
173
     0
174
     0
175
     0
176
     0
177
     0
178
     0
  0
ENDTAB
  0
ENDSEC
  0
SECTION
  2
BLOCKS
  0
BLOCK
  8
0
  2
$MODEL_SPACE
 70
     0
 10
0.0
 20
0.0
 30
0.0
  3
$MODEL_SPACE
  1

  0
ENDBLK
  5
21
  8
0
  0
BLOCK
 67
     1
  8
0
  2
$PAPER_SPACE
 70
     0
 10
0.0
 20
0.0
 30
0.0
  3
$PAPER_SPACE
  1

  0
ENDBLK
  5
1D
 67
     1
  8
0
  0
BLOCK
  8
0
  2
_FILLED
 70
     0
 10
0.0
 20
0.0
 30
0.0
  3
_FILLED
  1

  0
SOLID
  5
1CA7B
  8
0
  6
BYBLOCK
 62
     0
 10
0.0
 20
0.0
 30
0.0
 11
-1.0
 21
0.1666666667
 31
0.0
 12
-1.0
 22
-0.1666666667
 32
0.0
 13
-1.0
 23
-0.1666666667
 33
0.0
  0
ENDBLK
  5
1CA7C
  8
0
  6
BYBLOCK
 62
     0
  0
ENDSEC
  0
SECTION
  2
ENTITIES
  0
ATTDEF
  5
3930
  8
DEFPOINTS
 10
5389.4555080849922888
 20
-13.5692135875484006
 30
0.0
 40
0.001
  1
K-73194X-4A
  3

  2
MODELNUMBER
 70
     0
1001
ACDBATTR
1070
     0
1070
     1
  0
ATTDEF
  5
3931
  8
DEFPOINTS
 10
5389.4555080849922888
 20
-13.5708802542150693
 30
0.0
 40
0.001
  1
TAUT
  3

  2
TRADENAME
 70
     0
1001
ACDBATTR
1070
     0
1070
     1
  0
ATTDEF
  5
3932
  8
DEFPOINTS
 10
5389.4555080849922888
 20
-13.5725469208817309
 30
0.0
 40
0.001
  1
SHOWER COLUMN
  3

  2
PRODUCT
 70
     0
1001
ACDBATTR
1070
     0
1070
     1
  0
LINE
  5
23918
  8
0
 10
5389.0733421783788799
 20
-31.9981908211028383
 30
0.0
 11
5389.0733421783788799
 21
-16.2501561588028487
 31
0.0
  0
LINE
  5
23919
  8
0
 10
5387.6166504962802719
 20
-17.017565127051359
 30
0.0
 11
5387.6166504962802719
 21
-15.4827619728028498
 31
0.0
  0
LINE
  5
2391A
  8
0
 10
5388.226887195179188
 20
-13.5730050187528395
 30
0.0
 11
5390.7071955701785555
 21
-13.5730050187528395
 31
0.0
  0
LINE
  5
2391B
  8
0
 10
5385.2350762318792476
 20
-13.5730050187528395
 30
0.0
 11
5387.7935014704789864
 21
-13.5730050187528395
 31
0.0
  0
LINE
  5
2391C
  8
0
 10
5385.2150762318788111
 20
-13.5930050187528497
 30
0.0
 11
5385.2150762318788111
 21
-13.7146662364251899
 31
0.0
  0
LINE
  5
2391D
  8
0
 10
5385.2907908811757807
 20
-13.8699043235838495
 30
0.0
 11
5385.8971720540139358
 21
-14.3436614701318206
 31
0.0
  0
ARC
  5
2391E
  8
0
 10
5385.2350762318792476
 20
-13.5930050187528195
 30
0.0
 40
0.02
 50
90.0
 51
180.0000000000611067
  0
ARC
  5
2391F
  8
0
 10
5385.412076231879837
 20
-13.7146662364251899
 30
0.0
 40
0.197
 50
179.9999999999974989
 51
231.9999852128781868
  0
LINE
  5
23920
  8
0
 10
5385.9458093266312062
 20
-14.3604086331494205
 30
0.0
 11
5387.0827683757261184
 21
-14.3604086331494205
 31
0.0
  0
ARC
  5
23921
  8
0
 10
5385.9458093266312062
 20
-14.2814086331493808
 30
0.0
 40
0.079
 50
231.9999852128360942
 51
270.0
  0
LINE
  5
23922
  8
0
 10
5385.9985548030790596
 20
-14.5437126917766708
 30
0.0
 11
5385.9985548030790596
 21
-14.5267170516590696
 31
0.0
  0
LINE
  5
23923
  8
0
 10
5385.9985548030790596
 20
-14.4728447469817993
 30
0.0
 11
5385.9985548030790596
 21
-14.4558419956247999
 31
0.0
  0
LINE
  5
23924
  8
0
 10
5385.9985548030790596
 20
-14.4019765325273603
 30
0.0
 11
5385.9985548030790596
 21
-14.3849831819188694
 31
0.0
  0
LINE
  5
23925
  8
0
 10
5385.9985548030790596
 20
-14.3849831819188694
 30
0.0
 11
5386.033098780067121
 21
-14.3669833993370606
 31
0.0
  0
LINE
  5
23926
  8
0
 10
5385.9985548030790596
 20
-14.4019765325273603
 30
0.0
 11
5386.0332230759249796
 21
-14.4200410442905493
 31
0.0
  0
LINE
  5
23927
  8
0
 10
5385.9985548030790596
 20
-14.4558419956247999
 30
0.0
 11
5386.0332230477797566
 21
-14.4377776384261303
 31
0.0
  0
LINE
  5
23928
  8
0
 10
5385.9985548030790596
 20
-14.4728447469817993
 30
0.0
 11
5386.033229000537176
 21
-14.4909126281960692
 31
0.0
  0
LINE
  5
23929
  8
0
 10
5385.9985548030790596
 20
-14.5267170516590696
 30
0.0
 11
5386.0332290049536823
 21
-14.5086491461818898
 31
0.0
  0
LINE
  5
2392A
  8
0
 10
5385.9985548030790596
 20
-14.5437126917766708
 30
0.0
 11
5386.0332195306491485
 21
-14.5617750502131997
 31
0.0
  0
LINE
  5
2392B
  8
0
 10
5386.0003681650114231
 20
-14.5966290994996193
 30
0.0
 11
5386.0332195126584338
 21
-14.5795117032192607
 31
0.0
  0
LINE
  5
2392C
  8
0
 10
5385.9434224386322967
 20
-14.5966290994996193
 30
0.0
 11
5387.0851552637259374
 21
-14.5966290994996193
 31
0.0
  0
ARC
  5
2392D
  8
0
 10
5386.0285986142698675
 20
-14.5706433720289201
 30
0.0
 40
0.01
 50
297.5220434002059164
 51
62.4778403617647768
  0
ARC
  5
2392E
  8
0
 10
5386.028607965800802
 20
-14.4997808883398704
 30
0.0
 40
0.01
 50
297.5229528519554947
 51
62.4770756875959279
  0
ARC
  5
2392F
  8
0
 10
5386.0286020979792738
 20
-14.4289093340255992
 30
0.0
 40
0.01
 50
297.5223755723620229
 51
62.477442589030737
  0
ARC
  5
23930
  8
0
 10
5386.0266875892812095
 20
-14.3577385933199899
 30
0.0
 40
0.0112503246876847
 50
304.7409642158140741
 51
346.2709903738276012
  0
LINE
  5
23931
  8
0
 10
5385.9237374008289407
 20
-14.6163141272028199
 30
0.0
 11
5385.9237374008289407
 21
-15.1674953718029109
 31
0.0
  0
LINE
  5
23932
  8
0
 10
5385.9237374008289407
 20
-14.6163141272028199
 30
0.0
 11
5385.9434224386322967
 21
-14.5966290994996193
 31
0.0
  0
LINE
  5
23933
  8
0
 10
5385.9434222928293821
 20
-15.1871802740028308
 30
0.0
 11
5387.0851551148289218
 21
-15.1871805687028605
 31
0.0
  0
LINE
  5
23934
  8
0
 10
5385.9237372585293997
 20
-15.1674952295027392
 30
0.0
 11
5385.9434222928293821
 21
-15.1871802740028308
 31
0.0
  0
LINE
  5
23935
  8
0
 10
5385.9237374008289407
 20
-15.1281252754028301
 30
0.0
 11
5386.0291772143291382
 21
-15.1281252754028301
 31
0.0
  0
LINE
  5
23936
  8
0
 10
5386.4088485041293097
 20
-15.1281252754028301
 30
0.0
 11
5386.6197291982289244
 21
-15.1281252754028301
 31
0.0
  0
LINE
  5
23937
  8
0
 10
5386.9994004880290959
 20
-15.1281252754028301
 30
0.0
 11
5387.1048403015292934
 21
-15.1281252754028301
 31
0.0
  0
LINE
  5
23938
  8
0
 10
5386.0291773363287575
 20
-14.6556843767474891
 30
0.0
 11
5386.0291772143291382
 21
-15.1281252754028301
 31
0.0
  0
LINE
  5
23939
  8
0
 10
5386.4088486261280195
 20
-14.6556843767474891
 30
0.0
 11
5386.4088485041293097
 21
-15.1281252754028301
 31
0.0
  0
ARC
  5
2393A
  8
0
 10
5386.219012859229224
 20
-14.6901307423448007
 30
0.0
 40
0.4773644132770373
 50
246.5671207257564959
 51
293.4328792742434757
  0
ARC
  5
2393B
  8
0
 10
5386.2190127778458191
 20
-15.0936807074878203
 30
0.0
 40
0.4773659818188715
 50
66.5671757178882189
 51
113.4327710716371058
  0
LINE
  5
2393C
  8
0
 10
5385.9237374008289407
 20
-14.6556843767474891
 30
0.0
 11
5386.0291773363287575
 21
-14.6556843767474891
 31
0.0
  0
LINE
  5
2393D
  8
0
 10
5386.4088482193628806
 20
-14.6556843767474891
 30
0.0
 11
5386.6197290762302146
 21
-14.6556843767474891
 31
0.0
  0
LINE
  5
2393E
  8
0
 10
5386.9994003660285671
 20
-14.6556843767474891
 30
0.0
 11
5387.1048403015292934
 21
-14.6556843767474891
 31
0.0
  0
LINE
  5
2393F
  8
0
 10
5387.813501470479423
 20
-13.5930050187528497
 30
0.0
 11
5387.813501470479423
 21
-13.7146662364251899
 31
0.0
  0
LINE
  5
23940
  8
0
 10
5387.7377868211824534
 20
-13.8699043235838495
 30
0.0
 11
5387.1314056483442982
 21
-14.3436614701318206
 31
0.0
  0
ARC
  5
23941
  8
0
 10
5387.7935014704789864
 20
-13.5930050187528195
 30
0.0
 40
0.02
 50
359.9999999999388933
 51
90.0
  0
ARC
  5
23942
  8
0
 10
5387.6165014704793066
 20
-13.7146662364251899
 30
0.0
 40
0.197
 50
308.0000147871218132
 51
0.0000000000016284
  0
ARC
  5
23943
  8
0
 10
5387.0827683757261184
 20
-14.2814086331493808
 30
0.0
 40
0.079
 50
270.0
 51
308.0000147871638774
  0
LINE
  5
23944
  8
0
 10
5387.0300228992791745
 20
-14.5437126917766708
 30
0.0
 11
5387.0300228992791745
 21
-14.5267170516590696
 31
0.0
  0
LINE
  5
23945
  8
0
 10
5387.0300228992791745
 20
-14.4728447469817993
 30
0.0
 11
5387.0300228992791745
 21
-14.4558419956247999
 31
0.0
  0
LINE
  5
23946
  8
0
 10
5387.0300228992791745
 20
-14.4019765325273603
 30
0.0
 11
5387.0300228992791745
 21
-14.3849831819188694
 31
0.0
  0
LINE
  5
23947
  8
0
 10
5387.0300228992791745
 20
-14.3849831819188694
 30
0.0
 11
5386.9954789222902036
 21
-14.3669833993370606
 31
0.0
  0
LINE
  5
23948
  8
0
 10
5387.0300228992791745
 20
-14.4019765325273603
 30
0.0
 11
5386.9953546264332545
 21
-14.4200410442905493
 31
0.0
  0
LINE
  5
23949
  8
0
 10
5387.0300228992791745
 20
-14.4558419956247999
 30
0.0
 11
5386.995354654579387
 21
-14.4377776384261303
 31
0.0
  0
LINE
  5
2394A
  8
0
 10
5387.0300228992791745
 20
-14.4728447469817993
 30
0.0
 11
5386.9953487018219676
 21
-14.4909126281960692
 31
0.0
  0
LINE
  5
2394B
  8
0
 10
5387.0300228992791745
 20
-14.5267170516590696
 30
0.0
 11
5386.9953486974036423
 21
-14.5086491461818898
 31
0.0
  0
LINE
  5
2394C
  8
0
 10
5387.0300228992791745
 20
-14.5437126917766708
 30
0.0
 11
5386.9953581717090856
 21
-14.5617750502131997
 31
0.0
  0
LINE
  5
2394D
  8
0
 10
5387.028209537346811
 20
-14.5966290994996193
 30
0.0
 11
5386.9953581896998003
 21
-14.5795117032192607
 31
0.0
  0
ARC
  5
2394E
  8
0
 10
5386.9999790880883666
 20
-14.5706433720289201
 30
0.0
 40
0.01
 50
117.5221596382351947
 51
242.477956599794112
  0
ARC
  5
2394F
  8
0
 10
5386.9999697365583415
 20
-14.4997808883398704
 30
0.0
 40
0.01
 50
117.5229243124041005
 51
242.4770471480443916
  0
ARC
  5
23950
  8
0
 10
5386.9999756043780508
 20
-14.4289093340255992
 30
0.0
 40
0.01
 50
117.5225574109691991
 51
242.4776244276380055
  0
ARC
  5
23951
  8
0
 10
5387.0018901130770246
 20
-14.3577385933199899
 30
0.0
 40
0.0112503246876847
 50
193.7290096261723988
 51
235.2590357841858122
  0
LINE
  5
23952
  8
0
 10
5387.1048403015292934
 20
-14.6163141272028199
 30
0.0
 11
5387.1048403015292934
 21
-15.1674953718029109
 31
0.0
  0
LINE
  5
23953
  8
0
 10
5387.1048403015292934
 20
-14.6163141272028199
 30
0.0
 11
5387.0851552637259374
 21
-14.5966290994996193
 31
0.0
  0
LINE
  5
23954
  8
0
 10
5387.1048404438288344
 20
-15.1674952295027392
 30
0.0
 11
5387.085155409528852
 21
-15.1871802740028308
 31
0.0
  0
LINE
  5
23955
  8
0
 10
5387.1048403015292934
 20
-15.1281252754028301
 30
0.0
 11
5386.9994004880290959
 21
-15.1281252754028301
 31
0.0
  0
LINE
  5
23956
  8
0
 10
5386.9994003660285671
 20
-14.6556843767474891
 30
0.0
 11
5386.9994004880290959
 21
-15.1281252754028301
 31
0.0
  0
LINE
  5
23957
  8
0
 10
5386.6197290762302146
 20
-14.6556843767474891
 30
0.0
 11
5386.6197291982289244
 21
-15.1281252754028301
 31
0.0
  0
ARC
  5
23958
  8
0
 10
5386.8095648431299196
 20
-14.6901307423448007
 30
0.0
 40
0.4773644132770373
 50
246.5671207257564959
 51
293.4328792742434757
  0
ARC
  5
23959
  8
0
 10
5386.809564924512415
 20
-15.0936807074878203
 30
0.0
 40
0.4773659818188715
 50
66.5672289283627237
 51
113.4328242821117954
  0
LINE
  5
2395A
  8
0
 10
5387.1048403015292934
 20
-14.6556843767474891
 30
0.0
 11
5386.9994003660285671
 21
-14.6556843767474891
 31
0.0
  0
LINE
  5
2395B
  8
0
 10
5386.9953581896998003
 20
-14.5795117032192607
 30
0.0
 11
5386.0332195126584338
 21
-14.5795117032192607
 31
0.0
  0
LINE
  5
2395C
  8
0
 10
5386.9953486974036423
 20
-14.5086491461818898
 30
0.0
 11
5386.0332290049536823
 21
-14.5086491461818898
 31
0.0
  0
LINE
  5
2395D
  8
0
 10
5386.9953581717090856
 20
-14.5617750502131997
 30
0.0
 11
5386.0332195306491485
 21
-14.5617750502131997
 31
0.0
  0
LINE
  5
2395E
  8
0
 10
5386.9953487018219676
 20
-14.4909126281960692
 30
0.0
 11
5386.033229000537176
 21
-14.4909126281960692
 31
0.0
  0
LINE
  5
2395F
  8
0
 10
5386.995354654579387
 20
-14.4377776384261303
 30
0.0
 11
5386.0332230477797566
 21
-14.4377776384261303
 31
0.0
  0
LINE
  5
23960
  8
0
 10
5386.9953546264332545
 20
-14.4200410442905298
 30
0.0
 11
5386.0332230759249796
 21
-14.4200410442905298
 31
0.0
  0
LINE
  5
23961
  8
0
 10
5386.9954789222902036
 20
-14.3669833993370606
 30
0.0
 11
5386.033098780067121
 21
-14.3669833993370606
 31
0.0
  0
LINE
  5
23962
  8
0
 10
5385.945150277679204
 20
-15.2737924350631307
 30
0.0
 11
5388.9749182127779932
 21
-15.2737924350631307
 31
0.0
  0
LINE
  5
23963
  8
0
 10
5385.945150277679204
 20
-15.2737924350631307
 30
0.0
 11
5385.945150277679204
 21
-16.2091600566163301
 31
0.0
  0
LINE
  5
23964
  8
0
 10
5386.0930286477787376
 20
-15.1871803126186897
 30
0.0
 11
5386.0930286477787376
 21
-15.2737924350631307
 31
0.0
  0
LINE
  5
23965
  8
0
 10
5386.9355490545785869
 20
-15.1871803126186897
 30
0.0
 11
5386.9355490545785869
 21
-15.2737924350631307
 31
0.0
  0
LINE
  5
23966
  8
0
 10
5385.2907908811757807
 20
-13.8699043235838495
 30
0.0
 11
5387.7377868211824534
 21
-13.8699043235838495
 31
0.0
  0
LINE
  5
23967
  8
0
 10
5387.6366504962788895
 20
-17.0375651270513586
 30
0.0
 11
5389.0733421783788799
 21
-17.0375651270513586
 31
0.0
  0
ARC
  5
23968
  8
0
 10
5387.6366504962788895
 20
-17.0175651270513697
 30
0.0
 40
0.02
 50
179.9999999999593001
 51
270.0000000000521254
  0
LINE
  5
23969
  8
0
 10
5387.6366504962788895
 20
-15.4627619728028503
 30
0.0
 11
5389.1520832247151702
 21
-15.4627619728028503
 31
0.0
  0
LINE
  5
2396A
  8
0
 10
5389.7819995406443923
 20
-15.4627619728028591
 30
0.0
 11
5390.2938159723789795
 21
-15.4627619728028503
 31
0.0
  0
LINE
  5
2396B
  8
0
 10
5390.3370443230642195
 20
-15.4627619728028503
 30
0.0
 11
5391.9124462050313014
 21
-15.4627619728028503
 31
0.0
  0
ARC
  5
2396C
  8
0
 10
5387.6366504962788895
 20
-15.4827619728028303
 30
0.0
 40
0.02
 50
89.9999999999478888
 51
180.0000000000611067
  0
LINE
  5
2396D
  8
0
 10
5385.9608522643020478
 20
-16.2286927748350394
 30
0.0
 11
5387.6166504962802719
 21
-16.5930375050914094
 31
0.0
  0
ARC
  5
2396E
  8
0
 10
5385.9651502776778216
 20
-16.2091600566163301
 30
0.0
 40
0.02
 50
180.0000000000202931
 51
257.590300168184001
  0
LINE
  5
2396F
  8
0
 10
5388.6402699947793735
 20
-19.0042327850028485
 30
0.0
 11
5388.6402699947793735
 21
-18.0169256984028507
 31
0.0
  0
LINE
  5
23970
  8
0
 10
5388.6402699947793735
 20
-17.8755292146914009
 30
0.0
 11
5388.6402699947793735
 21
-17.0375651270513586
 31
0.0
  0
LINE
  5
23971
  8
0
 10
5389.0733421783788799
 20
-17.8955292146913898
 30
0.0
 11
5388.6602699947789006
 21
-17.8955292146913898
 31
0.0
  0
ARC
  5
23972
  8
0
 10
5388.6602699947789006
 20
-17.8755292146914009
 30
0.0
 40
0.02
 50
179.9999999999593001
 51
270.0
  0
LINE
  5
23973
  8
0
 10
5388.6682699947787114
 20
-19.0322327850028508
 30
0.0
 11
5389.0733429124820759
 21
-19.0322327850028508
 31
0.0
  0
ARC
  5
23974
  8
0
 10
5388.6682699947787114
 20
-19.0042327850028485
 30
0.0
 40
0.028
 50
180.0
 51
270.0
  0
LINE
  5
23975
  8
0
 10
5388.6682699947787114
 20
-17.9889256984028485
 30
0.0
 11
5388.7333767236068525
 21
-17.9889256984028485
 31
0.0
  0
ARC
  5
23976
  8
0
 10
5388.6682699947787114
 20
-18.0169256984028401
 30
0.0
 40
0.028
 50
90.0
 51
180.0000000000289049
  0
ARC
  5
23977
  8
0
 10
5388.8966289080572096
 20
-17.9879926016175098
 30
0.0
 40
0.2084750738259345
 50
180.2564464192288938
 51
217.4339157085682075
  0
ARC
  5
23978
  8
0
 10
5389.0797714378859382
 20
-17.8351800157973486
 30
0.0
 40
0.4468991471593142
 50
218.7185512494289981
 51
243.4287858637522106
  0
ARC
  5
23979
  8
0
 10
5389.3069359912851723
 20
-17.4171066637870915
 30
0.0
 40
0.9225697326170262
 50
242.4249438090504043
 51
255.3331013039029074
  0
ARC
  5
2397A
  8
0
 10
5388.9169063227718652
 20
-17.9652959557291005
 30
0.0
 40
0.2814130208318942
 50
190.5717144136501986
 51
236.0171181225564112
  0
ARC
  5
2397B
  8
0
 10
5389.1923303868552466
 20
-17.6041340391531094
 30
0.0
 40
0.7353152475643232
 50
233.9507621752059947
 51
249.8877358261742927
  0
ARC
  5
2397C
  8
0
 10
5389.3713245525341335
 20
-17.1388506508654785
 30
0.0
 40
1.2338015263689439
 50
249.5122066331917949
 51
256.0239876401813035
  0
ARC
  5
2397D
  8
0
 10
5389.5729203017790496
 20
-17.7759278562028484
 30
0.0
 40
0.8661417322999833
 50
187.9370604162809002
 51
208.9534788014545938
  0
LINE
  5
2397E
  8
0
 10
5388.7368364892790851
 20
-17.0375651270513586
 30
0.0
 11
5388.7368364367803224
 21
-17.2580438595028482
 31
0.0
  0
LINE
  5
2397F
  8
0
 10
5388.7368364367803224
 20
-17.2580438595028482
 30
0.0
 11
5389.0733421783788799
 21
-17.2580439834024588
 31
0.0
  0
LINE
  5
23980
  8
0
 10
5388.2566799623864426
 20
-13.9666969819032492
 30
0.0
 11
5390.6774028029713008
 21
-13.9666969819032492
 31
0.0
  0
LINE
  5
23981
  8
0
 10
5388.226887195179188
 20
-13.5730050187528395
 30
0.0
 11
5388.2366868165063352
 21
-13.9472205445169894
 31
0.0
  0
ARC
  5
23982
  8
0
 10
5388.2566799623864426
 20
-13.9466969819032691
 30
0.0
 40
0.02
 50
181.5000677685056019
 51
270.0
  0
LINE
  5
23983
  8
0
 10
5388.9749182127779932
 20
-15.3249646287925998
 30
0.0
 11
5388.9749182127779932
 21
-13.9666969819032492
 31
0.0
  0
LINE
  5
23984
  8
0
 10
5388.9749182127779932
 20
-15.3249646287925998
 30
0.0
 11
5389.9591645525779313
 21
-15.3249646287925998
 31
0.0
  0
LINE
  5
23985
  8
0
 10
5389.0142884445785967
 20
-15.3249646182388499
 30
0.0
 11
5389.0142884445785967
 21
-15.4627622189846701
 31
0.0
  0
LINE
  5
23986
  8
0
 10
5393.6990065334803148
 20
-13.5730050187528395
 30
0.0
 11
5391.1405812948778475
 21
-13.5730050187528395
 31
0.0
  0
LINE
  5
23987
  8
0
 10
5393.7190065334789324
 20
-13.5930050187528497
 30
0.0
 11
5393.7190065334789324
 21
-13.7146662364251899
 31
0.0
  0
LINE
  5
23988
  8
0
 10
5393.6432918841828723
 20
-13.8699043235838495
 30
0.0
 11
5393.0369107113438076
 21
-14.3436614701318206
 31
0.0
  0
ARC
  5
23989
  8
0
 10
5393.6990065334803148
 20
-13.5930050187528195
 30
0.0
 40
0.02
 50
359.9999999999388933
 51
90.0
  0
ARC
  5
2398A
  8
0
 10
5393.522006533478816
 20
-13.7146662364251899
 30
0.0
 40
0.197
 50
308.0000147871218132
 51
0.0000000000024427
  0
LINE
  5
2398B
  8
0
 10
5392.9882734387256278
 20
-14.3604086331494205
 30
0.0
 11
5391.8513143896316251
 21
-14.3604086331494205
 31
0.0
  0
ARC
  5
2398C
  8
0
 10
5392.9882734387256278
 20
-14.2814086331493808
 30
0.0
 40
0.079
 50
270.0
 51
308.0000147871638774
  0
LINE
  5
2398D
  8
0
 10
5392.9355279622786838
 20
-14.5437126917766708
 30
0.0
 11
5392.9355279622786838
 21
-14.5267170516590696
 31
0.0
  0
LINE
  5
2398E
  8
0
 10
5392.9355279622786838
 20
-14.4728447469817993
 30
0.0
 11
5392.9355279622786838
 21
-14.4558419956247999
 31
0.0
  0
LINE
  5
2398F
  8
0
 10
5392.9355279622786838
 20
-14.4019765325273603
 30
0.0
 11
5392.9355279622786838
 21
-14.3849831819188694
 31
0.0
  0
LINE
  5
23990
  8
0
 10
5392.9355279622786838
 20
-14.3849831819188694
 30
0.0
 11
5392.9009839852924415
 21
-14.3669833993370606
 31
0.0
  0
LINE
  5
23991
  8
0
 10
5392.9355279622786838
 20
-14.4019765325273603
 30
0.0
 11
5392.9008596894327638
 21
-14.4200410442905493
 31
0.0
  0
LINE
  5
23992
  8
0
 10
5392.9355279622786838
 20
-14.4558419956247999
 30
0.0
 11
5392.9008597175779869
 21
-14.4377776384261303
 31
0.0
  0
LINE
  5
23993
  8
0
 10
5392.9355279622786838
 20
-14.4728447469817993
 30
0.0
 11
5392.9008537648223864
 21
-14.4909126281960692
 31
0.0
  0
LINE
  5
23994
  8
0
 10
5392.9355279622786838
 20
-14.5267170516590696
 30
0.0
 11
5392.9008537604049707
 21
-14.5086491461818898
 31
0.0
  0
LINE
  5
23995
  8
0
 10
5392.9355279622786838
 20
-14.5437126917766708
 30
0.0
 11
5392.900863234710414
 21
-14.5617750502131997
 31
0.0
  0
LINE
  5
23996
  8
0
 10
5392.9337146003463204
 20
-14.5966290994996193
 30
0.0
 11
5392.9008632527020382
 21
-14.5795117032192607
 31
0.0
  0
LINE
  5
23997
  8
0
 10
5392.9906603267263563
 20
-14.5966290994996193
 30
0.0
 11
5391.8489275016327156
 21
-14.5966290994996193
 31
0.0
  0
ARC
  5
23998
  8
0
 10
5392.9054841510878759
 20
-14.5706433720289201
 30
0.0
 40
0.01
 50
117.5221596382351947
 51
242.477956599794112
  0
ARC
  5
23999
  8
0
 10
5392.9054747995569414
 20
-14.4997808883398704
 30
0.0
 40
0.01
 50
117.5229243124041005
 51
242.4770471480443916
  0
ARC
  5
2399A
  8
0
 10
5392.9054806673775602
 20
-14.4289093340255992
 30
0.0
 40
0.01
 50
117.5225574109691991
 51
242.4776244276380055
  0
ARC
  5
2399B
  8
0
 10
5392.9073951760756245
 20
-14.3577385933199899
 30
0.0
 40
0.0112503246876847
 50
193.7290096261723988
 51
235.2590357841858122
  0
LINE
  5
2399C
  8
0
 10
5393.0103453645288027
 20
-14.6163141272028199
 30
0.0
 11
5393.0103453645288027
 21
-15.1674953718029109
 31
0.0
  0
LINE
  5
2399D
  8
0
 10
5393.0103453645288027
 20
-14.6163141272028199
 30
0.0
 11
5392.9906603267263563
 21
-14.5966290994996193
 31
0.0
  0
LINE
  5
2399E
  8
0
 10
5392.9906604725301804
 20
-15.1871802740028308
 30
0.0
 11
5391.8489276505288217
 21
-15.1871805687028605
 31
0.0
  0
LINE
  5
2399F
  8
0
 10
5393.0103455068292533
 20
-15.1674952295027392
 30
0.0
 11
5392.9906604725301804
 21
-15.1871802740028308
 31
0.0
  0
LINE
  5
239A0
  8
0
 10
5393.0103453645288027
 20
-15.1281252754028301
 30
0.0
 11
5392.9049055510304242
 21
-15.1281252754028301
 31
0.0
  0
LINE
  5
239A1
  8
0
 10
5392.5252342612293432
 20
-15.1281252754028301
 30
0.0
 11
5392.3143535671288191
 21
-15.1281252754028301
 31
0.0
  0
LINE
  5
239A2
  8
0
 10
5391.9346822773295571
 20
-15.1281252754028301
 30
0.0
 11
5391.8292424638293596
 21
-15.1281252754028301
 31
0.0
  0
LINE
  5
239A3
  8
0
 10
5392.904905429028986
 20
-14.6556843767474891
 30
0.0
 11
5392.9049055510304242
 21
-15.1281252754028301
 31
0.0
  0
LINE
  5
239A4
  8
0
 10
5392.525234139227905
 20
-14.6556843767474891
 30
0.0
 11
5392.5252342612293432
 21
-15.1281252754028301
 31
0.0
  0
ARC
  5
239A5
  8
0
 10
5392.715069906129429
 20
-14.6901307423448007
 30
0.0
 40
0.4773644132770373
 50
246.5671207257564959
 51
293.4328792742434757
  0
ARC
  5
239A6
  8
0
 10
5392.7150699875119244
 20
-15.0936807074878203
 30
0.0
 40
0.4773659818188715
 50
66.56722892836288
 51
113.4328242821117954
  0
LINE
  5
239A7
  8
0
 10
5393.0103453645288027
 20
-14.6556843767474891
 30
0.0
 11
5392.904905429028986
 21
-14.6556843767474891
 31
0.0
  0
LINE
  5
239A8
  8
0
 10
5392.5252345459948629
 20
-14.6556843767474891
 30
0.0
 11
5392.3143536891302574
 21
-14.6556843767474891
 31
0.0
  0
LINE
  5
239A9
  8
0
 10
5391.9346823993291764
 20
-14.6556843767474891
 30
0.0
 11
5391.8292424638293596
 21
-14.6556843767474891
 31
0.0
  0
LINE
  5
239AA
  8
0
 10
5391.12058129487923
 20
-13.5930050187528497
 30
0.0
 11
5391.12058129487923
 21
-13.7146662364251899
 31
0.0
  0
LINE
  5
239AB
  8
0
 10
5391.1962959441752901
 20
-13.8699043235838495
 30
0.0
 11
5391.8026771170152642
 21
-14.3436614701318206
 31
0.0
  0
ARC
  5
239AC
  8
0
 10
5391.1405812948778475
 20
-13.5930050187528195
 30
0.0
 40
0.02
 50
90.0
 51
180.0000000000611067
  0
ARC
  5
239AD
  8
0
 10
5391.3175812948793464
 20
-13.7146662364251899
 30
0.0
 40
0.197
 50
179.9999999999984084
 51
231.9999852128781868
  0
ARC
  5
239AE
  8
0
 10
5391.8513143896316251
 20
-14.2814086331493808
 30
0.0
 40
0.079
 50
231.9999852128360942
 51
270.0
  0
LINE
  5
239AF
  8
0
 10
5391.904059866078569
 20
-14.5437126917766708
 30
0.0
 11
5391.904059866078569
 21
-14.5267170516590696
 31
0.0
  0
LINE
  5
239B0
  8
0
 10
5391.904059866078569
 20
-14.4728447469817993
 30
0.0
 11
5391.904059866078569
 21
-14.4558419956247999
 31
0.0
  0
LINE
  5
239B1
  8
0
 10
5391.904059866078569
 20
-14.4019765325273603
 30
0.0
 11
5391.904059866078569
 21
-14.3849831819188694
 31
0.0
  0
LINE
  5
239B2
  8
0
 10
5391.904059866078569
 20
-14.3849831819188694
 30
0.0
 11
5391.9386038430657209
 21
-14.3669833993370606
 31
0.0
  0
LINE
  5
239B3
  8
0
 10
5391.904059866078569
 20
-14.4019765325273603
 30
0.0
 11
5391.9387281389253985
 21
-14.4200410442905493
 31
0.0
  0
LINE
  5
239B4
  8
0
 10
5391.904059866078569
 20
-14.4558419956247999
 30
0.0
 11
5391.9387281107801755
 21
-14.4377776384261303
 31
0.0
  0
LINE
  5
239B5
  8
0
 10
5391.904059866078569
 20
-14.4728447469817993
 30
0.0
 11
5391.9387340635357759
 21
-14.4909126281960692
 31
0.0
  0
LINE
  5
239B6
  8
0
 10
5391.904059866078569
 20
-14.5267170516590696
 30
0.0
 11
5391.9387340679531917
 21
-14.5086491461818898
 31
0.0
  0
LINE
  5
239B7
  8
0
 10
5391.904059866078569
 20
-14.5437126917766708
 30
0.0
 11
5391.9387245936486579
 21
-14.5617750502131997
 31
0.0
  0
LINE
  5
239B8
  8
0
 10
5391.905873228011842
 20
-14.5966290994996193
 30
0.0
 11
5391.9387245756570337
 21
-14.5795117032192607
 31
0.0
  0
ARC
  5
239B9
  8
0
 10
5391.9341036772721054
 20
-14.5706433720289201
 30
0.0
 40
0.01
 50
297.5220434002520733
 51
62.4778403617647768
  0
ARC
  5
239BA
  8
0
 10
5391.9341130288012209
 20
-14.4997808883398704
 30
0.0
 40
0.01
 50
297.5229528519554947
 51
62.4770756875959279
  0
ARC
  5
239BB
  8
0
 10
5391.9341071609796927
 20
-14.4289093340255992
 30
0.0
 40
0.01
 50
297.5223755723620229
 51
62.477442589030737
  0
ARC
  5
239BC
  8
0
 10
5391.9321926522816284
 20
-14.3577385933199899
 30
0.0
 40
0.0112503246876847
 50
304.7409642158140741
 51
346.2709903738276012
  0
LINE
  5
239BD
  8
0
 10
5391.8292424638293596
 20
-14.6163141272028199
 30
0.0
 11
5391.8292424638293596
 21
-15.1674953718029109
 31
0.0
  0
LINE
  5
239BE
  8
0
 10
5391.8292424638293596
 20
-14.6163141272028199
 30
0.0
 11
5391.8489275016327156
 21
-14.5966290994996193
 31
0.0
  0
LINE
  5
239BF
  8
0
 10
5391.8292423215289091
 20
-15.1674952295027392
 30
0.0
 11
5391.8489273558288915
 21
-15.1871802740028308
 31
0.0
  0
LINE
  5
239C0
  8
0
 10
5391.8292424638293596
 20
-15.1281252754028301
 30
0.0
 11
5391.9346822773295571
 21
-15.1281252754028301
 31
0.0
  0
LINE
  5
239C1
  8
0
 10
5391.9346823993291764
 20
-14.6556843767474891
 30
0.0
 11
5391.9346822773295571
 21
-15.1281252754028301
 31
0.0
  0
LINE
  5
239C2
  8
0
 10
5392.3143536891302574
 20
-14.6556843767474891
 30
0.0
 11
5392.3143535671288191
 21
-15.1281252754028301
 31
0.0
  0
ARC
  5
239C3
  8
0
 10
5392.1245179222287334
 20
-14.6901307423448007
 30
0.0
 40
0.4773644132770373
 50
246.5671207257564959
 51
293.4328792742434757
  0
ARC
  5
239C4
  8
0
 10
5392.124517840846238
 20
-15.0936807074878203
 30
0.0
 40
0.4773659818188715
 50
66.5671757178882189
 51
113.4327710716373048
  0
LINE
  5
239C5
  8
0
 10
5391.8292424638293596
 20
-14.6556843767474891
 30
0.0
 11
5391.9346823993291764
 21
-14.6556843767474891
 31
0.0
  0
LINE
  5
239C6
  8
0
 10
5391.9387245756570337
 20
-14.5795117032192607
 30
0.0
 11
5392.9008632527020382
 21
-14.5795117032192607
 31
0.0
  0
LINE
  5
239C7
  8
0
 10
5391.9387340679531917
 20
-14.5086491461818898
 30
0.0
 11
5392.9008537604049707
 21
-14.5086491461818898
 31
0.0
  0
LINE
  5
239C8
  8
0
 10
5391.9387245936486579
 20
-14.5617750502131997
 30
0.0
 11
5392.900863234710414
 21
-14.5617750502131997
 31
0.0
  0
LINE
  5
239C9
  8
0
 10
5391.9387340635357759
 20
-14.4909126281960692
 30
0.0
 11
5392.9008537648223864
 21
-14.4909126281960692
 31
0.0
  0
LINE
  5
239CA
  8
0
 10
5391.9387281107801755
 20
-14.4377776384261303
 30
0.0
 11
5392.9008597175779869
 21
-14.4377776384261303
 31
0.0
  0
LINE
  5
239CB
  8
0
 10
5391.9387281389253985
 20
-14.4200410442905298
 30
0.0
 11
5392.9008596894327638
 21
-14.4200410442905298
 31
0.0
  0
LINE
  5
239CC
  8
0
 10
5391.9386038430657209
 20
-14.3669833993370606
 30
0.0
 11
5392.9009839852924415
 21
-14.3669833993370606
 31
0.0
  0
LINE
  5
239CD
  8
0
 10
5392.988932487679449
 20
-15.2737924350631307
 30
0.0
 11
5390.4533859770808704
 21
-15.2737924350631395
 31
0.0
  0
LINE
  5
239CE
  8
0
 10
5392.988932487679449
 20
-15.2737924350631307
 30
0.0
 11
5392.988932487679449
 21
-16.2091600566163301
 31
0.0
  0
LINE
  5
239CF
  8
0
 10
5392.8410541175790058
 20
-15.1871803126186897
 30
0.0
 11
5392.8410541175790058
 21
-15.2737924350631307
 31
0.0
  0
LINE
  5
239D0
  8
0
 10
5391.9985337107791565
 20
-15.1871803126186897
 30
0.0
 11
5391.9985337107791565
 21
-15.2737924350631307
 31
0.0
  0
LINE
  5
239D1
  8
0
 10
5393.6432918841828723
 20
-13.8699043235838495
 30
0.0
 11
5391.1962959441752901
 21
-13.8699043235838495
 31
0.0
  0
LINE
  5
239D2
  8
0
 10
5390.8310016407767762
 20
-17.0375651270513586
 30
0.0
 11
5390.3370440563803641
 21
-17.0375651270513586
 31
0.0
  0
LINE
  5
239D3
  8
0
 10
5390.2938157098778902
 20
-17.0375651270513586
 30
0.0
 11
5389.8607405869779541
 21
-17.0375651270513586
 31
0.0
  0
LINE
  5
239D4
  8
0
 10
5392.9732305010556956
 20
-16.2286927748350394
 30
0.0
 11
5392.1866227164573502
 21
-16.4017793234026286
 31
0.0
  0
ARC
  5
239D5
  8
0
 10
5392.9689324876790124
 20
-16.2091600566163301
 30
0.0
 40
0.02
 50
282.409699831815999
 51
359.9999999999797069
  0
LINE
  5
239D6
  8
0
 10
5390.1972462760786584
 20
-17.0375651270513586
 30
0.0
 11
5390.1972463285792401
 21
-17.2580438595028482
 31
0.0
  0
LINE
  5
239D7
  8
0
 10
5390.1972463285792401
 20
-17.2580438595028482
 30
0.0
 11
5389.8607405869779541
 21
-17.2580439834024588
 31
0.0
  0
LINE
  5
239D8
  8
0
 10
5390.7071955701785555
 20
-13.5730050187528395
 30
0.0
 11
5390.6973959488514083
 21
-13.9472205445169894
 31
0.0
  0
ARC
  5
239D9
  8
0
 10
5390.6774028029713008
 20
-13.9466969819032691
 30
0.0
 40
0.02
 50
270.0
 51
358.4999322314944266
  0
LINE
  5
239DA
  8
0
 10
5389.9591645525779313
 20
-15.3249646287925998
 30
0.0
 11
5389.9591645525779313
 21
-13.9666969819032492
 31
0.0
  0
LINE
  5
239DB
  8
0
 10
5389.9197943207791468
 20
-15.3249646182388499
 30
0.0
 11
5389.9197943207791468
 21
-15.4627622189846701
 31
0.0
  0
LINE
  5
239DC
  8
0
 10
5389.8607405869779541
 20
-31.9981908211028383
 30
0.0
 11
5389.8607405869779541
 21
-16.2480247482203701
 31
0.0
  0
ARC
  5
239DD
  8
0
 10
5389.4670442674396327
 20
-16.2501561588028487
 30
0.0
 40
0.393702089060131
 50
359.6898126001265723
 51
180.0
  0
LINE
  5
239DE
  8
0
 10
5390.2938159723789795
 20
-15.4627619728028503
 30
0.0
 11
5390.2938159723789795
 21
-17.5241438048430282
 31
0.0
  0
LINE
  5
239DF
  8
0
 10
5390.3370443230642195
 20
-15.4627619728028503
 30
0.0
 11
5390.3370443230642195
 21
-17.0375656050029001
 31
0.0
  0
LINE
  5
239E0
  8
0
 10
5390.2938157288735965
 20
-16.9312663882028396
 30
0.0
 11
5390.3370443230642195
 21
-16.9312663882028396
 31
0.0
  0
LINE
  5
239E1
  8
0
 10
5390.2938159722853015
 20
-15.5690616638028505
 30
0.0
 11
5390.3370443230642195
 21
-15.5690616638028505
 31
0.0
  0
ARC
  5
239E2
  8
0
 10
5389.2952689386565908
 20
-14.6940494735191898
 30
0.0
 40
0.0656464286010866
 50
127.2742309240190934
 51
176.2791479776132064
  0
ARC
  5
239E3
  8
0
 10
5389.2902880472811376
 20
-14.6875050150373205
 30
0.0
 40
0.0574221222029339
 50
77.0587673867705831
 51
127.2742309240190934
  0
ARC
  5
239E4
  8
0
 10
5389.2897728884372555
 20
-14.6897469016218007
 30
0.0
 40
0.0597224361143877
 50
28.8147287239441816
 51
77.0587673867706826
  0
ARC
  5
239E5
  8
0
 10
5389.278663987372056
 20
-14.6958577909761399
 30
0.0
 40
0.0724011841431013
 50
355.8882185626222849
 51
28.8147287239151417
  0
ARC
  5
239E6
  8
0
 10
5389.2860283115851416
 20
-14.6963871943907893
 30
0.0
 40
0.0650178556875351
 50
310.4880080248349259
 51
355.888218562621887
  0
ARC
  5
239E7
  8
0
 10
5389.2900458671765591
 20
-14.7010931417169406
 30
0.0
 40
0.0588302314923606
 50
260.7653867196920032
 51
310.4880080248352101
  0
ARC
  5
239E8
  8
0
 10
5389.2898989824752789
 20
-14.7019965767832996
 30
0.0
 40
0.0579149337074216
 50
211.3151102637615963
 51
260.7653867196920032
  0
ARC
  5
239E9
  8
0
 10
5389.3035427400427579
 20
-14.6936961130182002
 30
0.0
 40
0.0738852129569152
 50
176.9689825767119942
 51
211.3151102637627048
  0
ARC
  5
239EA
  8
0
 10
5389.6670076947330017
 20
-14.6940504512228198
 30
0.0
 40
0.0656464286010866
 50
3.720852022386739
 51
52.7257690759809279
  0
ARC
  5
239EB
  8
0
 10
5389.6719885861093644
 20
-14.6875059927409399
 30
0.0
 40
0.0574221222029339
 50
52.7257690759809279
 51
102.9412326132294027
  0
ARC
  5
239EC
  8
0
 10
5389.6725037449532465
 20
-14.6897478793254308
 30
0.0
 40
0.0597224361143877
 50
102.9412326132293032
 51
151.1852712760558006
  0
ARC
  5
239ED
  8
0
 10
5389.683612646018446
 20
-14.6958587686797699
 30
0.0
 40
0.0724011841431013
 50
151.1852712760847908
 51
184.1117814373776014
  0
ARC
  5
239EE
  8
0
 10
5389.6762483218053603
 20
-14.6963881720944194
 30
0.0
 40
0.0650178556875351
 50
184.1117814373779993
 51
229.5119919751651025
  0
ARC
  5
239EF
  8
0
 10
5389.6722307662121239
 20
-14.7010941194205706
 30
0.0
 40
0.0588302314923606
 50
229.5119919751649036
 51
279.2346132803079968
  0
ARC
  5
239F0
  8
0
 10
5389.6723776509143136
 20
-14.7019975544869297
 30
0.0
 40
0.0579149337074216
 50
279.2346132803078831
 51
328.68488973623829
  0
ARC
  5
239F1
  8
0
 10
5389.6587338933450155
 20
-14.6936970907218303
 30
0.0
 40
0.0738852129569152
 50
328.6848897362373236
 51
3.0310174232879898
  0
LINE
  5
239F2
  8
0
 10
5387.1732174093776848
 20
-15.2541076775770197
 30
0.0
 11
5388.9749182127779932
 21
-15.2541076775770197
 31
0.0
  0
LINE
  5
239F3
  8
0
 10
5390.4266810076269394
 20
-15.2541076775770499
 30
0.0
 11
5391.7603754107358327
 21
-15.2541076775770197
 31
0.0
  0
ARC
  5
239F4
  8
0
 10
5387.178090874604095
 20
-15.2735338676341499
 30
0.0
 40
0.0200281682500907
 50
104.0831959574745014
 51
180.7397198675519121
  0
ARC
  5
239F5
  8
0
 10
5391.7562476666480507
 20
-15.2734307756212608
 30
0.0
 40
0.0197590584109841
 50
358.9512295372160224
 51
77.9418750867661885
  0
LINE
  5
239F6
  8
0
 10
5387.774130690228958
 20
-15.2471098464028501
 30
0.0
 11
5387.774130690228958
 21
-15.2541077568965306
 31
0.0
  0
LINE
  5
239F7
  8
0
 10
5387.774130690228958
 20
-15.2471098464028501
 30
0.0
 11
5388.0103511638790224
 21
-15.2471099309026208
 31
0.0
  0
LINE
  5
239F8
  8
0
 10
5388.0103511626302861
 20
-15.2471099309026208
 30
0.0
 11
5388.0103511626302861
 21
-15.2541078131403793
 31
0.0
  0
LINE
  5
239F9
  8
0
 10
5388.5006313070698525
 20
-15.9548879141787303
 30
0.0
 11
5388.3229728531814544
 21
-15.9548879141787303
 31
0.0
  0
LINE
  5
239FA
  8
0
 10
5388.5245600644066144
 20
-16.5454391082681092
 30
0.0
 11
5388.3654438275980283
 21
-16.5454391082681092
 31
0.0
  0
ARC
  5
239FB
  8
0
 10
5388.4925240194097569
 20
-16.2501235892839802
 30
0.0
 40
0.2953469687809014
 50
10.1388065612274705
 51
88.4270306768974876
  0
ARC
  5
239FC
  8
0
 10
5388.4930994134556386
 20
-16.2503900909186285
 30
0.0
 40
0.2948276974405251
 50
291.2701504127621206
 51
10.2094728875975491
  0
ARC
  5
239FD
  8
0
 10
5388.4523914635938127
 20
-16.1266270795639883
 30
0.0
 40
0.4249844965764474
 50
279.7770435892437035
 51
290.3314953338630744
  0
ARC
  5
239FE
  8
0
 10
5388.4434221497804174
 20
-16.2501634979028502
 30
0.0
 40
0.3188976377999828
 50
112.1916098158874036
 51
173.3627681514157928
  0
ARC
  5
239FF
  8
0
 10
5388.4434221497804174
 20
-16.2501634979028502
 30
0.0
 40
0.3188976378000141
 50
173.3627681514153949
 51
222.3880053069487985
  0
ARC
  5
23A00
  8
0
 10
5388.4434221497713224
 20
-16.2501634979099912
 30
0.0
 40
0.3188976377894306
 50
222.3880053069484859
 51
237.3457079608297136
  0
ARC
  5
23A01
  8
0
 10
5388.4141061528171122
 20
-16.1958223559685202
 30
0.0
 40
0.3529871037082235
 50
246.1458908298901065
 51
262.0760456210185794
  0
CIRCLE
  5
23A02
  8
0
 10
5388.4925240194097569
 20
-16.2501235892839802
 30
0.0
 40
0.2755518995711191
  0
ARC
  5
23A03
  8
0
 10
5389.4670413826788717
 20
-16.2501561588028487
 30
0.0
 40
0.660250876178611
 50
306.6044544394205786
 51
233.3955455605793077
  0
ARC
  5
23A04
  8
0
 10
5389.4670413826788717
 20
-16.2501561588028487
 30
0.0
 40
0.6496034848208073
 50
307.3052145594160152
 51
232.6947854405842122
  0
LINE
  5
23A05
  8
0
 10
5389.0394523837676388
 20
-16.7391881981432711
 30
0.0
 11
5388.8249747297941212
 21
-16.3488227729330511
 31
0.0
  0
LINE
  5
23A06
  8
0
 10
5389.0550213511542097
 20
-16.726647437507971
 30
0.0
 11
5388.8439202757836028
 21
-16.3424252879218912
 31
0.0
  0
LINE
  5
23A07
  8
0
 10
5389.0550213511542097
 20
-16.726647437507971
 30
0.0
 11
5389.0421493944631948
 21
-16.7415332907916188
 31
0.0
  0
LINE
  5
23A08
  8
0
 10
5389.8963182370789582
 20
-15.7641960936028394
 30
0.0
 11
5390.1074258296794142
 21
-16.1484277539028582
 31
0.0
  0
LINE
  5
23A09
  8
0
 10
5389.8790666304330443
 20
-15.7736746024358894
 30
0.0
 11
5390.0901771865683259
 21
-16.1579046344326187
 31
0.0
  0
LINE
  5
23A0A
  8
0
 10
5389.8790666304330443
 20
-15.7736746024358894
 30
0.0
 11
5389.8963182370789582
 21
-15.7641960936028394
 31
0.0
  0
LINE
  5
23A0B
  8
0
 10
5388.8439202757836028
 20
-16.3424252879218912
 30
0.0
 11
5388.8266677943120158
 21
-16.3519042774083516
 31
0.0
  0
LINE
  5
23A0C
  8
0
 10
5390.0901771865683259
 20
-16.1579046344326187
 30
0.0
 11
5390.1074258296794142
 21
-16.1484277539028582
 31
0.0
  0
ARC
  5
23A0D
  8
0
 10
5389.4670442674396327
 20
-16.2501561588028487
 30
0.0
 40
0.6299183289638732
 50
49.1494253414326678
 51
188.4228718714865067
  0
ARC
  5
23A0E
  8
0
 10
5389.4670442674396327
 20
-16.2501561588028487
 30
0.0
 40
0.6299183289638732
 50
229.1480748425188949
 51
231.3174474387757016
  0
ARC
  5
23A0F
  8
0
 10
5389.4670442674396327
 20
-16.2501561588028487
 30
0.0
 40
0.6299183289638732
 50
308.681880303252683
 51
8.4227011426103324
  0
ARC
  5
23A10
  8
0
 10
5389.4670413826788717
 20
-16.2501612513028384
 30
0.0
 40
0.4527530880286405
 50
330.4083763612870257
 51
209.5916236387139975
  0
ARC
  5
23A11
  8
0
 10
5525.1373932466549377
 20
167.4707816427574869
 30
0.0
 40
227.014010953234191
 50
233.4544222809358871
 51
233.6899961258868927
  0
ARC
  5
23A12
  8
0
 10
5391.456620709785966
 20
-19.5011873199748393
 30
0.0
 40
2.3150624956014898
 50
77.3127507839025441
 51
89.5490930164454397
  0
ARC
  5
23A13
  8
0
 10
5391.4695655328259818
 20
-19.4436869475930294
 30
0.0
 40
2.2561230243823962
 50
60.4427582348417403
 51
77.3127507839025441
  0
ARC
  5
23A14
  8
0
 10
5391.0848699962371029
 20
-20.1220517977156099
 30
0.0
 40
3.0359752704868339
 50
48.5552097727825398
 51
60.4427582348417403
  0
ARC
  5
23A15
  8
0
 10
5392.3791685431260703
 20
-18.7106868418136294
 30
0.0
 40
1.121909396235959
 50
28.1573885923925289
 51
50.3949884093782572
  0
ARC
  5
23A16
  8
0
 10
5392.2149053333650954
 20
-18.1492771216131388
 30
0.0
 40
1.342086952872886
 50
291.8739405518518879
 51
330.3340279402028159
  0
ARC
  5
23A17
  8
0
 10
5391.5137481699903219
 20
-16.7115674681697008
 30
0.0
 40
2.9397686102642391
 50
275.3240897664288127
 51
294.1165633497089971
  0
ARC
  5
23A18
  8
0
 10
5391.4228835510939462
 20
-16.0680928554286702
 30
0.0
 40
3.589030246798091
 50
270.8294630183415279
 51
275.8152340673547087
  0
ARC
  5
23A19
  8
0
 10
5392.7059238332903988
 20
-18.523949680907311
 30
0.0
 40
0.745776831175165
 50
4.0675586788415377
 51
27.3550249952377698
  0
ARC
  5
23A1A
  8
0
 10
5392.7944858973605733
 20
-18.5176518733673703
 30
0.0
 40
0.6569911252737802
 50
333.2333271707677227
 51
4.0675586788415377
  0
ARC
  5
23A1B
  8
0
 10
5356.5333883668909039
 20
-15.6101460781840604
 30
0.0
 40
37.0335464446316891
 50
354.6193837973428913
 51
355.3614029395643001
  0
ARC
  5
23A1C
  8
0
 10
5392.2591594530040311
 20
-18.9750317028993791
 30
0.0
 40
1.1496618309946109
 50
341.1493927439040021
 51
354.6193837973428913
  0
ARC
  5
23A1D
  8
0
 10
5392.1549770136380175
 20
-18.7458878416978401
 30
0.0
 40
1.3349226453259471
 50
290.5745401344132119
 51
333.2617769926159781
  0
ARC
  5
23A1E
  8
0
 10
5391.4708334806236962
 20
-17.2587111060651992
 30
0.0
 40
2.9700065983561812
 50
270.07728446021639
 51
292.8490977705528167
  0
LINE
  5
23A1F
  8
0
 10
5392.0393115521419531
 20
-16.9389269251891399
 30
0.0
 11
5392.0393115521419531
 21
-15.9372780879576208
 31
0.0
  0
ARC
  5
23A20
  8
0
 10
5391.4805542741069075
 20
-16.7308823593470812
 30
0.0
 40
1.006348254646461
 50
58.8457958226490589
 51
90.3253614353236998
  0
ARC
  5
23A21
  8
0
 10
5391.9603115521431391
 20
-15.9372780879575497
 30
0.0
 40
0.079
 50
359.9999999999482725
 51
58.8457958227645577
  0
ARC
  5
23A22
  8
0
 10
5391.4930585444863027
 20
-19.5011873199748393
 30
0.0
 40
2.3150624956014898
 50
90.4509069835545745
 51
102.6872492160973991
  0
ARC
  5
23A23
  8
0
 10
5391.4801137214462869
 20
-19.4436869475930294
 30
0.0
 40
2.2561230243823962
 50
102.6872492160973991
 51
119.5572417651579968
  0
ARC
  5
23A24
  8
0
 10
5391.8648092580351658
 20
-20.1220517977156099
 30
0.0
 40
3.0359752704868339
 50
119.5572417651579968
 51
131.3080373270223902
  0
ARC
  5
23A25
  8
0
 10
5390.7347739209071733
 20
-18.1492771216131388
 30
0.0
 40
1.342086952872886
 50
229.364131730304706
 51
248.1260594481481121
  0
ARC
  5
23A26
  8
0
 10
5391.4359310842810373
 20
-16.7115674681697008
 30
0.0
 40
2.9397686102642391
 50
245.883436650290804
 51
264.675910233571301
  0
ARC
  5
23A27
  8
0
 10
5391.5267957031774131
 20
-16.0680928554286702
 30
0.0
 40
3.589030246798091
 50
264.184765932645405
 51
269.1705369816584152
  0
ARC
  5
23A28
  8
0
 10
5390.7947022406333417
 20
-18.7458878416978401
 30
0.0
 40
1.3349226453259471
 50
225.6020895315976986
 51
249.4254598655867028
  0
ARC
  5
23A29
  8
0
 10
5391.4788457736467535
 20
-17.2587111060651992
 30
0.0
 40
2.9700065983561812
 50
247.1509022294472118
 51
269.92271553978361
  0
LINE
  5
23A2A
  8
0
 10
5390.9103677021294061
 20
-16.9389269251891399
 30
0.0
 11
5390.9103677021294061
 21
-15.9372780879576208
 31
0.0
  0
ARC
  5
23A2B
  8
0
 10
5391.4691249801653612
 20
-16.7308823593470812
 30
0.0
 40
1.006348254646461
 50
89.6746385646763144
 51
121.1542041773509055
  0
ARC
  5
23A2C
  8
0
 10
5390.9893677021291296
 20
-15.9372780879575497
 30
0.0
 40
0.079
 50
121.1542041772353997
 51
180.0000000000513012
  0
ARC
  5
23A2D
  8
0
 10
5387.897171009097292
 20
-14.5957037524304898
 30
0.0
 40
3.817073374754421
 50
311.8176405688461159
 51
322.1294507068940902
  0
LINE
  5
23A2E
  8
0
 10
5391.9324462050308284
 20
-15.4827619728028498
 30
0.0
 11
5391.9324462050308284
 21
-15.8316991230736495
 31
0.0
  0
ARC
  5
23A2F
  8
0
 10
5391.9124462050313014
 20
-15.4827619728028303
 30
0.0
 40
0.02
 50
359.9999999999388933
 51
90.0
  0
ARC
  5
23A30
  8
0
 10
5375.2803887303170995
 20
-16.2945596679472295
 30
0.0
 40
16.6718335416060093
 50
1.5670706352466239
 51
2.7909936469666179
  0
LINE
  5
23A31
  8
0
 10
5392.0393115521419531
 20
-16.2876537108830206
 30
0.0
 11
5395.0393020879801043
 21
-18.6118207829939912
 31
0.0
  0
LINE
  5
23A32
  8
0
 10
5392.6365208370807522
 20
-17.5125450414275896
 30
0.0
 11
5392.2600752696653217
 21
-17.2058394096929099
 31
0.0
  0
LINE
  5
23A33
  8
0
 10
5393.2699227559387509
 20
-18.0286035435878489
 30
0.0
 11
5394.5601412268888453
 21
-19.079797409211519
 31
0.0
  0
ARC
  5
23A34
  8
0
 10
5393.2840379428198503
 20
-16.134165098383729
 30
0.0
 40
1.4822231227231391
 50
212.8841684668794869
 51
226.3042351039688924
  0
ARC
  5
23A35
  8
0
 10
5394.8047025069517986
 20
-18.8278370999845208
 30
0.0
 40
0.3189043941750365
 50
333.453714653881093
 51
42.6384774447333967
  0
ARC
  5
23A36
  8
0
 10
5394.7781704053932117
 20
-18.7980405865407114
 30
0.0
 40
0.3562634275378472
 50
232.2665644729192138
 51
331.0732448487520969
  0
LINE
  5
23A37
  8
0
 10
5389.1520832247151702
 20
-15.3249646287925998
 30
0.0
 11
5389.1520832247151702
 21
-15.6529633007888105
 31
0.0
  0
LINE
  5
23A38
  8
0
 10
5389.7819995406443923
 20
-15.3249646287925998
 30
0.0
 11
5389.7819995406443923
 21
-15.6529633007888105
 31
0.0
  0
ARC
  5
23A39
  8
0
 10
5389.1094068460615745
 20
-15.6512359871935498
 30
0.0
 40
0.0427113205974365
 50
329.072663607574782
 51
357.682235649782001
  0
ARC
  5
23A3A
  8
0
 10
5389.8246759192970785
 20
-15.6512359871935498
 30
0.0
 40
0.0427113205974365
 50
182.317764350217999
 51
210.9273363924251896
  0
ARC
  5
23A3B
  8
0
 10
5389.4670413826788717
 20
-31.9981908211028383
 30
0.0
 40
0.3936992042999989
 50
180.0
 51
0.0
  0
ARC
  5
23A3C
  8
0
 10
5389.4670413826788717
 20
-31.9981908211028383
 30
0.0
 40
3.9957792303931399
 50
95.6544566849270268
 51
84.345543315072959
  0
ARC
  5
23A3D
  8
0
 10
5389.4670413826788717
 20
-31.9981908211028383
 30
0.0
 40
0.7480294525970415
 50
121.7568181343930007
 51
58.2431818656069993
  0
ARC
  5
23A3E
  8
0
 10
5389.4670413826788717
 20
-31.9981908211028383
 30
0.0
 40
0.7873995313001281
 50
119.999952833835394
 51
60.0000471661645278
  0
ARC
  5
23A3F
  8
0
 10
5389.4670413826788717
 20
-31.9981908211028383
 30
0.0
 40
0.713016086604993
 50
123.5153478746798044
 51
56.4846521253201317
  0
ARC
  5
23A40
  8
0
 10
5389.4670413826788717
 20
-31.9981908211028383
 30
0.0
 40
0.5275570116000017
 50
138.2681734826313971
 51
41.73182651736861
  0
ARC
  5
23A41
  8
0
 10
5389.4670413826788717
 20
-31.9981908211028383
 30
0.0
 40
0.4724388675000011
 50
146.4427227199238075
 51
33.5572772800761285
  0
ENDSEC
  0
EOF
