  0
SECTION
  2
HEADER
  9
$ACADVER
  1
AC1009
  9
$INSBASE
 10
3515.5814234085992211
 20
161.4963394178558929
 30
0.0
  9
$EXTMIN
 10
3511.4648236718949192
 20
157.5561678751076045
 30
-0.0000000000000058
  9
$EXTMAX
 10
3519.5207320030840492
 20
165.4449572520865956
 30
0.0000000000000104
  9
$LIMMIN
 10
0.0
 20
0.0
  9
$LIMMAX
 10
11.6929133858000007
 20
8.2677165353999982
  9
$ORTHOMODE
 70
     0
  9
$REGENMODE
 70
     1
  9
$FILLMODE
 70
     1
  9
$QTEXTMODE
 70
     0
  9
$MIRRTEXT
 70
     0
  9
$DRAGMODE
 70
     2
  9
$LTSCALE
 40
0.6431102362
  9
$OSMODE
 70
  3839
  9
$ATTMODE
 70
     1
  9
$TEXTSIZE
 40
0.2
  9
$TRACEWID
 40
0.05
  9
$TEXTSTYLE
  7
STANDARD
  9
$CLAYER
  8
0
  9
$CELTYPE
  6
BYLAYER
  9
$CECOLOR
 62
   256
  9
$DIMSCALE
 40
1.0
  9
$DIMASZ
 40
0.1875
  9
$DIMEXO
 40
0.0625
  9
$DIMDLI
 40
0.4443307087
  9
$DIMRND
 40
0.0
  9
$DIMDLE
 40
0.0
  9
$DIMEXE
 40
0.125
  9
$DIMTP
 40
0.01
  9
$DIMTM
 40
0.01
  9
$DIMTXT
 40
2.0
  9
$DIMCEN
 40
0.1052362205
  9
$DIMTSZ
 40
0.0
  9
$DIMTOL
 70
     1
  9
$DIMLIM
 70
     0
  9
$DIMTIH
 70
     1
  9
$DIMTOH
 70
     1
  9
$DIMSE1
 70
     0
  9
$DIMSE2
 70
     0
  9
$DIMTAD
 70
     0
  9
$DIMZIN
 70
     0
  9
$DIMBLK
  1

  9
$DIMASO
 70
     1
  9
$DIMSHO
 70
     1
  9
$DIMPOST
  1
\X
  9
$DIMAPOST
  1

  9
$DIMALT
 70
     1
  9
$DIMALTD
 70
     2
  9
$DIMALTF
 40
25.3999999999999986
  9
$DIMLFAC
 40
1.0
  9
$DIMTOFL
 70
     0
  9
$DIMTVP
 40
0.0
  9
$DIMTIX
 70
     0
  9
$DIMSOXD
 70
     0
  9
$DIMSAH
 70
     0
  9
$DIMBLK1
  1

  9
$DIMBLK2
  1

  9
$DIMSTYLE
  2
STANDARD
  9
$DIMCLRD
 70
     0
  9
$DIMCLRE
 70
     0
  9
$DIMCLRT
 70
     0
  9
$DIMTFAC
 40
1.0
  9
$DIMGAP
 40
0.09
  9
$LUNITS
 70
     2
  9
$LUPREC
 70
     4
  9
$SKETCHINC
 40
0.1
  9
$FILLETRAD
 40
0.0
  9
$AUNITS
 70
     0
  9
$AUPREC
 70
     0
  9
$MENU
  1
.
  9
$ELEVATION
 40
0.0
  9
$PELEVATION
 40
0.0
  9
$THICKNESS
 40
0.0
  9
$LIMCHECK
 70
     0
  9
$BLIPMODE
 70
     0
  9
$CHAMFERA
 40
0.0
  9
$CHAMFERB
 40
0.0
  9
$SKPOLY
 70
     0
  9
$TDCREATE
 40
2458060.468368056230247
  9
$TDUPDATE
 40
2459198.4731712960638106
  9
$TDINDWG
 40
0.588409838
  9
$TDUSRTIMER
 40
0.588409838
  9
$USRTIMER
 70
     1
  9
$ANGBASE
 50
0.0
  9
$ANGDIR
 70
     0
  9
$PDMODE
 70
     0
  9
$PDSIZE
 40
0.3125
  9
$PLINEWID
 40
0.0
  9
$COORDS
 70
     1
  9
$SPLFRAME
 70
     0
  9
$SPLINETYPE
 70
     6
  9
$SPLINESEGS
 70
     8
  9
$ATTDIA
 70
     1
  9
$ATTREQ
 70
     1
  9
$HANDLING
 70
     1
  9
$HANDSEED
  5
13C19
  9
$SURFTAB1
 70
     6
  9
$SURFTAB2
 70
     6
  9
$SURFTYPE
 70
     6
  9
$SURFU
 70
     6
  9
$SURFV
 70
     6
  9
$UCSNAME
  2

  9
$UCSORG
 10
0.0
 20
0.0
 30
0.0
  9
$UCSXDIR
 10
1.0
 20
0.0
 30
0.0
  9
$UCSYDIR
 10
0.0
 20
1.0
 30
0.0
  9
$PUCSNAME
  2

  9
$PUCSORG
 10
0.0
 20
0.0
 30
0.0
  9
$PUCSXDIR
 10
1.0
 20
0.0
 30
0.0
  9
$PUCSYDIR
 10
0.0
 20
1.0
 30
0.0
  9
$USERI1
 70
     0
  9
$USERI2
 70
     0
  9
$USERI3
 70
     0
  9
$USERI4
 70
     0
  9
$USERI5
 70
     0
  9
$USERR1
 40
0.0
  9
$USERR2
 40
0.0
  9
$USERR3
 40
0.0
  9
$USERR4
 40
0.0
  9
$USERR5
 40
0.0
  9
$WORLDVIEW
 70
     1
  9
$SHADEDGE
 70
     3
  9
$SHADEDIF
 70
    70
  9
$TILEMODE
 70
     1
  9
$MAXACTVP
 70
    64
  9
$PLIMCHECK
 70
     0
  9
$PEXTMIN
 10
1.0000000000000000E+20
 20
1.0000000000000000E+20
 30
1.0000000000000000E+20
  9
$PEXTMAX
 10
-1.0000000000000000E+20
 20
-1.0000000000000000E+20
 30
-1.0000000000000000E+20
  9
$PLIMMIN
 10
0.0
 20
0.0
  9
$PLIMMAX
 10
12.0
 20
9.0
  9
$UNITMODE
 70
     0
  9
$VISRETAIN
 70
     1
  9
$PLINEGEN
 70
     0
  9
$PSLTSCALE
 70
     1
  0
ENDSEC
  0
SECTION
  2
TABLES
  0
TABLE
  2
VPORT
 70
     1
  0
VPORT
  2
*ACTIVE
 70
     0
 10
0.0
 20
0.0
 11
1.0
 21
1.0
 12
-0.0064897406355176
 22
0.8186243922104377
 13
0.0
 23
0.0
 14
1.0
 24
1.0
 15
0.0
 25
0.0
 16
0.0
 26
0.0
 36
20.9203132949307395
 17
3515.499267578125
 27
160.6819381713866903
 37
0.0
 40
7.9761191486799223
 41
3.1182994454713491
 42
50.0
 43
0.0
 44
0.0
 50
0.0
 51
0.0
 71
     0
 72
   100
 73
     1
 74
     1
 75
     0
 76
     0
 77
     0
 78
     0
  0
ENDTAB
  0
TABLE
  2
LTYPE
 70
     2
  0
LTYPE
  2
CONTINUOUS
 70
     0
  3
Solid line
 72
    65
 73
     0
 40
0.0
  0
LTYPE
  2
PHANTOM2
 70
     0
  3
___ _ _ ___ _ _ ___ _ _ ___ _ _
 72
    65
 73
     6
 40
1.25
 49
0.625
 49
-0.125
 49
0.125
 49
-0.125
 49
0.125
 49
-0.125
  0
ENDTAB
  0
TABLE
  2
LAYER
 70
     2
  0
LAYER
  2
0
 70
     0
 62
   255
  6
CONTINUOUS
  0
LAYER
  2
DEFPOINTS
 70
     0
 62
     7
  6
CONTINUOUS
  0
ENDTAB
  0
TABLE
  2
STYLE
 70
     1
  0
STYLE
  2
STANDARD
 70
     0
 40
0.0
 41
0.8
 50
0.0
 71
     0
 42
0.2
  3
txt
  4

  0
ENDTAB
  0
TABLE
  2
VIEW
 70
     0
  0
ENDTAB
  0
TABLE
  2
UCS
 70
     0
  0
ENDTAB
  0
TABLE
  2
APPID
 70
     9
  0
APPID
  2
ACAD
 70
     0
  0
APPID
  2
ACAD_MLEADERVER
 70
     0
  0
APPID
  2
ACAD_EXEMPT_FROM_CAD_STANDARDS
 70
     0
  0
APPID
  2
ACAD_NAV_VCDISPLAY
 70
     0
  0
APPID
  2
ACAECLAYERSTANDARD
 70
     0
  0
APPID
  2
ACCMTRANSPARENCY
 70
     0
  0
APPID
  2
ACAD_DSTYLE_DIMJAG
 70
     0
  0
APPID
  2
ACAD_DSTYLE_DIMTALN
 70
     0
  0
APPID
  2
ACDBATTR
 70
     0
  0
ENDTAB
  0
TABLE
  2
DIMSTYLE
 70
     1
  0
DIMSTYLE
  2
STANDARD
 70
     0
  3

  4

  5

  6

  7

 40
1.0
 41
0.1875
 42
0.0625
 43
0.38
 44
0.125
 45
0.0
 46
0.0
 47
0.01
 48
0.01
140
0.15625
141
0.09
142
0.0
143
25.3999999999999986
144
1.0
145
0.0
146
1.0
147
0.09
 71
     1
 72
     0
 73
     1
 74
     1
 75
     0
 76
     0
 77
     0
 78
     4
170
     0
171
     2
172
     0
173
     0
174
     0
175
     0
176
     0
177
     0
178
     0
  0
ENDTAB
  0
ENDSEC
  0
SECTION
  2
BLOCKS
  0
BLOCK
  8
0
  2
$MODEL_SPACE
 70
     0
 10
0.0
 20
0.0
 30
0.0
  3
$MODEL_SPACE
  1

  0
ENDBLK
  5
21
  8
0
  0
BLOCK
 67
     1
  8
0
  2
$PAPER_SPACE
 70
     0
 10
0.0
 20
0.0
 30
0.0
  3
$PAPER_SPACE
  1

  0
ENDBLK
  5
1D
 67
     1
  8
0
  0
BLOCK
  8
0
  2
_FILLED
 70
     0
 10
0.0
 20
0.0
 30
0.0
  3
_FILLED
  1

  0
SOLID
  5
13356
  8
0
  6
BYBLOCK
 62
     0
 10
0.0
 20
0.0
 30
0.0
 11
-1.0
 21
0.1666666667
 31
0.0
 12
-1.0
 22
-0.1666666667
 32
0.0
 13
-1.0
 23
-0.1666666667
 33
0.0
  0
ENDBLK
  5
13357
  8
0
  6
BYBLOCK
 62
     0
  0
ENDSEC
  0
SECTION
  2
ENTITIES
  0
ATTDEF
  5
12BEB
  8
DEFPOINTS
 10
3515.5820034510479672
 20
161.5003412383138084
 30
0.0
 40
0.001
  1
K-73199IN
  3

  2
MODELNUMBER
 70
     0
1001
ACDBATTR
1070
     0
1070
     1
  0
ATTDEF
  5
12BEC
  8
DEFPOINTS
 10
3515.5820034510479672
 20
161.4986745716472001
 30
0.0
 40
0.001
  1
CONTEMPORARY
  3

  2
TRADENAME
 70
     0
1001
ACDBATTR
1070
     0
1070
     1
  0
ATTDEF
  5
12BED
  8
DEFPOINTS
 10
3515.5820034510479672
 20
161.4970079049805065
 30
0.0
 40
0.001
  1
SHOWERHEAD
  3

  2
PRODUCT
 70
     0
1001
ACDBATTR
1070
     0
1070
     1
  0
LINE
  5
13AF0
  8
0
 10
3519.5184312825999768
 20
165.3546071343558879
 30
0.0
 11
3519.5184312825999768
 21
157.6380717013558979
 31
0.0
  0
LINE
  5
13AF1
  8
0
 10
3519.4396911250992162
 20
165.4333472918559096
 30
0.0
 11
3511.7231556920992261
 21
165.4333472918559096
 31
0.0
  0
LINE
  5
13AF2
  8
0
 10
3519.4318164941992109
 20
165.3840409603558896
 30
0.0
 11
3511.7310303229987767
 21
165.3840409603558896
 31
0.0
  0
LINE
  5
13AF3
  8
0
 10
3519.423943093599064
 20
165.3782291816559109
 30
0.0
 11
3511.738903723768999
 21
165.3782291816559109
 31
0.0
  0
LINE
  5
13AF4
  8
0
 10
3519.4633131722989674
 20
165.3388591072558995
 30
0.0
 11
3519.4633131722989674
 21
157.6538197284558862
 31
0.0
  0
LINE
  5
13AF5
  8
0
 10
3519.46912495109882
 20
165.346732503455911
 30
0.0
 11
3519.46912495109882
 21
157.6459463322559031
 31
0.0
  0
ARC
  5
13AF6
  8
0
 10
3519.423943093428079
 20
165.338859102785193
 30
0.0
 40
0.039370078870725
 50
0.0000065062965444
 51
89.9999997515385246
  0
ARC
  5
13AF7
  8
0
 10
3519.4318164941992109
 20
165.346732503455911
 30
0.0
 40
0.0373084568999964
 50
0.0
 51
90.0
  0
ARC
  5
13AF8
  8
0
 10
3519.4396911250992162
 20
165.3546071343558879
 30
0.0
 40
0.0787401574999969
 50
359.9999999999951115
 51
90.0
  0
CIRCLE
  5
13AF9
  8
0
 10
3515.5814234085992211
 20
161.4963394178558929
 30
0.0
 40
0.7874015747999997
  0
CIRCLE
  5
13AFA
  8
0
 10
3515.5814234085992211
 20
161.4963394178558929
 30
0.0
 40
0.7130221045000003
  0
CIRCLE
  5
13AFB
  8
0
 10
3515.5814234085992211
 20
161.4963394178558929
 30
0.0
 40
0.1574803149999999
  0
CIRCLE
  5
13AFC
  8
0
 10
3515.5814234085992211
 20
161.4963394178558929
 30
0.0
 40
0.2539370079000003
  0
CIRCLE
  5
13AFD
  8
0
 10
3515.5814234085992211
 20
161.4963394178558929
 30
0.0
 40
0.5334645669000003
  0
CIRCLE
  5
13AFE
  8
0
 10
3515.5814234085992211
 20
161.4963394178558929
 30
0.0
 40
0.4744080359999998
  0
CIRCLE
  5
13AFF
  8
0
 10
3515.5814234085992211
 20
161.4963394178558929
 30
0.0
 40
0.3740157479999997
  0
LINE
  5
13B00
  8
0
 10
3519.4396911250992162
 20
157.5593315438559046
 30
0.0
 11
3511.7231556920992261
 21
157.5593315438559046
 31
0.0
  0
LINE
  5
13B01
  8
0
 10
3519.4318164941992109
 20
157.6086378753558961
 30
0.0
 11
3511.7310303229987767
 21
157.6086378753558961
 31
0.0
  0
LINE
  5
13B02
  8
0
 10
3519.423943093599064
 20
157.6144496540559032
 30
0.0
 11
3511.7389037235989235
 21
157.6144496540559032
 31
0.0
  0
ARC
  5
13B03
  8
0
 10
3519.4208914023729449
 20
157.6568714243151987
 30
0.0
 40
0.0425313932439178
 50
274.1145937501109984
 51
355.8853999920527258
  0
ARC
  5
13B04
  8
0
 10
3519.4318164941992109
 20
157.6459463322559031
 30
0.0
 40
0.0373084568999964
 50
270.0
 51
0.0
  0
ARC
  5
13B05
  8
0
 10
3519.4396911250992162
 20
157.6380717013558979
 30
0.0
 40
0.0787401574999969
 50
270.0
 51
0.0000000000048853
  0
LINE
  5
13B06
  8
0
 10
3511.6444155345989202
 20
165.3546071343558879
 30
0.0
 11
3511.6444155345989202
 21
157.6380717013558979
 31
0.0
  0
LINE
  5
13B07
  8
0
 10
3511.6995336448990201
 20
165.3388591072558995
 30
0.0
 11
3511.6995336448990201
 21
157.6538197284558862
 31
0.0
  0
LINE
  5
13B08
  8
0
 10
3511.6937218660991675
 20
165.346732503455911
 30
0.0
 11
3511.6937218660991675
 21
157.6459463322559031
 31
0.0
  0
ARC
  5
13B09
  8
0
 10
3511.738903723768999
 20
165.338859102785193
 30
0.0
 40
0.039370078870725
 50
90.0000002484614754
 51
179.9999934937034141
  0
ARC
  5
13B0A
  8
0
 10
3511.7310303229987767
 20
165.346732503455911
 30
0.0
 40
0.0373084568999964
 50
90.0
 51
180.0
  0
ARC
  5
13B0B
  8
0
 10
3511.7231556920992261
 20
165.3546071343558879
 30
0.0
 40
0.0787401574999969
 50
90.0
 51
180.0000000000048885
  0
ARC
  5
13B0C
  8
0
 10
3511.7419554148250427
 20
157.6568714243151987
 30
0.0
 40
0.0425313932439178
 50
184.1146000079473026
 51
265.8854062498888879
  0
ARC
  5
13B0D
  8
0
 10
3511.7310303229987767
 20
157.6459463322559031
 30
0.0
 40
0.0373084568999964
 50
180.0
 51
270.0
  0
ARC
  5
13B0E
  8
0
 10
3511.7231556920992261
 20
157.6380717013558979
 30
0.0
 40
0.0787401574999969
 50
179.9999999999951115
 51
270.0
  0
ENDSEC
  0
EOF
