  0
SECTION
  2
HEADER
  9
$ACADVER
  1
AC1009
  9
$INSBASE
 10
508.4271908013437269
 20
-9.9937796293904437
 30
0.0
  9
$EXTMIN
 10
507.4792569007590259
 20
-9.9994691873919734
 30
-0.0000000349181948
  9
$EXTMAX
 10
509.3834790828082077
 20
-3.7866526566867611
 30
0.0000000814935746
  9
$LIMMIN
 10
0.0
 20
0.0
  9
$LIMMAX
 10
11.6929133858000007
 20
8.2677165353999982
  9
$ORTHOMODE
 70
     0
  9
$REGENMODE
 70
     1
  9
$FILLMODE
 70
     1
  9
$QTEXTMODE
 70
     0
  9
$MIRRTEXT
 70
     0
  9
$DRAGMODE
 70
     2
  9
$LTSCALE
 40
0.6431102362
  9
$OSMODE
 70
  3839
  9
$ATTMODE
 70
     1
  9
$TEXTSIZE
 40
0.2
  9
$TRACEWID
 40
0.05
  9
$TEXTSTYLE
  7
STANDARD
  9
$CLAYER
  8
DEFPOINT
  9
$CELTYPE
  6
BYLAYER
  9
$CECOLOR
 62
   256
  9
$DIMSCALE
 40
1.0
  9
$DIMASZ
 40
0.1875
  9
$DIMEXO
 40
0.0625
  9
$DIMDLI
 40
0.4443307087
  9
$DIMRND
 40
0.0
  9
$DIMDLE
 40
0.0
  9
$DIMEXE
 40
0.125
  9
$DIMTP
 40
0.01
  9
$DIMTM
 40
0.01
  9
$DIMTXT
 40
1.0
  9
$DIMCEN
 40
0.1052362205
  9
$DIMTSZ
 40
0.0
  9
$DIMTOL
 70
     1
  9
$DIMLIM
 70
     0
  9
$DIMTIH
 70
     1
  9
$DIMTOH
 70
     1
  9
$DIMSE1
 70
     0
  9
$DIMSE2
 70
     0
  9
$DIMTAD
 70
     0
  9
$DIMZIN
 70
     0
  9
$DIMBLK
  1

  9
$DIMASO
 70
     1
  9
$DIMSHO
 70
     1
  9
$DIMPOST
  1
\X
  9
$DIMAPOST
  1

  9
$DIMALT
 70
     1
  9
$DIMALTD
 70
     2
  9
$DIMALTF
 40
25.3999999999999986
  9
$DIMLFAC
 40
1.0
  9
$DIMTOFL
 70
     0
  9
$DIMTVP
 40
0.0
  9
$DIMTIX
 70
     0
  9
$DIMSOXD
 70
     0
  9
$DIMSAH
 70
     0
  9
$DIMBLK1
  1

  9
$DIMBLK2
  1

  9
$DIMSTYLE
  2
STANDARD
  9
$DIMCLRD
 70
     0
  9
$DIMCLRE
 70
     0
  9
$DIMCLRT
 70
     0
  9
$DIMTFAC
 40
1.0
  9
$DIMGAP
 40
0.09
  9
$LUNITS
 70
     2
  9
$LUPREC
 70
     4
  9
$SKETCHINC
 40
0.1
  9
$FILLETRAD
 40
0.0
  9
$AUNITS
 70
     0
  9
$AUPREC
 70
     0
  9
$MENU
  1
.
  9
$ELEVATION
 40
0.0
  9
$PELEVATION
 40
0.0
  9
$THICKNESS
 40
0.0
  9
$LIMCHECK
 70
     0
  9
$BLIPMODE
 70
     0
  9
$CHAMFERA
 40
0.0
  9
$CHAMFERB
 40
0.0
  9
$SKPOLY
 70
     0
  9
$TDCREATE
 40
2458306.6094560190103948
  9
$TDUPDATE
 40
2459184.7505787038244307
  9
$TDINDWG
 40
0.1199627315
  9
$TDUSRTIMER
 40
0.1199626042
  9
$USRTIMER
 70
     1
  9
$ANGBASE
 50
0.0
  9
$ANGDIR
 70
     0
  9
$PDMODE
 70
     0
  9
$PDSIZE
 40
0.3125
  9
$PLINEWID
 40
0.0
  9
$COORDS
 70
     1
  9
$SPLFRAME
 70
     0
  9
$SPLINETYPE
 70
     6
  9
$SPLINESEGS
 70
     8
  9
$ATTDIA
 70
     1
  9
$ATTREQ
 70
     1
  9
$HANDLING
 70
     1
  9
$HANDSEED
  5
476E
  9
$SURFTAB1
 70
     6
  9
$SURFTAB2
 70
     6
  9
$SURFTYPE
 70
     6
  9
$SURFU
 70
     6
  9
$SURFV
 70
     6
  9
$UCSNAME
  2

  9
$UCSORG
 10
0.0
 20
0.0
 30
0.0
  9
$UCSXDIR
 10
1.0
 20
0.0
 30
0.0
  9
$UCSYDIR
 10
0.0
 20
1.0
 30
0.0
  9
$PUCSNAME
  2

  9
$PUCSORG
 10
0.0
 20
0.0
 30
0.0
  9
$PUCSXDIR
 10
1.0
 20
0.0
 30
0.0
  9
$PUCSYDIR
 10
0.0
 20
1.0
 30
0.0
  9
$USERI1
 70
     0
  9
$USERI2
 70
     0
  9
$USERI3
 70
     0
  9
$USERI4
 70
     0
  9
$USERI5
 70
     0
  9
$USERR1
 40
0.0
  9
$USERR2
 40
0.0
  9
$USERR3
 40
0.0
  9
$USERR4
 40
0.0
  9
$USERR5
 40
0.0
  9
$WORLDVIEW
 70
     1
  9
$SHADEDGE
 70
     3
  9
$SHADEDIF
 70
    70
  9
$TILEMODE
 70
     1
  9
$MAXACTVP
 70
    64
  9
$PLIMCHECK
 70
     0
  9
$PEXTMIN
 10
1.0000000000000000E+20
 20
1.0000000000000000E+20
 30
1.0000000000000000E+20
  9
$PEXTMAX
 10
-1.0000000000000000E+20
 20
-1.0000000000000000E+20
 30
-1.0000000000000000E+20
  9
$PLIMMIN
 10
0.0
 20
0.0
  9
$PLIMMAX
 10
12.0
 20
9.0
  9
$UNITMODE
 70
     0
  9
$VISRETAIN
 70
     1
  9
$PLINEGEN
 70
     0
  9
$PSLTSCALE
 70
     1
  0
ENDSEC
  0
SECTION
  2
TABLES
  0
TABLE
  2
VPORT
 70
     1
  0
VPORT
  2
*ACTIVE
 70
     0
 10
0.0
 20
0.0
 11
1.0
 21
1.0
 12
-0.0013236638945937
 22
3.103126794241077
 13
0.0
 23
0.0
 14
1.0
 24
1.0
 15
0.0
 25
0.0
 16
0.0
 26
0.0
 36
0.0353741150031454
 17
508.4326916556781839
 27
-9.9961877162804456
 37
0.0
 40
6.2815930974657848
 41
3.0887245841035109
 42
50.0
 43
0.0
 44
0.0
 50
0.0
 51
0.0
 71
     0
 72
   100
 73
     1
 74
     1
 75
     0
 76
     0
 77
     0
 78
     0
  0
ENDTAB
  0
TABLE
  2
LTYPE
 70
     1
  0
LTYPE
  2
CONTINUOUS
 70
     0
  3
Solid line
 72
    65
 73
     0
 40
0.0
  0
ENDTAB
  0
TABLE
  2
LAYER
 70
     2
  0
LAYER
  2
0
 70
     0
 62
   255
  6
CONTINUOUS
  0
LAYER
  2
DEFPOINT
 70
     0
 62
     7
  6
CONTINUOUS
  0
ENDTAB
  0
TABLE
  2
STYLE
 70
     1
  0
STYLE
  2
STANDARD
 70
     0
 40
0.0
 41
0.8
 50
0.0
 71
     0
 42
0.2
  3
txt
  4

  0
ENDTAB
  0
TABLE
  2
VIEW
 70
     0
  0
ENDTAB
  0
TABLE
  2
UCS
 70
     0
  0
ENDTAB
  0
TABLE
  2
APPID
 70
    10
  0
APPID
  2
ACAD
 70
     0
  0
APPID
  2
ACADANNOTATIVE
 70
     0
  0
APPID
  2
ACAD_MLEADERVER
 70
     0
  0
APPID
  2
ACAD_EXEMPT_FROM_CAD_STANDARDS
 70
     0
  0
APPID
  2
ACAD_DSTYLE_DIMJAG
 70
     0
  0
APPID
  2
ACAD_DSTYLE_DIMTALN
 70
     0
  0
APPID
  2
ACAD_NAV_VCDISPLAY
 70
     0
  0
APPID
  2
ACAECLAYERSTANDARD
 70
     0
  0
APPID
  2
ACCMTRANSPARENCY
 70
     0
  0
APPID
  2
ACDBATTR
 70
     0
  0
ENDTAB
  0
TABLE
  2
DIMSTYLE
 70
     1
  0
DIMSTYLE
  2
STANDARD
 70
     0
  3

  4

  5

  6

  7

 40
1.0
 41
0.1875
 42
0.0625
 43
0.38
 44
0.125
 45
0.0
 46
0.0
 47
0.01
 48
0.01
140
0.15625
141
0.09
142
0.0
143
25.3999999999999986
144
1.0
145
0.0
146
1.0
147
0.09
 71
     1
 72
     0
 73
     1
 74
     1
 75
     0
 76
     0
 77
     0
 78
     4
170
     0
171
     2
172
     0
173
     0
174
     0
175
     0
176
     0
177
     0
178
     0
  0
ENDTAB
  0
ENDSEC
  0
SECTION
  2
BLOCKS
  0
BLOCK
  8
0
  2
$MODEL_SPACE
 70
     0
 10
0.0
 20
0.0
 30
0.0
  3
$MODEL_SPACE
  1

  0
ENDBLK
  5
1598
  8
0
  0
BLOCK
 67
     1
  8
0
  2
$PAPER_SPACE
 70
     0
 10
0.0
 20
0.0
 30
0.0
  3
$PAPER_SPACE
  1

  0
ENDBLK
  5
1594
 67
     1
  8
0
  0
BLOCK
  8
0
  2
_FILLED
 70
     0
 10
0.0
 20
0.0
 30
0.0
  3
_FILLED
  1

  0
SOLID
  5
3F0C
  8
0
  6
BYBLOCK
 62
     0
 10
0.0
 20
0.0
 30
0.0
 11
-1.0
 21
0.1666666667
 31
0.0
 12
-1.0
 22
-0.1666666667
 32
0.0
 13
-1.0
 23
-0.1666666667
 33
0.0
  0
ENDBLK
  5
3F0D
  8
0
  6
BYBLOCK
 62
     0
  0
ENDSEC
  0
SECTION
  2
ENTITIES
  0
ATTDEF
  5
659
  8
DEFPOINT
 10
508.4273583221859099
 20
-9.995021049613781
 30
0.0
 40
0.001
  1
K-74013AR-4
  3

  2
MODELNUMBER
 70
     0
1001
ACDBATTR
1070
     0
1070
     1
  0
ATTDEF
  5
65A
  8
DEFPOINT
 10
508.4273583221859099
 20
-9.9966877162804462
 30
0.0
 40
0.001
  1
TAUT
  3

  2
TRADENAME
 70
     0
1001
ACDBATTR
1070
     0
1070
     1
  0
ATTDEF
  5
65B
  8
DEFPOINT
 10
508.4273583221859099
 20
-9.9983543829471095
 30
0.0
 40
0.001
  1
BATHROOM SINK FAUCET
  3

  2
PRODUCT
 70
     0
1001
ACDBATTR
1070
     0
1070
     1
  0
LINE
  5
427B
  8
0
 10
507.5019937687936817
 20
-9.9937796293904437
 30
0.0
 11
509.3523878338936015
 21
-9.9937796293904437
 31
0.0
  0
LINE
  5
427C
  8
0
 10
507.5019937687936817
 20
-9.8817155799509333
 30
0.0
 11
507.5019937687936817
 21
-9.9937796293904437
 31
0.0
  0
LINE
  5
427D
  8
0
 10
507.5985466254708172
 20
-3.832247819890453
 30
0.0
 11
507.5985466254708172
 21
-4.7223655397558542
 31
0.0
  0
LINE
  5
427E
  8
0
 10
507.5985466254708172
 20
-9.5551845850904424
 30
0.0
 11
507.5985466254708172
 21
-4.8249780549904511
 31
0.0
  0
LINE
  5
427F
  8
0
 10
507.7833435266937272
 20
-3.9441225019904471
 30
0.0
 11
507.783343529793683
 21
-3.8267604362904679
 31
0.0
  0
LINE
  5
4280
  8
0
 10
507.8165734717939017
 20
-5.6130355670904608
 30
0.0
 11
507.8165734717939017
 21
-6.3138630711904664
 31
0.0
  0
LINE
  5
4281
  8
0
 10
507.5985466254708172
 20
-9.5669346495904488
 30
0.0
 11
507.5985466254708172
 21
-9.5551845850904424
 31
0.0
  0
LINE
  5
4282
  8
0
 10
507.5019937687936817
 20
-9.8817155799509333
 30
0.0
 11
507.5037923368935253
 21
-9.8699529800904582
 31
0.0
  0
LINE
  5
4283
  8
0
 10
508.0728727978715256
 20
-6.3737928404982229
 30
0.0
 11
508.0728600926934178
 21
-6.4089294020904477
 31
0.0
  0
LINE
  5
4284
  8
0
 10
508.1317545605937198
 20
-6.4208588585904609
 30
0.0
 11
508.1317545605937198
 21
-6.4269418702904471
 31
0.0
  0
LINE
  5
4285
  8
0
 10
508.1488023047934917
 20
-6.4387333220904539
 30
0.0
 11
508.1488023047934917
 21
-6.426567298690455
 31
0.0
  0
LINE
  5
4286
  8
0
 10
508.1488023047934917
 20
-6.4206976615904496
 30
0.0
 11
508.1488023047934917
 21
-6.4045027777904666
 31
0.0
  0
LINE
  5
4287
  8
0
 10
508.1595934102936098
 20
-6.4015694101904588
 30
0.0
 11
508.1595934102936098
 21
-6.4106611200904497
 31
0.0
  0
LINE
  5
4288
  8
0
 10
508.1595934102936098
 20
-6.425426406990451
 30
0.0
 11
508.1595934102936098
 21
-6.4325009967904503
 31
0.0
  0
LINE
  5
4289
  8
0
 10
508.1658500489937182
 20
-6.444289747690445
 30
0.0
 11
508.1658500489937182
 21
-6.4382067359904598
 31
0.0
  0
LINE
  5
428A
  8
0
 10
508.1658500489937182
 20
-6.4252813924904588
 30
0.0
 11
508.1658500489937182
 21
-6.417218745490457
 31
0.0
  0
LINE
  5
428B
  8
0
 10
508.1766411544938933
 20
-6.4436923593904663
 30
0.0
 11
508.1766411544938933
 21
-6.4295731448904672
 31
0.0
  0
LINE
  5
428C
  8
0
 10
508.1766411544938933
 20
-6.4229100146904701
 30
0.0
 11
508.1766411544938933
 21
-6.4048194874904691
 31
0.0
  0
LINE
  5
428D
  8
0
 10
508.1766411544938933
 20
-6.3964777931904537
 30
0.0
 11
508.1766411544938933
 21
-6.3842945642465141
 31
0.0
  0
LINE
  5
428E
  8
0
 10
508.187432259893626
 20
-6.4003922103904616
 30
0.0
 11
508.187432259893626
 21
-6.4104237436904699
 31
0.0
  0
LINE
  5
428F
  8
0
 10
508.187432259893626
 20
-6.4269110220904491
 30
0.0
 11
508.187432259893626
 21
-6.4349361531904474
 31
0.0
  0
LINE
  5
4290
  8
0
 10
508.1936888985936207
 20
-6.4477116663904592
 30
0.0
 11
508.1936888985936207
 21
-6.440666384890446
 31
0.0
  0
LINE
  5
4291
  8
0
 10
508.1936888985936207
 20
-6.4260097350904442
 30
0.0
 11
508.1936888985936207
 21
-6.41700890519044
 31
0.0
  0
LINE
  5
4292
  8
0
 10
508.1936888985936207
 20
-6.3987019957904439
 30
0.0
 11
508.1936888985936207
 21
-6.384989281397762
 31
0.0
  0
LINE
  5
4293
  8
0
 10
508.2044800040937957
 20
-6.4456049237904534
 30
0.0
 11
508.2044800040937957
 21
-6.4296048455904593
 31
0.0
  0
LINE
  5
4294
  8
0
 10
508.2044800040937957
 20
-6.422168899590444
 30
0.0
 11
508.2044800040937957
 21
-6.402211070690468
 31
0.0
  0
LINE
  5
4295
  8
0
 10
508.2044800040937957
 20
-6.3930897809904632
 30
0.0
 11
508.2044800040937957
 21
-6.3742251533000154
 31
0.0
  0
LINE
  5
4296
  8
0
 10
508.215271109593516
 20
-6.3963361791904543
 30
0.0
 11
508.215271109593516
 21
-6.4073060289904591
 31
0.0
  0
LINE
  5
4297
  8
0
 10
508.215271109593516
 20
-6.425493307490453
 30
0.0
 11
508.215271109593516
 21
-6.4344464894904521
 31
0.0
  0
LINE
  5
4298
  8
0
 10
508.2215277482935107
 20
-6.4481941538904533
 30
0.0
 11
508.2215277482935107
 21
-6.4402182776904597
 31
0.0
  0
LINE
  5
4299
  8
0
 10
508.2215277482935107
 20
-6.4238689580904502
 30
0.0
 11
508.2215277482935107
 21
-6.4139407779904589
 31
0.0
  0
LINE
  5
429A
  8
0
 10
508.2215277482935107
 20
-6.3939202169904643
 30
0.0
 11
508.2215277482935107
 21
-6.3819110358904521
 31
0.0
  0
LINE
  5
429B
  8
0
 10
508.2323188537936858
 20
-6.4446535093904611
 30
0.0
 11
508.2323188537936858
 21
-6.4268102838904593
 31
0.0
  0
LINE
  5
429C
  8
0
 10
508.2323188537936858
 20
-6.4186088421904488
 30
0.0
 11
508.2323188537936858
 21
-6.3967810442904609
 31
0.0
  0
LINE
  5
429D
  8
0
 10
508.2323188537936858
 20
-6.3868702671904583
 30
0.0
 11
508.2323188537936858
 21
-6.3709217937226557
 31
0.0
  0
LINE
  5
429E
  8
0
 10
508.243109959293804
 20
-6.3894788550904567
 30
0.0
 11
508.243109959293804
 21
-6.4014005003904488
 31
0.0
  0
LINE
  5
429F
  8
0
 10
508.243109959293804
 20
-6.4212933370904439
 30
0.0
 11
508.243109959293804
 21
-6.4311676544904488
 31
0.0
  0
LINE
  5
42A0
  8
0
 10
508.2493665978934132
 20
-6.4458881150904661
 30
0.0
 11
508.2493665978934132
 21
-6.4369971126904471
 31
0.0
  0
LINE
  5
42A1
  8
0
 10
508.2493665978934132
 20
-6.418965775190455
 30
0.0
 11
508.2493665978934132
 21
-6.4081062587904656
 31
0.0
  0
LINE
  5
42A2
  8
0
 10
508.2493665978934132
 20
-6.3863457055904549
 30
0.0
 11
508.2493665978934132
 21
-6.3702457300871318
 31
0.0
  0
LINE
  5
42A3
  8
0
 10
508.2601577033935882
 20
-6.4409617907904506
 30
0.0
 11
508.2601577033935882
 21
-6.4212834308904672
 31
0.0
  0
LINE
  5
42A4
  8
0
 10
508.2601577033935882
 20
-6.412311831090447
 30
0.0
 11
508.2601577033935882
 21
-6.388582214290464
 31
0.0
  0
LINE
  5
42A5
  8
0
 10
508.2601577033935882
 20
-6.377859505890453
 30
0.0
 11
508.2601577033935882
 21
-6.3702731795315213
 31
0.0
  0
LINE
  5
42A6
  8
0
 10
508.2709488088938201
 20
-6.3798492591904479
 30
0.0
 11
508.2709488088938201
 21
-6.3927511956904626
 31
0.0
  0
LINE
  5
42A7
  8
0
 10
508.2709488088938201
 20
-6.4143814124904539
 30
0.0
 11
508.2709488088938201
 21
-6.4251841081904484
 31
0.0
  0
LINE
  5
42A8
  8
0
 10
508.2709488088938201
 20
-6.4431350439904502
 30
0.0
 11
508.2709488088938201
 21
-6.4519939567904583
 31
0.0
  0
LINE
  5
42A9
  8
0
 10
508.2772054475938148
 20
-6.440892093790465
 30
0.0
 11
508.2772054475938148
 21
-6.4310872308904532
 31
0.0
  0
LINE
  5
42AA
  8
0
 10
508.2772054475938148
 20
-6.4113588936904451
 30
0.0
 11
508.2772054475938148
 21
-6.3995498261904489
 31
0.0
  0
LINE
  5
42AB
  8
0
 10
508.2772054475938148
 20
-6.3759955503904537
 30
0.0
 11
508.2772054475938148
 21
-6.3699169028144791
 31
0.0
  0
LINE
  5
42AC
  8
0
 10
508.287996553093592
 20
-6.460389454390449
 30
0.0
 11
508.287996553093592
 21
-6.442712639090443
 31
0.0
  0
LINE
  5
42AD
  8
0
 10
508.287996553093592
 20
-6.4346053972904516
 30
0.0
 11
508.287996553093592
 21
-6.4130723585904521
 31
0.0
  0
LINE
  5
42AE
  8
0
 10
508.287996553093592
 20
-6.4033142904904397
 30
0.0
 11
508.287996553093592
 21
-6.3776212069904519
 31
0.0
  0
LINE
  5
42AF
  8
0
 10
508.2987876585938238
 20
-6.3695104344343161
 30
0.0
 11
508.2987876585938238
 21
-6.3813573614904424
 31
0.0
  0
LINE
  5
42B0
  8
0
 10
508.2987876585938238
 20
-6.4047838983904599
 30
0.0
 11
508.2987876585938238
 21
-6.4165361455904684
 31
0.0
  0
LINE
  5
42B1
  8
0
 10
508.2987876585938238
 20
-6.43618135659045
 30
0.0
 11
508.2987876585938238
 21
-6.4459510869904451
 31
0.0
  0
LINE
  5
42B2
  8
0
 10
508.3050442971937173
 20
-6.4599279822904503
 30
0.0
 11
508.3050442971937173
 21
-6.4511096846904632
 31
0.0
  0
LINE
  5
42B3
  8
0
 10
508.3050442971937173
 20
-6.4332604391904598
 30
0.0
 11
508.3050442971937173
 21
-6.4225295457904661
 31
0.0
  0
LINE
  5
42B4
  8
0
 10
508.3050442971937173
 20
-6.4010638296904547
 30
0.0
 11
508.3050442971937173
 21
-6.3882722148904607
 31
0.0
  0
LINE
  5
42B5
  8
0
 10
508.3158354026933807
 20
-6.4539884165904464
 30
0.0
 11
508.3158354026933807
 21
-6.4344922184904449
 31
0.0
  0
LINE
  5
42B6
  8
0
 10
508.3158354026933807
 20
-6.4256179903904611
 30
0.0
 11
508.3158354026933807
 21
-6.4021831056904519
 31
0.0
  0
LINE
  5
42B7
  8
0
 10
508.3158354026933807
 20
-6.3916100286904491
 30
0.0
 11
508.3158354026933807
 21
-6.3692245701275541
 31
0.0
  0
LINE
  5
42B8
  8
0
 10
508.3266265081936126
 20
-6.3924853237904511
 30
0.0
 11
508.3266265081936126
 21
-6.405223076590457
 31
0.0
  0
LINE
  5
42B9
  8
0
 10
508.3266265081936126
 20
-6.4266083840904553
 30
0.0
 11
508.3266265081936126
 21
-6.4373041452904518
 31
0.0
  0
LINE
  5
42BA
  8
0
 10
508.3266265081936126
 20
-6.455103598290461
 30
0.0
 11
508.3266265081936126
 21
-6.4639019969904696
 31
0.0
  0
LINE
  5
42BB
  8
0
 10
508.3266265081936126
 20
-6.4783162103904584
 30
0.0
 11
508.3266265081936126
 21
-6.485296002890462
 31
0.0
  0
LINE
  5
42BC
  8
0
 10
508.3266265081936126
 20
-6.4964183464904561
 30
0.0
 11
508.3266265081936126
 21
-6.5016045773904496
 31
0.0
  0
LINE
  5
42BD
  8
0
 10
508.3266265081936126
 20
-6.5094350511904491
 30
0.0
 11
508.3266265081936126
 21
-6.5128026758904669
 31
0.0
  0
LINE
  5
42BE
  8
0
 10
508.3266265081936126
 20
-6.5172479099904574
 30
0.0
 11
508.3266265081936126
 21
-6.5187181722904457
 31
0.0
  0
LINE
  5
42BF
  8
0
 10
508.332883146893721
 20
-6.4522777721904543
 30
0.0
 11
508.332883146893721
 21
-6.4425510521904501
 31
0.0
  0
LINE
  5
42C0
  8
0
 10
508.332883146893721
 20
-6.4230075320904501
 30
0.0
 11
508.332883146893721
 21
-6.411324733990452
 31
0.0
  0
LINE
  5
42C1
  8
0
 10
508.332883146893721
 20
-6.3880541416904437
 30
0.0
 11
508.332883146893721
 21
-6.3742304758904691
 31
0.0
  0
LINE
  5
42C2
  8
0
 10
508.343674252393896
 20
-6.5218505406904486
 30
0.0
 11
508.3436742523379053
 21
-6.5188693832034783
 31
0.0
  0
LINE
  5
42C3
  8
0
 10
508.343674252393896
 20
-6.5168396455904629
 30
0.0
 11
508.343674252393896
 21
-6.5100812738904468
 31
0.0
  0
LINE
  5
42C4
  8
0
 10
508.343674252393896
 20
-6.5065259259904433
 30
0.0
 11
508.343674252393896
 21
-6.4961459530904602
 31
0.0
  0
LINE
  5
42C5
  8
0
 10
508.343674252393896
 20
-6.4911066211904522
 30
0.0
 11
508.343674252393896
 21
-6.477154547290465
 31
0.0
  0
LINE
  5
42C6
  8
0
 10
508.343674252393896
 20
-6.4706312313904544
 30
0.0
 11
508.343674252393896
 21
-6.4530575562904442
 31
0.0
  0
LINE
  5
42C7
  8
0
 10
508.343674252393896
 20
-6.4450086301904701
 30
0.0
 11
508.343674252393896
 21
-6.4236577407904436
 31
0.0
  0
LINE
  5
42C8
  8
0
 10
508.343674252393896
 20
-6.4139938453904479
 30
0.0
 11
508.343674252393896
 21
-6.3885801524904462
 31
0.0
  0
LINE
  5
42C9
  8
0
 10
508.343674252393896
 20
-6.3771497436904641
 30
0.0
 11
508.343674252393896
 21
-6.3688245470534897
 31
0.0
  0
LINE
  5
42CA
  8
0
 10
508.3445136359936214
 20
-6.3688137723219116
 30
0.0
 11
508.3445136359936214
 21
-6.3769251724904432
 31
0.0
  0
LINE
  5
42CB
  8
0
 10
508.3445136359936214
 20
-6.3890334368904549
 30
0.0
 11
508.3445136359936214
 21
-6.413818058190456
 31
0.0
  0
LINE
  5
42CC
  8
0
 10
508.3445136359936214
 20
-6.4240553037904506
 30
0.0
 11
508.3445136359936214
 21
-6.4448783459904444
 31
0.0
  0
LINE
  5
42CD
  8
0
 10
508.3445136359936214
 20
-6.4534050223904531
 30
0.0
 11
508.3445136359936214
 21
-6.470544806490464
 31
0.0
  0
LINE
  5
42CE
  8
0
 10
508.3445136359936214
 20
-6.477455528290446
 30
0.0
 11
508.3445136359936214
 21
-6.4910637165904443
 31
0.0
  0
LINE
  5
42CF
  8
0
 10
508.3445136359936214
 20
-6.4964025590904528
 30
0.0
 11
508.3445136359936214
 21
-6.5065273963904513
 31
0.0
  0
LINE
  5
42D0
  8
0
 10
508.3445136359936214
 20
-6.5102943595904579
 30
0.0
 11
508.3445136359936214
 21
-6.5168876009904562
 31
0.0
  0
LINE
  5
42D1
  8
0
 10
508.3445136359936214
 20
-6.519038609690452
 30
0.0
 11
508.3445136359936214
 21
-6.521948593090455
 31
0.0
  0
LINE
  5
42D2
  8
0
 10
508.376009698993812
 20
-6.3684639014950601
 30
0.0
 11
508.376009698993812
 21
-6.5260094270904547
 31
0.0
  0
LINE
  5
42D3
  8
0
 10
508.3823042074935188
 20
-6.5209946422904439
 30
0.0
 11
508.3823042074935188
 21
-6.5065668968904591
 31
0.0
  0
LINE
  5
42D4
  8
0
 10
508.3823042074935188
 20
-6.382698041590456
 30
0.0
 11
508.3823042074935188
 21
-6.3755117134904511
 31
0.0
  0
LINE
  5
42D5
  8
0
 10
508.3885608461935135
 20
-6.3683540220461321
 30
0.0
 11
508.3885608461935135
 21
-6.3727638812904646
 31
0.0
  0
LINE
  5
42D6
  8
0
 10
508.3993519516936885
 20
-6.519876686890453
 30
0.0
 11
508.3993519516936885
 21
-6.4981467581904697
 31
0.0
  0
LINE
  5
42D7
  8
0
 10
508.3993519516936885
 20
-6.3865856020904612
 30
0.0
 11
508.3993519516936885
 21
-6.3722115024904422
 31
0.0
  0
LINE
  5
42D8
  8
0
 10
508.4163996958935172
 20
-6.3755117134904511
 30
0.0
 11
508.4163996958935172
 21
-6.382698041590456
 31
0.0
  0
LINE
  5
42D9
  8
0
 10
508.4163996958935172
 20
-6.5065668968904591
 30
0.0
 11
508.4163996958935172
 21
-6.5224554467904428
 31
0.0
  0
LINE
  5
42DA
  8
0
 10
507.5985466254708172
 20
-9.5669346495904488
 30
0.0
 11
507.5037923368935253
 21
-9.8699529800904582
 31
0.0
  0
LINE
  5
42DB
  8
0
 10
509.2558349772164092
 20
-4.8249780549904511
 30
0.0
 11
507.5985466254708172
 21
-4.8249780549904511
 31
0.0
  0
LINE
  5
42DC
  8
0
 10
507.6304473807479098
 20
-4.7521434092904524
 30
0.0
 11
509.2239342218392721
 21
-4.7521434092904524
 31
0.0
  0
ARC
  5
42DD
  8
0
 10
508.5886334434219975
 20
-37.142203870305508
 30
0.0
 40
33.3552704743580435
 50
90.2773180372750943
 51
91.6464568282978149
  0
ARC
  5
42DE
  8
0
 10
507.8507247357135839
 20
-6.3112937285503374
 30
0.0
 40
0.03424777874463
 50
184.3024960754642052
 51
263.3129324721900844
  0
ARC
  5
42DF
  8
0
 10
507.8524426211773175
 20
-5.6172219930076874
 30
0.0
 40
0.0361126299160829
 50
99.1793087537013918
 51
173.3429088159921037
  0
ARC
  5
42E0
  8
0
 10
507.8206096502487981
 20
-3.833127873534719
 30
0.0
 40
0.0378061898482274
 50
100.3204246479329953
 51
170.3038502119082125
  0
ARC
  5
42E1
  8
0
 10
508.2396688678934993
 20
-5.9600976090904663
 30
0.0
 40
0.448598849
 50
277.5727774810966935
 51
279.7754715722870174
  0
ARC
  5
42E2
  8
0
 10
508.2387849168205776
 20
-5.9648296670067662
 30
0.0
 40
0.4412375212737327
 50
276.4035751764158135
 51
278.6366131785990206
  0
ARC
  5
42E3
  8
0
 10
508.2461693796938107
 20
-5.9800196502904699
 30
0.0
 40
0.4350679954000001
 50
273.2650653304892785
 51
275.5169024663002233
  0
ARC
  5
42E4
  8
0
 10
508.2447833516937976
 20
-5.9843038233904604
 30
0.0
 40
0.4282840475
 50
272.0572206018118209
 51
274.3415769861113063
  0
ARC
  5
42E5
  8
0
 10
508.229691553493808
 20
-5.9718441723904601
 30
0.0
 40
0.4178501907000001
 50
271.8402533672962136
 51
274.1812404987023797
  0
ARC
  5
42E6
  8
0
 10
508.2282051836934897
 20
-5.9759000867904577
 30
0.0
 40
0.4109907681000001
 50
270.5734918757880223
 51
272.9513949714079786
  0
ARC
  5
42E7
  8
0
 10
508.2344084013938073
 20
-5.9898400711904554
 30
0.0
 40
0.4069463378
 50
267.3045817195895211
 51
269.7058020360958039
  0
ARC
  5
42E8
  8
0
 10
508.2325014547935211
 20
-5.9932456760904511
 30
0.0
 40
0.4008247871
 50
265.9912121864877008
 51
268.431170774993916
  0
ARC
  5
42E9
  8
0
 10
508.238137293993816
 20
-6.00594765779047
 30
0.0
 40
0.3976902131
 50
262.6749173462022782
 51
265.1451403111922218
  0
ARC
  5
42EA
  8
0
 10
508.2359155374937245
 20
-6.0086047699904528
 30
0.0
 40
0.3923760118
 50
261.3113352115972816
 51
263.8219903300987994
  0
ARC
  5
42EB
  8
0
 10
508.2411845218936719
 20
-6.019932311290459
 30
0.0
 40
0.3902614313
 50
257.9322695417952787
 51
260.4804022609027925
  0
ARC
  5
42EC
  8
0
 10
508.2440944356937962
 20
-6.0308802133904438
 30
0.0
 40
0.3855832086999999
 50
254.5150182276283886
 51
255.6918020961871036
  0
ARC
  5
42ED
  8
0
 10
508.2317094201937948
 20
-5.9389686692904577
 30
0.0
 40
0.4633428638
 50
281.8208828734104259
 51
283.9836940250874022
  0
ARC
  5
42EE
  8
0
 10
508.2313811002125021
 20
-5.9440732265312848
 30
0.0
 40
0.4554357457490773
 50
280.6865685068880794
 51
282.8775395798496106
  0
ARC
  5
42EF
  8
0
 10
508.2237294939935168
 20
-5.9522211665904461
 30
0.0
 40
0.4302272065
 50
276.3011561209895035
 51
278.5909605132054025
  0
ARC
  5
42F0
  8
0
 10
508.2227478439937727
 20
-5.9568174434904479
 30
0.0
 40
0.4227007403
 50
275.0774338929896885
 51
277.4021335982895948
  0
ARC
  5
42F1
  8
0
 10
508.2559363218936141
 20
-5.96746303459045
 30
0.0
 40
0.4645552222
 50
278.7525547496958893
 51
280.8865176876986993
  0
ARC
  5
42F2
  8
0
 10
508.255152369281177
 20
-5.9723531886307031
 30
0.0
 40
0.4573088792789468
 50
277.6254085191010859
 51
279.7863274748125946
  0
ARC
  5
42F3
  8
0
 10
508.2629526468938934
 20
-5.9876416614904686
 30
0.0
 40
0.4499688946
 50
274.5678079431060041
 51
276.7493054265041224
  0
ARC
  5
42F4
  8
0
 10
508.2616645837936176
 20
-5.9921247579904646
 30
0.0
 40
0.443263453
 50
273.4056484067111796
 51
275.6162065489007773
  0
ARC
  5
42F5
  8
0
 10
508.2686575671934861
 20
-6.0064391667904413
 30
0.0
 40
0.436701888
 50
270.3006148681092213
 51
272.5381267663121889
  0
ARC
  5
42F6
  8
0
 10
508.2669212785938839
 20
-6.0103619021904509
 30
0.0
 40
0.4306530042000001
 50
269.1001102055017213
 51
271.368376613691396
  0
ARC
  5
42F7
  8
0
 10
508.2513881240935802
 20
-5.9984450003904586
 30
0.0
 40
0.4229293604000001
 50
268.8784552554100173
 51
271.1881319680126126
  0
ARC
  5
42F8
  8
0
 10
508.2711446035934841
 20
-6.0268548892904601
 30
0.0
 40
0.4195987677000001
 50
264.6907892164987857
 51
267.0248990084957086
  0
ARC
  5
42F9
  8
0
 10
508.2495664149935237
 20
-6.002128694090457
 30
0.0
 40
0.416837129
 50
267.6285829763098718
 51
269.9725344198971015
  0
ARC
  5
42FA
  8
0
 10
508.2555490244939165
 20
-6.0151081271904712
 30
0.0
 40
0.4123570136
 50
264.3945659754987219
 51
266.7705271925011061
  0
ARC
  5
42FB
  8
0
 10
508.2533842020936845
 20
-6.0180955216904666
 30
0.0
 40
0.4070220085000001
 50
263.0991689957003246
 51
265.5110314252970056
  0
ARC
  5
42FC
  8
0
 10
508.2589244237935873
 20
-6.0297658483904657
 30
0.0
 40
0.4035287084000001
 50
259.7951832760043089
 51
262.2459593296078992
  0
ARC
  5
42FD
  8
0
 10
508.3539258329303721
 20
-5.4963145319451012
 30
0.0
 40
0.9434029074987303
 50
259.1685524180314246
 51
260.2209051933788828
  0
ARC
  5
42FE
  8
0
 10
508.2618190340616025
 20
-6.0422804731420259
 30
0.0
 40
0.3965487167792867
 50
255.0611313064011938
 51
257.5963220768596216
  0
ARC
  5
42FF
  8
0
 10
508.2593754897291092
 20
-6.0434492260381178
 30
0.0
 40
0.3931193348112354
 50
253.6639056927434979
 51
256.2370174844664916
  0
ARC
  5
4300
  8
0
 10
508.2646243966934776
 20
-6.0523650133904692
 30
0.0
 40
0.3917168713
 50
250.1719406370060028
 51
252.8017976124968982
  0
ARC
  5
4301
  8
0
 10
508.2800237478933809
 20
-5.9947621887904443
 30
0.0
 40
0.4626943166000001
 50
275.7806562672888049
 51
277.9069627916052809
  0
ARC
  5
4302
  8
0
 10
508.2788277868746718
 20
-5.9993806026128569
 30
0.0
 40
0.4561116400161036
 50
274.6539343134305113
 51
276.8063168102247005
  0
ARC
  5
4303
  8
0
 10
508.2845519347936261
 20
-6.0180176589904573
 30
0.0
 40
0.4423852063
 50
270.4461362637118782
 51
272.65503043379681
  0
ARC
  5
4304
  8
0
 10
508.2746186285723979
 20
-6.041221975606331
 30
0.0
 40
0.4104205105328779
 50
260.1601664155400044
 51
262.5675465117163867
  0
ARC
  5
4305
  8
0
 10
508.2776211724824975
 20
-6.0535526342551096
 30
0.0
 40
0.4029962397020518
 50
255.4885719904646066
 51
257.9789750238048214
  0
ARC
  5
4306
  8
0
 10
508.2805412051782241
 20
-6.0634738489140689
 30
0.0
 40
0.3977119687258417
 50
250.6558239820901974
 51
253.2391598514078908
  0
ARC
  5
4307
  8
0
 10
508.3040154934935799
 20
-6.0208218396904529
 30
0.0
 40
0.4580527887
 50
272.8294608446881284
 51
274.9669560589031789
  0
ARC
  5
4308
  8
0
 10
508.3279515658712739
 20
-6.0457442579371143
 30
0.0
 40
0.4506760364954459
 50
269.8315412496577892
 51
271.9992774006115042
  0
ARC
  5
4309
  8
0
 10
508.3518459107584135
 20
-6.0693199833754061
 30
0.0
 40
0.4408370347232238
 50
266.7204328414949828
 51
268.937865203958097
  0
ARC
  5
430A
  8
0
 10
508.3757684877393785
 20
-6.0910105163679571
 30
0.0
 40
0.4290608929694641
 50
263.4232632363015227
 51
265.7102047706575831
  0
ARC
  5
430B
  8
0
 10
508.3777072798936842
 20
-6.1189530283904476
 30
0.0
 40
0.401507499
 50
270.6560034564017769
 51
273.0902282154925729
  0
ARC
  5
430C
  8
0
 10
508.3930994337936227
 20
-6.1023848371904403
 30
0.0
 40
0.4223675236
 50
263.2798870538978235
 51
263.3945269425908009
  0
ARC
  5
430D
  8
0
 10
508.4194008174316082
 20
-6.0617559480185133
 30
0.0
 40
0.4662848344801332
 50
258.5235650458661212
 51
260.6535340572759196
  0
ARC
  5
430E
  8
0
 10
508.4481939755413009
 20
-6.037448657165581
 30
0.0
 40
0.4906527206031012
 50
255.6545962794079117
 51
257.7005038237987264
  0
ARC
  5
430F
  8
0
 10
508.4598150739936955
 20
-6.1298885882904681
 30
0.0
 40
0.3946473188
 50
261.1871197090919736
 51
263.6840748748020928
  0
ARC
  5
4310
  8
0
 10
508.4276512878539052
 20
-5.9340724444691348
 30
0.0
 40
0.5941853625720303
 50
261.9568573839296732
 51
265.0140427641089786
  0
ARC
  5
4311
  8
0
 10
508.4271125880935074
 20
-5.8733006336904596
 30
0.0
 40
0.6492421118000001
 50
265.4854873627007805
 51
266.0425031344070135
  0
ARC
  5
4312
  8
0
 10
508.4769795966346919
 20
-6.0127632893089329
 30
0.0
 40
0.5114409605584628
 50
252.9036543186292079
 51
254.8915678272985019
  0
ARC
  5
4313
  8
0
 10
508.4822092639935818
 20
-5.93848376779047
 30
0.0
 40
0.6011736995
 50
234.3416433645041934
 51
236.3172870316950878
  0
ARC
  5
4314
  8
0
 10
508.5061204656997234
 20
-5.986593022685665
 30
0.0
 40
0.5300214554584449
 50
250.2051020987258028
 51
252.1521787547796976
  0
ARC
  5
4315
  8
0
 10
508.5161240830937004
 20
-5.9148337669904532
 30
0.0
 40
0.6251588347000001
 50
232.2172907302455087
 51
234.0155599483917115
  0
ARC
  5
4316
  8
0
 10
508.5000118374708222
 20
-5.9304712233436279
 30
0.0
 40
0.6078317626457447
 50
234.7035440799336925
 51
236.649428058307592
  0
ARC
  5
4317
  8
0
 10
508.5165547227726961
 20
-5.9258504496306141
 30
0.0
 40
0.6076823081351308
 50
235.9884063383256887
 51
237.9061982867634129
  0
ARC
  5
4318
  8
0
 10
508.4979975887175101
 20
-5.9355917292479008
 30
0.0
 40
0.6011956488069145
 50
235.7444304366428867
 51
237.688033429939793
  0
ARC
  5
4319
  8
0
 10
508.514627616777716
 20
-5.9310619189761251
 30
0.0
 40
0.6007878539648231
 50
237.0019513101989901
 51
238.9199718208058982
  0
ARC
  5
431A
  8
0
 10
508.5338331936766849
 20
-5.9060942014721132
 30
0.0
 40
0.6298094110672393
 50
232.3131748519869006
 51
234.2480711784432117
  0
ARC
  5
431B
  8
0
 10
508.5316064190139969
 20
-5.9108893159729501
 30
0.0
 40
0.6230293210177827
 50
233.3372660867630941
 51
235.2678425087283927
  0
ARC
  5
431C
  8
0
 10
508.5329406489057078
 20
-5.92101556429557
 30
0.0
 40
0.6054332764757517
 50
237.1445376976020043
 51
239.0450666653158009
  0
ARC
  5
431D
  8
0
 10
508.5310979312856148
 20
-5.926293233609468
 30
0.0
 40
0.5983028603997697
 50
238.1382701552375067
 51
240.0411656893757026
  0
ARC
  5
431E
  8
0
 10
508.5322736398326811
 20
-5.9428586848754303
 30
0.0
 40
0.5722843632089095
 50
242.8298444793381066
 51
244.7324573986342102
  0
ARC
  5
431F
  8
0
 10
508.5354524297138141
 20
-5.959824321143512
 30
0.0
 40
0.545621268634193
 50
247.4970786614611029
 51
249.4217742406939067
  0
ARC
  5
4320
  8
0
 10
508.5643166388938994
 20
-5.8873728109904544
 30
0.0
 40
0.6399063714
 50
231.5614695781999899
 51
232.7112948940905994
  0
ARC
  5
4321
  8
0
 10
508.54989337292659
 20
-5.9008163626120034
 30
0.0
 40
0.6271653438674551
 50
233.4772692359422024
 51
235.3919468202907979
  0
ARC
  5
4322
  8
0
 10
508.5477245328887079
 20
-5.9057149572653289
 30
0.0
 40
0.6201140871442716
 50
234.4784121000110986
 51
236.3912767982600087
  0
ARC
  5
4323
  8
0
 10
508.563660387326081
 20
-5.900347131209597
 30
0.0
 40
0.6151279646366179
 50
235.5026037566699131
 51
237.4078986225381129
  0
ARC
  5
4324
  8
0
 10
508.5491521592333015
 20
-5.9159452536910608
 30
0.0
 40
0.6011376070040447
 50
238.1932306559853032
 51
240.086163995165407
  0
ARC
  5
4325
  8
0
 10
508.5473931006360999
 20
-5.9212640104022087
 30
0.0
 40
0.5937928564403495
 50
239.1735138429285996
 51
241.0707034087591865
  0
ARC
  5
4326
  8
0
 10
508.5634869473117874
 20
-5.9159733018219898
 30
0.0
 40
0.5872599149878095
 50
240.1229260029251975
 51
242.0233608603076902
  0
ARC
  5
4327
  8
0
 10
508.550023934974206
 20
-5.9322464559674852
 30
0.0
 40
0.5737892235377011
 50
242.8281182362071888
 51
244.7258090766437988
  0
ARC
  5
4328
  8
0
 10
508.548786524227296
 20
-5.9377842231674807
 30
0.0
 40
0.566332935918342
 50
243.8045597193998901
 51
245.7114344258039011
  0
ARC
  5
4329
  8
0
 10
508.5654333092386992
 20
-5.9316084464698209
 30
0.0
 40
0.5592466611710432
 50
244.7217168756706087
 51
246.6384603593577083
  0
ARC
  5
432A
  8
0
 10
508.5798878001936032
 20
-5.8817511755904643
 30
0.0
 40
0.6343486287
 50
231.7775832437374106
 51
233.7151229183940018
  0
ARC
  5
432B
  8
0
 10
508.5657615342777262
 20
-5.8953843340069323
 30
0.0
 40
0.6224127930960611
 50
234.5175716812591986
 51
236.4225645175800139
  0
ARC
  5
432C
  8
0
 10
508.580511002493779
 20
-5.8911440309904579
 30
0.0
 40
0.6139271632
 50
235.4478947308936085
 51
237.3580727925885014
  0
ARC
  5
432D
  8
0
 10
508.5796820563840015
 20
-5.8943171949825599
 30
0.0
 40
0.6086166734187197
 50
236.4261304607711907
 51
238.3316904415821114
  0
ARC
  5
432E
  8
0
 10
508.5651758963119846
 20
-5.9106138848153451
 30
0.0
 40
0.5948272718273917
 50
239.1505188460162969
 51
241.0448728085285097
  0
ARC
  5
432F
  8
0
 10
508.5801400644934915
 20
-5.906541636390469
 30
0.0
 40
0.5847402875
 50
240.0256386248871934
 51
241.9359672462881008
  0
ARC
  5
4330
  8
0
 10
508.579607340145003
 20
-5.9099442122466117
 30
0.0
 40
0.5792193716336743
 50
240.9990320964126056
 51
242.9098332641025877
  0
ARC
  5
4331
  8
0
 10
508.5654894254938085
 20
-5.9284323005904556
 30
0.0
 40
0.5642905028000001
 50
243.741541079803909
 51
245.6562505667062908
  0
ARC
  5
4332
  8
0
 10
508.5968357093935879
 20
-5.8722935169904513
 30
0.0
 40
0.6329029004
 50
232.2487087140212907
 51
233.6302012867975009
  0
ARC
  5
4333
  8
0
 10
508.5960796880938801
 20
-5.8748316698904519
 30
0.0
 40
0.6280967042
 50
232.3142470143029072
 51
234.6093731555141062
  0
ARC
  5
4334
  8
0
 10
508.6107859932938027
 20
-5.869455297190453
 30
0.0
 40
0.6175880804000001
 50
234.1820958542521964
 51
235.4073525390928125
  0
ARC
  5
4335
  8
0
 10
508.5960196807935176
 20
-5.885260972890447
 30
0.0
 40
0.6050913483000001
 50
236.2851554782085941
 51
238.2046970280144933
  0
ARC
  5
4336
  8
0
 10
508.5952073041901826
 20
-5.8884696689104583
 30
0.0
 40
0.5995360122823469
 50
237.2585424874517912
 51
239.175229049184594
  0
ARC
  5
4337
  8
0
 10
508.6113110589939197
 20
-5.8791004773904643
 30
0.0
 40
0.5941844727000002
 50
237.034664647988393
 51
238.9730945835860894
  0
ARC
  5
4338
  8
0
 10
508.6105228939347853
 20
-5.8823153952249054
 30
0.0
 40
0.5884061021499793
 50
238.0083234547697941
 51
239.9455153456266032
  0
ARC
  5
4339
  8
0
 10
508.5957558798933746
 20
-5.9006405921904541
 30
0.0
 40
0.5743695382000001
 50
240.8332775342975935
 51
242.7630260737122114
  0
ARC
  5
433A
  8
0
 10
508.5952621818763077
 20
-5.9040291299324661
 30
0.0
 40
0.5686479555414249
 50
241.8090718671197124
 51
243.7408582304908009
  0
ARC
  5
433B
  8
0
 10
508.5330667062933117
 20
-4.9445793532904343
 30
0.0
 40
0.8661417322998467
 50
167.1631252227795983
 51
172.0629436037355902
  0
ARC
  5
433C
  8
0
 10
508.625427732293474
 20
-5.8742190818904572
 30
0.0
 40
0.5793045215000001
 50
238.6778433338724881
 51
239.6691286699918066
  0
ARC
  5
433D
  8
0
 10
508.6251203649937906
 20
-5.8766784066904432
 30
0.0
 40
0.5741806975000001
 50
239.0325690361999023
 51
240.6482487764004929
  0
LINE
  5
433E
  8
0
 10
508.4163996958935172
 20
-6.5224554467904428
 30
0.0
 11
508.427190801293591
 21
-6.5225449168904648
 31
0.0
  0
LINE
  5
433F
  8
0
 10
508.3445136359936214
 20
-6.3890334368904549
 30
0.0
 11
508.343674252393896
 21
-6.3885801524904462
 31
0.0
  0
LINE
  5
4340
  8
0
 10
508.3445136359936214
 20
-6.4240553037904506
 30
0.0
 11
508.343674252393896
 21
-6.4236577407904436
 31
0.0
  0
LINE
  5
4341
  8
0
 10
508.3445136359936214
 20
-6.4534050223904531
 30
0.0
 11
508.343674252393896
 21
-6.4530575562904442
 31
0.0
  0
LINE
  5
4342
  8
0
 10
508.3445136359936214
 20
-6.477455528290446
 30
0.0
 11
508.343674252393896
 21
-6.477154547290465
 31
0.0
  0
LINE
  5
4343
  8
0
 10
508.3445136359936214
 20
-6.4964025590904528
 30
0.0
 11
508.343674252393896
 21
-6.4961459530904602
 31
0.0
  0
LINE
  5
4344
  8
0
 10
508.3445136359936214
 20
-6.5102943595904579
 30
0.0
 11
508.343674252393896
 21
-6.5100812738904468
 31
0.0
  0
LINE
  5
4345
  8
0
 10
508.3445136359936214
 20
-6.519038609690452
 30
0.0
 11
508.343674252393896
 21
-6.5188693832904478
 31
0.0
  0
LINE
  5
4346
  8
0
 10
508.343674252393896
 20
-6.3771497436904641
 30
0.0
 11
508.3445136359936214
 21
-6.3769251724904432
 31
0.0
  0
LINE
  5
4347
  8
0
 10
508.343674252393896
 20
-6.4139938453904479
 30
0.0
 11
508.3445136359936214
 21
-6.413818058190456
 31
0.0
  0
LINE
  5
4348
  8
0
 10
508.343674252393896
 20
-6.4450086301904701
 30
0.0
 11
508.3445136359936214
 21
-6.4448783459904444
 31
0.0
  0
LINE
  5
4349
  8
0
 10
508.343674252393896
 20
-6.4706312313904544
 30
0.0
 11
508.3445136359936214
 21
-6.470544806490464
 31
0.0
  0
LINE
  5
434A
  8
0
 10
508.343674252393896
 20
-6.4911066211904522
 30
0.0
 11
508.3445136359936214
 21
-6.4910637165904443
 31
0.0
  0
LINE
  5
434B
  8
0
 10
508.343674252393896
 20
-6.5168396455904629
 30
0.0
 11
508.3445136359936214
 21
-6.5168876009904562
 31
0.0
  0
ARC
  5
434C
  8
0
 10
507.6314610392299187
 20
-4.7190810600597759
 30
0.0
 40
0.0330778844542238
 50
185.6985943249950992
 51
268.243919098983099
  0
ARC
  5
434D
  8
0
 10
507.6334134058477048
 20
-3.8355889531331382
 30
0.0
 40
0.0350264977578776
 50
95.156725241258215
 51
174.5263058183454916
  0
ARC
  5
434E
  8
0
 10
507.8183085842799755
 20
-3.939291233838671
 30
0.0
 40
0.0352972577400487
 50
187.8669839568946998
 51
264.5377896699855
  0
ARC
  5
434F
  8
0
 10
508.4271908013437269
 20
-4.3195414401904459
 30
0.0
 40
0.131898013416208
 50
90.0
 51
270.0
  0
ARC
  5
4350
  8
0
 10
508.5040084864892833
 20
3.0798085879189339
 30
0.0
 40
7.1846625057610076
 50
263.1098254126010261
 51
269.3873876456775065
  0
ARC
  5
4351
  8
0
 10
507.6494309270453869
 20
-4.0220889089854932
 30
0.0
 40
0.0317377499217486
 50
180.000431102882402
 51
256.6245543799263942
  0
LINE
  5
4352
  8
0
 10
507.6176931771245222
 20
-4.0220891477855476
 30
0.0
 11
507.7833435266937272
 21
-3.9441225019904471
 31
0.0
  0
ARC
  5
4353
  8
0
 10
508.6328001118765769
 20
-72.8757280854096621
 30
0.0
 40
67.2987477523766557
 50
90.1750487853340985
 51
90.6692886469101893
  0
ARC
  5
4354
  8
0
 10
508.6586858006866123
 20
24.3811828949761811
 30
0.0
 40
30.7372174392670487
 50
268.4863083702152267
 51
269.5684771446403829
  0
ARC
  5
4355
  8
0
 10
501.0940270912777237
 20
-16.8797356050474612
 30
0.0
 40
13.1198765079359596
 50
59.1765732244320191
 51
59.8759188037379815
  0
ARC
  5
4356
  8
0
 10
507.8278341495350219
 20
-5.3931159824662682
 30
0.0
 40
0.2037728334977906
 50
181.3858351421324926
 51
222.8976408665016038
  0
ARC
  5
4357
  8
0
 10
517.3133299792758635
 20
-4.5553090131820664
 30
0.0
 40
9.7257891634891251
 50
182.7260082576447076
 51
184.9708869541437082
  0
ARC
  5
4358
  8
0
 10
508.464205352405088
 20
-15.72585469262782
 30
0.0
 40
9.3578064144999562
 50
90.226632502597198
 51
91.7183887577945569
  0
ARC
  5
4359
  8
0
 10
508.0606260566730725
 20
-1.500497236296864
 30
0.0
 40
4.8733109923950328
 50
268.9000881576142774
 51
271.44587518316348
  0
ARC
  5
435A
  8
0
 10
507.9208688568085108
 20
-7.4244092110107811
 30
0.0
 40
1.052513813241539
 50
87.4836759942607642
 51
92.7540813045390138
  0
ARC
  5
435B
  8
0
 10
507.8718533725643738
 20
-6.3808411648442114
 30
0.0
 40
0.007885334418963
 50
101.3885180305394016
 51
145.5602584262933021
  0
ARC
  5
435C
  8
0
 10
507.8845281668066036
 20
-6.362344766774922
 30
0.0
 40
0.0237661755363474
 50
216.2014773701527872
 51
248.4340940256041108
  0
ARC
  5
435D
  8
0
 10
508.144909382895321
 20
-5.8044623166320237
 30
0.0
 40
0.6393797095931085
 50
245.1083753497715065
 51
251.9112818693998861
  0
ARC
  5
435E
  8
0
 10
508.1496816355681858
 20
-6.4076961300848696
 30
0.0
 40
0.0768314415421962
 50
180.9197317429714928
 51
220.7008275048694941
  0
ARC
  5
435F
  8
0
 10
508.201959109125994
 20
-6.3647553799380301
 30
0.0
 40
0.1444745289113213
 50
220.0915983126681112
 51
230.82863492041011
  0
ARC
  5
4360
  8
0
 10
508.2555851621344232
 20
-6.2879399180907258
 30
0.0
 40
0.2380003398507705
 50
232.5009722738442974
 51
257.779925718545428
  0
ARC
  5
4361
  8
0
 10
508.4259006987410885
 20
-5.5978201595239323
 30
0.0
 40
0.9487523724003036
 50
256.5490240097283845
 51
270.077910168327378
  0
ARC
  5
4362
  8
0
 10
508.0196247136283887
 20
-6.2943947281122776
 30
0.0
 40
0.138749578736811
 50
214.0190761386054135
 51
238.1412046757380949
  0
ARC
  5
4363
  8
0
 10
508.2102574094507759
 20
-5.9584936749009483
 30
0.0
 40
0.5248943327392293
 50
239.8206803506868994
 51
258.571235965826304
  0
ARC
  5
4364
  8
0
 10
508.146570822115109
 20
-6.207122862417461
 30
0.0
 40
0.2268445442051001
 50
227.1116569062899941
 51
251.3998350464607086
  0
ARC
  5
4365
  8
0
 10
508.1366108174881902
 20
-6.4203362263816341
 30
0.0
 40
0.0647631882496702
 50
133.9489060458492986
 51
169.8555007288017009
  0
ARC
  5
4366
  8
0
 10
508.4414773152554972
 20
-5.2717652104154791
 30
0.0
 40
1.2688961001759871
 50
265.0193635234888916
 51
269.3548926140813933
  0
ARC
  5
4367
  8
0
 10
508.3780983774103106
 20
-5.9504644131798416
 30
0.0
 40
0.5872722306571002
 50
249.8471862917598969
 51
265.4306511595387974
  0
ARC
  5
4368
  8
0
 10
508.2103507890789729
 20
-6.3919233952900054
 30
0.0
 40
0.115173294574344
 50
214.7088599864763978
 51
252.5264934842074069
  0
ARC
  5
4369
  8
0
 10
508.1440619686147784
 20
-6.4431132527379571
 30
0.0
 40
0.0318290017857832
 50
150.1092019436935061
 51
206.8798916099140968
  0
ARC
  5
436A
  8
0
 10
508.2070061786405972
 20
-6.4927349345416276
 30
0.0
 40
0.1117383272464886
 50
111.2526934353755053
 51
144.1231959167506034
  0
ARC
  5
436B
  8
0
 10
508.3179616929839995
 20
-6.7314850745025838
 30
0.0
 40
0.3748502968000019
 50
106.1384256822044989
 51
113.8316703691988039
  0
ARC
  5
436C
  8
0
 10
508.4225626799454858
 20
-5.9606867384423463
 30
0.0
 40
0.5671224060081086
 50
247.9005938773267133
 51
262.0896816181120244
  0
ARC
  5
436D
  8
0
 10
508.2760666631373283
 20
-6.2783965279874367
 30
0.0
 40
0.2182425547392707
 50
223.004926973495202
 51
252.159180987117594
  0
LINE
  5
436E
  8
0
 10
508.3760096989738031
 20
-6.3830482038786993
 30
0.0
 11
508.3885608461935135
 21
-6.3859045890034709
 31
0.0
  0
LINE
  5
436F
  8
0
 10
508.3885608461935135
 20
-6.3859045890034709
 30
0.0
 11
508.3885608461325774
 21
-6.3942058250532323
 31
0.0
  0
LINE
  5
4370
  8
0
 10
508.3885608461325774
 20
-6.3942058250532323
 30
0.0
 11
508.3760096989565227
 21
-6.3974628280326424
 31
0.0
  0
LINE
  5
4371
  8
0
 10
508.382304207507616
 20
-6.3826980415886094
 30
0.0
 11
508.3993519516428137
 21
-6.3865856021301664
 31
0.0
  0
LINE
  5
4372
  8
0
 10
508.3993519516428137
 20
-6.3865856021301664
 30
0.0
 11
508.4163996958935172
 21
-6.382698041590456
 31
0.0
  0
LINE
  5
4373
  8
0
 10
508.3823042074935188
 20
-6.3755117134904511
 30
0.0
 11
508.3993519516469064
 21
-6.3722115024872021
 31
0.0
  0
LINE
  5
4374
  8
0
 10
508.3993519516469064
 20
-6.3722115024872021
 30
0.0
 11
508.4163996958916982
 21
-6.375511713462485
 31
0.0
  0
LINE
  5
4375
  8
0
 10
508.376009698993812
 20
-6.3751993027991301
 30
0.0
 11
508.3885608461935135
 21
-6.3727638812904646
 31
0.0
  0
LINE
  5
4376
  8
0
 10
508.4101430571934088
 20
-6.3682044448629798
 30
0.0
 11
508.4101430571934088
 21
-6.3727638812904646
 31
0.0
  0
LINE
  5
4377
  8
0
 10
508.4101430571934088
 20
-6.3727638812904646
 30
0.0
 11
508.427190801293591
 21
-6.3760975359947434
 31
0.0
  0
LINE
  5
4378
  8
0
 10
508.4271908012527206
 20
-6.3820508226889929
 30
0.0
 11
508.4101430571934088
 21
-6.3859045889904538
 31
0.0
  0
LINE
  5
4379
  8
0
 10
508.4101430571934088
 20
-6.3859045889904538
 30
0.0
 11
508.4101430571934088
 21
-6.3942058249904479
 31
0.0
  0
LINE
  5
437A
  8
0
 10
508.4101430571934088
 20
-6.3942058249904479
 30
0.0
 11
508.4271908012649988
 21
-6.3986562582648201
 31
0.0
  0
LINE
  5
437B
  8
0
 10
508.3993519516313881
 20
-6.3934624430318632
 30
0.0
 11
508.3823042074935188
 21
-6.3978783623233229
 31
0.0
  0
LINE
  5
437C
  8
0
 10
508.3823042074935188
 20
-6.3978783623233229
 30
0.0
 11
508.3823042075107992
 21
-6.4073183086464081
 31
0.0
  0
LINE
  5
437D
  8
0
 10
508.3823042075107992
 20
-6.4073183086464081
 30
0.0
 11
508.3993519516936885
 21
-6.4123469824904449
 31
0.0
  0
LINE
  5
437E
  8
0
 10
508.3993519516936885
 20
-6.4123469824904449
 30
0.0
 11
508.4163996958520784
 21
-6.4073183086535126
 31
0.0
  0
LINE
  5
437F
  8
0
 10
508.4163996958520784
 20
-6.4073183086535126
 30
0.0
 11
508.4163996958935172
 21
-6.3978783623233229
 31
0.0
  0
LINE
  5
4380
  8
0
 10
508.4163996958935172
 20
-6.3978783623233229
 30
0.0
 11
508.3993519516313881
 21
-6.3934624430318632
 31
0.0
  0
LINE
  5
4381
  8
0
 10
508.3993519516554898
 20
-6.421141269172975
 30
0.0
 11
508.382304207538084
 21
-6.4267335813181301
 31
0.0
  0
LINE
  5
4382
  8
0
 10
508.382304207538084
 20
-6.4267335813181301
 30
0.0
 11
508.3823042074492946
 21
-6.4385786644541252
 31
0.0
  0
LINE
  5
4383
  8
0
 10
508.3823042074492946
 20
-6.4385786644541252
 30
0.0
 11
508.3993519516936885
 21
-6.4448404104228389
 31
0.0
  0
LINE
  5
4384
  8
0
 10
508.3993519516936885
 20
-6.4448404104228389
 30
0.0
 11
508.4163996958142775
 21
-6.4385786644627077
 31
0.0
  0
LINE
  5
4385
  8
0
 10
508.4163996958142775
 20
-6.4385786644627077
 30
0.0
 11
508.4163996958935172
 21
-6.4267335813329094
 31
0.0
  0
LINE
  5
4386
  8
0
 10
508.4163996958935172
 20
-6.4267335813329094
 30
0.0
 11
508.3993519477983227
 21
-6.4211412704382527
 31
0.0
  0
LINE
  5
4387
  8
0
 10
508.4271908013437269
 20
-6.406476364816255
 30
0.0
 11
508.4101430571934088
 21
-6.4114693961904532
 31
0.0
  0
LINE
  5
4388
  8
0
 10
508.4101430571934088
 20
-6.4114693961904532
 30
0.0
 11
508.4101430571934088
 21
-6.4220853839904608
 31
0.0
  0
LINE
  5
4389
  8
0
 10
508.4101430571934088
 20
-6.4220853839904608
 30
0.0
 11
508.427190801293591
 21
-6.427714941990442
 31
0.0
  0
LINE
  5
438A
  8
0
 10
508.427190801293591
 20
-6.4375273419904584
 30
0.0
 11
508.4101430571934088
 21
-6.4437496620363648
 31
0.0
  0
LINE
  5
438B
  8
0
 10
508.4101430571934088
 20
-6.4437496620363648
 30
0.0
 11
508.4101430571934088
 21
-6.456896006290461
 31
0.0
  0
LINE
  5
438C
  8
0
 10
508.4101430571934088
 20
-6.456896006290461
 30
0.0
 11
508.427190801293591
 21
-6.4638320128458107
 31
0.0
  0
LINE
  5
438D
  8
0
 10
508.3993519516300239
 20
-6.455730680481194
 30
0.0
 11
508.3823042074935188
 21
-6.462624350099671
 31
0.0
  0
LINE
  5
438E
  8
0
 10
508.3823042074935188
 20
-6.462624350099671
 30
0.0
 11
508.3823042075171088
 21
-6.4771683717951847
 31
0.0
  0
LINE
  5
438F
  8
0
 10
508.3823042075171088
 20
-6.4771683717951847
 30
0.0
 11
508.3993519516936885
 21
-6.4848346801904571
 31
0.0
  0
LINE
  5
4390
  8
0
 10
508.3993519516936885
 20
-6.4848346801904571
 30
0.0
 11
508.4163996958935172
 21
-6.4771683717904667
 31
0.0
  0
LINE
  5
4391
  8
0
 10
508.4163996958935172
 20
-6.4771683717904667
 30
0.0
 11
508.4163996958715757
 21
-6.4626243500906053
 31
0.0
  0
LINE
  5
4392
  8
0
 10
508.4163996958715757
 20
-6.4626243500906053
 30
0.0
 11
508.3993519516300239
 21
-6.4557306804812216
 31
0.0
  0
LINE
  5
4393
  8
0
 10
508.3993519516300239
 20
-6.4557306804812216
 30
0.0
 11
508.3993519516718038
 21
-6.4848346801497012
 31
0.0
  0
LINE
  5
4394
  8
0
 10
508.3760096989769863
 20
-6.4778638928608219
 30
0.0
 11
508.3885608461935135
 21
-6.4835000792904491
 31
0.0
  0
LINE
  5
4395
  8
0
 10
508.3885608461935135
 20
-6.4835000792904491
 30
0.0
 11
508.3885608461935135
 21
-6.4995702973904459
 31
0.0
  0
LINE
  5
4396
  8
0
 10
508.3885608461935135
 20
-6.4995702973904459
 30
0.0
 11
508.376009698993812
 21
-6.5057780592286161
 31
0.0
  0
LINE
  5
4397
  8
0
 10
508.3823042075799208
 20
-6.5065668968941832
 30
0.0
 11
508.399351951649578
 21
-6.4981467581926022
 31
0.0
  0
LINE
  5
4398
  8
0
 10
508.399351951649578
 20
-6.4981467581926022
 30
0.0
 11
508.4163996958935172
 21
-6.506566896937497
 31
0.0
  0
LINE
  5
4399
  8
0
 10
508.427190801293591
 20
-6.5080418617573894
 30
0.0
 11
508.4101430571934088
 21
-6.4995702974173621
 31
0.0
  0
LINE
  5
439A
  8
0
 10
508.4101430571934088
 20
-6.4995702974173621
 30
0.0
 11
508.4101430571352012
 21
-6.4835000793120487
 31
0.0
  0
LINE
  5
439B
  8
0
 10
508.4101430571352012
 20
-6.4835000793120487
 30
0.0
 11
508.427190801293591
 21
-6.4758799851270199
 31
0.0
  0
LINE
  5
439C
  8
0
 10
508.3760096989433919
 20
-6.461978468680682
 30
0.0
 11
508.3885608461944798
 21
-6.4568960063230332
 31
0.0
  0
LINE
  5
439D
  8
0
 10
508.3885608461944798
 20
-6.4568960063230332
 30
0.0
 11
508.3885608462063033
 21
-6.4437496620782868
 31
0.0
  0
LINE
  5
439E
  8
0
 10
508.3885608462063033
 20
-6.4437496620782868
 30
0.0
 11
508.376009698993812
 21
-6.4391463429963931
 31
0.0
  0
LINE
  5
439F
  8
0
 10
508.376009698993812
 20
-6.426208922613367
 30
0.0
 11
508.3885608462126129
 21
-6.4220853840406544
 31
0.0
  0
LINE
  5
43A0
  8
0
 10
508.3885608462126129
 20
-6.4220853840406544
 30
0.0
 11
508.3885608461935135
 21
-6.4114693961904532
 31
0.0
  0
LINE
  5
43A1
  8
0
 10
508.3885608461935135
 20
-6.4114693961904532
 30
0.0
 11
508.376009698993812
 21
-6.4077732253422228
 31
0.0
  0
LINE
  5
43A2
  8
0
 10
508.3993519516936885
 20
-6.4448404104228389
 30
0.0
 11
508.3993519517237019
 21
-6.4211412691755623
 31
0.0
  0
LINE
  5
43A3
  8
0
 10
508.3993519517096047
 20
-6.4123469824464774
 30
0.0
 11
508.3993519516936885
 21
-6.3934624430480058
 31
0.0
  0
LINE
  5
43A4
  8
0
 10
508.2987876585182789
 20
-6.4620885298548076
 30
0.0
 11
508.3158354026879806
 21
-6.4612849403933099
 31
0.0
  0
LINE
  5
43A5
  8
0
 10
508.3158354026879806
 20
-6.4612849403933099
 30
0.0
 11
508.3328831469113993
 21
-6.4683576260968874
 31
0.0
  0
LINE
  5
43A6
  8
0
 10
508.3328831469113993
 20
-6.4683576260968874
 30
0.0
 11
508.3328831468867861
 21
-6.4762371442572242
 31
0.0
  0
LINE
  5
43A7
  8
0
 10
508.3328831468867861
 20
-6.4762371442572242
 30
0.0
 11
508.3158354026894017
 21
-6.4770644248052331
 31
0.0
  0
LINE
  5
43A8
  8
0
 10
508.3158354026894017
 20
-6.4770644248052331
 30
0.0
 11
508.2987876585938238
 21
-6.4699886577642172
 31
0.0
  0
LINE
  5
43A9
  8
0
 10
508.2987876585938238
 20
-6.4699886577642172
 30
0.0
 11
508.2987876585938238
 21
-6.4620885297904609
 31
0.0
  0
LINE
  5
43AA
  8
0
 10
508.3158354036211222
 20
-6.4612849407803568
 30
0.0
 11
508.3158354026933807
 21
-6.477064424790453
 31
0.0
  0
LINE
  5
43AB
  8
0
 10
508.3158354026707002
 20
-6.5106438144486543
 30
0.0
 11
508.2987876585938238
 21
-6.5086894964623223
 31
0.0
  0
LINE
  5
43AC
  8
0
 10
508.2987876585938238
 20
-6.5086894964623223
 30
0.0
 11
508.2987876585938238
 21
-6.5110857894904628
 31
0.0
  0
LINE
  5
43AD
  8
0
 10
508.2987876585938238
 20
-6.5110857894904628
 30
0.0
 11
508.3158354026933807
 21
-6.5154796629649327
 31
0.0
  0
LINE
  5
43AE
  8
0
 10
508.3158354026933807
 20
-6.5154796629649327
 30
0.0
 11
508.332883146893721
 21
-6.5174554850338762
 31
0.0
  0
LINE
  5
43AF
  8
0
 10
508.332883146893721
 20
-6.5174554850338762
 30
0.0
 11
508.3328831468396061
 21
-6.5150161817529391
 31
0.0
  0
LINE
  5
43B0
  8
0
 10
508.3328831468396061
 20
-6.5150161817529391
 30
0.0
 11
508.3158354026703023
 21
-6.5106438144486543
 31
0.0
  0
LINE
  5
43B1
  8
0
 10
508.3158354026703023
 20
-6.5106438144486543
 30
0.0
 11
508.3158354031335762
 21
-6.5154796630782794
 31
0.0
  0
LINE
  5
43B2
  8
0
 10
508.3158354026933807
 20
-6.5078616743493551
 30
0.0
 11
508.2987876585938238
 21
-6.5025822520904599
 31
0.0
  0
LINE
  5
43B3
  8
0
 10
508.2987876585938238
 20
-6.5025822520904599
 30
0.0
 11
508.2991148295270136
 21
-6.4983417231493643
 31
0.0
  0
LINE
  5
43B4
  8
0
 10
508.2991148295270136
 20
-6.4983417231493643
 30
0.0
 11
508.3158354026933807
 21
-6.4993091119904678
 31
0.0
  0
LINE
  5
43B5
  8
0
 10
508.3158354026933807
 20
-6.4993091119904678
 30
0.0
 11
508.332883146893721
 21
-6.5045648431904493
 31
0.0
  0
LINE
  5
43B6
  8
0
 10
508.332883146893721
 20
-6.5045648431904493
 30
0.0
 11
508.3327166285018848
 21
-6.5088449014155261
 31
0.0
  0
LINE
  5
43B7
  8
0
 10
508.3327166285018848
 20
-6.5088449014155261
 30
0.0
 11
508.3158354026933807
 21
-6.507861674390452
 31
0.0
  0
LINE
  5
43B8
  8
0
 10
508.3158354026933807
 20
-6.507861674390452
 30
0.0
 11
508.3158354011910092
 21
-6.4993091119035258
 31
0.0
  0
LINE
  5
43B9
  8
0
 10
508.2709488088860894
 20
-6.4975270109521244
 30
0.0
 11
508.287996553093592
 21
-6.4998394968147268
 31
0.0
  0
LINE
  5
43BA
  8
0
 10
508.287996553093592
 20
-6.4998394968147268
 30
0.0
 11
508.3050442971937173
 21
-6.5054610363904688
 31
0.0
  0
LINE
  5
43BB
  8
0
 10
508.3050442971937173
 20
-6.5054610363904688
 30
0.0
 11
508.3050442971937173
 21
-6.5088087622904398
 31
0.0
  0
LINE
  5
43BC
  8
0
 10
508.3050442971937173
 20
-6.5088087622904398
 30
0.0
 11
508.2879965530390223
 21
-6.5064947283414627
 31
0.0
  0
LINE
  5
43BD
  8
0
 10
508.2879965530390223
 20
-6.5064947283414627
 30
0.0
 11
508.2709488088938201
 21
-6.5008341215904561
 31
0.0
  0
LINE
  5
43BE
  8
0
 10
508.2709488088938201
 20
-6.5008341215904561
 30
0.0
 11
508.2709488088938201
 21
-6.4975270109904653
 31
0.0
  0
LINE
  5
43BF
  8
0
 10
508.2879965531644757
 20
-6.5064947283610737
 30
0.0
 11
508.287996553093592
 21
-6.4998394967852544
 31
0.0
  0
LINE
  5
43C0
  8
0
 10
508.2601577034758975
 20
-6.5022708754676417
 30
0.0
 11
508.2772054475938148
 21
-6.505991663790466
 31
0.0
  0
LINE
  5
43C1
  8
0
 10
508.2772054475938148
 20
-6.505991663790466
 30
0.0
 11
508.2772054475693153
 21
-6.5036305032609478
 31
0.0
  0
LINE
  5
43C2
  8
0
 10
508.2772054475693153
 20
-6.5036305032609478
 30
0.0
 11
508.2601577034004094
 21
-6.4976171886101186
 31
0.0
  0
LINE
  5
43C3
  8
0
 10
508.2601577034004094
 20
-6.4976171886101186
 30
0.0
 11
508.243109959293804
 21
-6.4939060639443058
 31
0.0
  0
LINE
  5
43C4
  8
0
 10
508.243109959293804
 20
-6.4939060639443058
 30
0.0
 11
508.243109959293804
 21
-6.4961977700468463
 31
0.0
  0
LINE
  5
43C5
  8
0
 10
508.243109959293804
 20
-6.4961977700468463
 30
0.0
 11
508.2601577033935882
 21
-6.502270875439959
 31
0.0
  0
LINE
  5
43C6
  8
0
 10
508.2601577033935882
 20
-6.502270875439959
 30
0.0
 11
508.2601576989798104
 21
-6.4976171876478741
 31
0.0
  0
LINE
  5
43C7
  8
0
 10
508.232318853735876
 20
-6.4905923731398314
 30
0.0
 11
508.2493665978828972
 21
-6.4946961903204086
 31
0.0
  0
LINE
  5
43C8
  8
0
 10
508.2493665978828972
 20
-6.4946961903204086
 30
0.0
 11
508.2493665978934132
 21
-6.4914211691904571
 31
0.0
  0
LINE
  5
43C9
  8
0
 10
508.2493665978934132
 20
-6.4914211691904571
 30
0.0
 11
508.2323188537936858
 21
-6.4841035518904544
 31
0.0
  0
LINE
  5
43CA
  8
0
 10
508.2323188537936858
 20
-6.4841035518904544
 30
0.0
 11
508.215271109593516
 21
-6.479979543739117
 31
0.0
  0
LINE
  5
43CB
  8
0
 10
508.215271109593516
 20
-6.479979543739117
 30
0.0
 11
508.2152711095694144
 21
-6.4831923850508106
 31
0.0
  0
LINE
  5
43CC
  8
0
 10
508.2152711095694144
 20
-6.4831923850508106
 30
0.0
 11
508.232318854306186
 21
-6.4905923732770789
 31
0.0
  0
LINE
  5
43CD
  8
0
 10
508.232318854306186
 20
-6.4905923732770789
 30
0.0
 11
508.2323188537936858
 21
-6.484103551949401
 31
0.0
  0
LINE
  5
43CE
  8
0
 10
508.2044800040619066
 20
-6.4761815795296487
 30
0.0
 11
508.2215277482935107
 21
-6.4807119998904428
 31
0.0
  0
LINE
  5
43CF
  8
0
 10
508.2215277482935107
 20
-6.4807119998904428
 30
0.0
 11
508.2215277482998772
 21
-6.4765218527760711
 31
0.0
  0
LINE
  5
43D0
  8
0
 10
508.2215277482998772
 20
-6.4765218527760711
 30
0.0
 11
508.2044800040778796
 21
-6.4678496109725048
 31
0.0
  0
LINE
  5
43D1
  8
0
 10
508.2044800040778796
 20
-6.4678496109725048
 30
0.0
 11
508.1874322599854281
 21
-6.4632638520885708
 31
0.0
  0
LINE
  5
43D2
  8
0
 10
508.1874322599854281
 20
-6.4632638520885708
 30
0.0
 11
508.187432259893626
 21
-6.4674047443904481
 31
0.0
  0
LINE
  5
43D3
  8
0
 10
508.187432259893626
 20
-6.4674047443904481
 30
0.0
 11
508.2044800041518897
 21
-6.4761815795557398
 31
0.0
  0
LINE
  5
43D4
  8
0
 10
508.2044800041518897
 20
-6.4761815795557398
 30
0.0
 11
508.2044800039827805
 21
-6.4678496109469261
 31
0.0
  0
LINE
  5
43D5
  8
0
 10
508.1766411544514881
 20
-6.4589445236628906
 30
0.0
 11
508.1936888986322174
 21
-6.4639547518945033
 31
0.0
  0
LINE
  5
43D6
  8
0
 10
508.1936888986322174
 20
-6.4639547518945033
 30
0.0
 11
508.1936888985936207
 21
-6.4588340099589612
 31
0.0
  0
LINE
  5
43D7
  8
0
 10
508.1936888985936207
 20
-6.4588340099589612
 30
0.0
 11
508.1766411544938933
 21
-6.4487316912440606
 31
0.0
  0
LINE
  5
43D8
  8
0
 10
508.1766411544938933
 20
-6.4487316912440606
 30
0.0
 11
508.1595934102821843
 21
-6.4436233402984993
 31
0.0
  0
LINE
  5
43D9
  8
0
 10
508.1595934102821843
 20
-6.4436233402984993
 30
0.0
 11
508.1595934103249874
 21
-6.4487147739963548
 31
0.0
  0
LINE
  5
43DA
  8
0
 10
508.1595934103249874
 20
-6.4487147739963548
 30
0.0
 11
508.1766411544510902
 21
-6.4589445236628906
 31
0.0
  0
LINE
  5
43DB
  8
0
 10
508.1766411544510902
 20
-6.4589445236628906
 30
0.0
 11
508.1766411544938933
 21
-6.4487316913278478
 31
0.0
  0
LINE
  5
43DC
  8
0
 10
508.1488023048480045
 20
-6.451079511786074
 30
0.0
 11
508.1658500489937182
 21
-6.4577124678258118
 31
0.0
  0
LINE
  5
43DD
  8
0
 10
508.1658500489937182
 20
-6.4577124678258118
 30
0.0
 11
508.1658500489937182
 21
-6.4536090914640152
 31
0.0
  0
LINE
  5
43DE
  8
0
 10
508.1658500489937182
 20
-6.4536090914640152
 30
0.0
 11
508.1488023047934917
 21
-6.4429423487280788
 31
0.0
  0
LINE
  5
43DF
  8
0
 10
508.1488023047934917
 20
-6.4429423487280788
 30
0.0
 11
508.1317545606228236
 21
-6.4361966411825602
 31
0.0
  0
LINE
  5
43E0
  8
0
 10
508.1317545606228236
 20
-6.4361966411825602
 30
0.0
 11
508.1317545605937198
 21
-6.4402285528904581
 31
0.0
  0
LINE
  5
43E1
  8
0
 10
508.1317545605937198
 20
-6.4402285528904581
 30
0.0
 11
508.1488023047934917
 21
-6.4510795117527362
 31
0.0
  0
LINE
  5
43E2
  8
0
 10
508.1488023047934917
 20
-6.4510795117527362
 30
0.0
 11
508.1488023047934917
 21
-6.4429423487280788
 31
0.0
  0
LINE
  5
43E3
  8
0
 10
508.2044800041128951
 20
-6.4636008031299053
 30
0.0
 11
508.1874322599367133
 21
-6.4539105894419579
 31
0.0
  0
LINE
  5
43E4
  8
0
 10
508.1874322599367133
 20
-6.4539105894419579
 30
0.0
 11
508.1874322599780953
 21
-6.4478275775784351
 31
0.0
  0
LINE
  5
43E5
  8
0
 10
508.1874322599780953
 20
-6.4478275775784351
 30
0.0
 11
508.2044800041651911
 21
-6.4514347796870739
 31
0.0
  0
LINE
  5
43E6
  8
0
 10
508.2044800041651911
 20
-6.4514347796870739
 30
0.0
 11
508.2215277482831084
 21
-6.4610410242997007
 31
0.0
  0
LINE
  5
43E7
  8
0
 10
508.2215277482831084
 20
-6.4610410242997007
 30
0.0
 11
508.2215277483181239
 21
-6.4671240359458269
 31
0.0
  0
LINE
  5
43E8
  8
0
 10
508.2215277483181239
 20
-6.4671240359458269
 30
0.0
 11
508.2044800040937957
 21
-6.4636008030761314
 31
0.0
  0
LINE
  5
43E9
  8
0
 10
508.2044800040937957
 20
-6.4636008030761314
 30
0.0
 11
508.2044800040937957
 21
-6.4514347795787312
 31
0.0
  0
LINE
  5
43EA
  8
0
 10
508.2323188537432088
 20
-6.4652891631066867
 30
0.0
 11
508.2493665978934132
 21
-6.4674230939904449
 31
0.0
  0
LINE
  5
43EB
  8
0
 10
508.2493665978934132
 20
-6.4674230939904449
 30
0.0
 11
508.2493665979635011
 21
-6.4604133084736173
 31
0.0
  0
LINE
  5
43EC
  8
0
 10
508.2493665979635011
 20
-6.4604133084736173
 30
0.0
 11
508.2323188537791907
 21
-6.4512498070145323
 31
0.0
  0
LINE
  5
43ED
  8
0
 10
508.2323188537791907
 20
-6.4512498070145323
 30
0.0
 11
508.215271109593516
 21
-6.4490461302904674
 31
0.0
  0
LINE
  5
43EE
  8
0
 10
508.215271109593516
 20
-6.4490461302904674
 30
0.0
 11
508.2152711095544078
 21
-6.4560760222893503
 31
0.0
  0
LINE
  5
43EF
  8
0
 10
508.2152711095544078
 20
-6.4560760222893503
 30
0.0
 11
508.2323188535768281
 21
-6.4652891630858544
 31
0.0
  0
LINE
  5
43F0
  8
0
 10
508.2323188535768281
 20
-6.4652891630858544
 30
0.0
 11
508.2323188537936858
 21
-6.4512498070163788
 31
0.0
  0
LINE
  5
43F1
  8
0
 10
508.2323188537936858
 20
-6.4703284950803921
 30
0.0
 11
508.2152711096343864
 21
-6.4671983658961363
 31
0.0
  0
LINE
  5
43F2
  8
0
 10
508.2152711096343864
 20
-6.4671983658961363
 30
0.0
 11
508.215271109593516
 21
-6.472334497232791
 31
0.0
  0
LINE
  5
43F3
  8
0
 10
508.215271109593516
 20
-6.472334497232791
 30
0.0
 11
508.2323188537478131
 21
-6.4806211857852514
 31
0.0
  0
LINE
  5
43F4
  8
0
 10
508.2323188537478131
 20
-6.4806211857852514
 30
0.0
 11
508.2493665979594084
 21
-6.4837016754630641
 31
0.0
  0
LINE
  5
43F5
  8
0
 10
508.2493665979594084
 20
-6.4837016754630641
 30
0.0
 11
508.2493665978934132
 21
-6.4785454374801343
 31
0.0
  0
LINE
  5
43F6
  8
0
 10
508.2493665978934132
 20
-6.4785454374801343
 30
0.0
 11
508.2323188507555187
 21
-6.4703284945225876
 31
0.0
  0
LINE
  5
43F7
  8
0
 10
508.2323188507555187
 20
-6.4703284945225876
 30
0.0
 11
508.2323188564099041
 21
-6.4806211862662311
 31
0.0
  0
LINE
  5
43F8
  8
0
 10
508.2601577034326965
 20
-6.4821486692091792
 30
0.0
 11
508.2772054476129142
 21
-6.4838700470056363
 31
0.0
  0
LINE
  5
43F9
  8
0
 10
508.2772054476129142
 20
-6.4838700470056363
 30
0.0
 11
508.2772054475938148
 21
-6.4777870353601346
 31
0.0
  0
LINE
  5
43FA
  8
0
 10
508.2772054475938148
 20
-6.4777870353601346
 30
0.0
 11
508.2601577033935882
 21
-6.4699826458904663
 31
0.0
  0
LINE
  5
43FB
  8
0
 10
508.2601577033935882
 20
-6.4699826458904663
 30
0.0
 11
508.243109959293804
 21
-6.4682187552396311
 31
0.0
  0
LINE
  5
43FC
  8
0
 10
508.243109959293804
 20
-6.4682187552396311
 30
0.0
 11
508.243109959293804
 21
-6.4743017668904459
 31
0.0
  0
LINE
  5
43FD
  8
0
 10
508.243109959293804
 20
-6.4743017668904459
 30
0.0
 11
508.2601577034326965
 21
-6.4821486692091792
 31
0.0
  0
LINE
  5
43FE
  8
0
 10
508.2601577034326965
 20
-6.4821486692091792
 30
0.0
 11
508.2601577035522951
 21
-6.4699826459631691
 31
0.0
  0
LINE
  5
43FF
  8
0
 10
508.2601577033935882
 20
-6.4948901220904514
 30
0.0
 11
508.2772054475938148
 21
-6.4975702756904621
 31
0.0
  0
LINE
  5
4400
  8
0
 10
508.2772054475938148
 20
-6.4975702756904621
 30
0.0
 11
508.2772054476034214
 21
-6.4933211998242628
 31
0.0
  0
LINE
  5
4401
  8
0
 10
508.2772054476034214
 20
-6.4933211998242628
 30
0.0
 11
508.2601577033935882
 21
-6.486424750590456
 31
0.0
  0
LINE
  5
4402
  8
0
 10
508.2601577033935882
 20
-6.486424750590456
 30
0.0
 11
508.243109959293804
 21
-6.483722856690461
 31
0.0
  0
LINE
  5
4403
  8
0
 10
508.243109959293804
 20
-6.483722856690461
 30
0.0
 11
508.2431099592587884
 21
-6.4879387216985807
 31
0.0
  0
LINE
  5
4404
  8
0
 10
508.2431099592587884
 20
-6.4879387216985807
 30
0.0
 11
508.2601577034427009
 21
-6.494890122120947
 31
0.0
  0
LINE
  5
4405
  8
0
 10
508.2601577034427009
 20
-6.494890122120947
 30
0.0
 11
508.2601577034427009
 21
-6.4864247507097419
 31
0.0
  0
LINE
  5
4406
  8
0
 10
508.2879965530722188
 20
-6.4963120908936931
 30
0.0
 11
508.3050442971937173
 21
-6.4976544207904663
 31
0.0
  0
LINE
  5
4407
  8
0
 10
508.3050442971937173
 20
-6.4976544207904663
 30
0.0
 11
508.3050442971937173
 21
-6.4924746396628139
 31
0.0
  0
LINE
  5
4408
  8
0
 10
508.3050442971937173
 20
-6.4924746396628139
 30
0.0
 11
508.287996553093592
 21
-6.4859655442904494
 31
0.0
  0
LINE
  5
4409
  8
0
 10
508.287996553093592
 20
-6.4859655442904494
 30
0.0
 11
508.2709488088938201
 21
-6.4846024492904606
 31
0.0
  0
LINE
  5
440A
  8
0
 10
508.2709488088938201
 20
-6.4846024492904606
 30
0.0
 11
508.2709488088938201
 21
-6.4897690740425817
 31
0.0
  0
LINE
  5
440B
  8
0
 10
508.2709488088938201
 20
-6.4897690740425817
 30
0.0
 11
508.2879965530376012
 21
-6.4963120909633272
 31
0.0
  0
LINE
  5
440C
  8
0
 10
508.2879965530376012
 20
-6.4963120909633272
 30
0.0
 11
508.2879965531471953
 21
-6.4859655443109689
 31
0.0
  0
LINE
  5
440D
  8
0
 10
508.3158354026933807
 20
-6.4950151916181058
 30
0.0
 11
508.332883146893721
 21
-6.4950151916181058
 31
0.0
  0
LINE
  5
440E
  8
0
 10
508.332883146893721
 20
-6.4950151916181058
 30
0.0
 11
508.332883146893721
 21
-6.4889967843430423
 31
0.0
  0
LINE
  5
440F
  8
0
 10
508.332883146893721
 20
-6.4889967843430423
 30
0.0
 11
508.3158354027689256
 21
-6.4828491682417537
 31
0.0
  0
LINE
  5
4410
  8
0
 10
508.3158354027689256
 20
-6.4828491682417537
 30
0.0
 11
508.2987876585938238
 21
-6.4828491682417537
 31
0.0
  0
LINE
  5
4411
  8
0
 10
508.2987876585938238
 20
-6.4828491682417537
 30
0.0
 11
508.2987876585938238
 21
-6.4888499742904431
 31
0.0
  0
LINE
  5
4412
  8
0
 10
508.2987876585938238
 20
-6.4888499742904431
 30
0.0
 11
508.3158354025002268
 21
-6.4950151916181058
 31
0.0
  0
LINE
  5
4413
  8
0
 10
508.3158354025002268
 20
-6.4950151916181058
 30
0.0
 11
508.3158354027689256
 21
-6.4828491682417537
 31
0.0
  0
LINE
  5
4414
  8
0
 10
508.287996553093592
 20
-6.4809262123337676
 30
0.0
 11
508.3050442971937173
 21
-6.481352296071603
 31
0.0
  0
LINE
  5
4415
  8
0
 10
508.3050442971937173
 20
-6.481352296071603
 30
0.0
 11
508.3050442972451037
 21
-6.474366053811079
 31
0.0
  0
LINE
  5
4416
  8
0
 10
508.3050442972451037
 20
-6.474366053811079
 30
0.0
 11
508.287996553058008
 21
-6.4669407123054992
 31
0.0
  0
LINE
  5
4417
  8
0
 10
508.287996553058008
 20
-6.4669407123054992
 30
0.0
 11
508.2709488088938201
 21
-6.4664807070904518
 31
0.0
  0
LINE
  5
4418
  8
0
 10
508.2709488088938201
 20
-6.4664807070904518
 30
0.0
 11
508.2709488088938201
 21
-6.4734801056904683
 31
0.0
  0
LINE
  5
4419
  8
0
 10
508.2709488088938201
 20
-6.4734801056904683
 30
0.0
 11
508.2879965530485151
 21
-6.480926212446005
 31
0.0
  0
LINE
  5
441A
  8
0
 10
508.2879965530485151
 20
-6.480926212446005
 30
0.0
 11
508.287996553058008
 21
-6.4669407123054992
 31
0.0
  0
LINE
  5
441B
  8
0
 10
508.2601577033935882
 20
-6.4641800633884241
 30
0.0
 11
508.2772054475919958
 21
-6.4649935009433914
 31
0.0
  0
LINE
  5
441C
  8
0
 10
508.2772054475919958
 20
-6.4649935009433914
 30
0.0
 11
508.2772054475938148
 21
-6.4570765534241419
 31
0.0
  0
LINE
  5
441D
  8
0
 10
508.2772054475938148
 20
-6.4570765534241419
 30
0.0
 11
508.2601577032904174
 21
-6.4483133881122656
 31
0.0
  0
LINE
  5
441E
  8
0
 10
508.2601577032904174
 20
-6.4483133881122656
 30
0.0
 11
508.243109959293804
 21
-6.4474449994904406
 31
0.0
  0
LINE
  5
441F
  8
0
 10
508.243109959293804
 20
-6.4474449994904406
 30
0.0
 11
508.243109959293804
 21
-6.45539515779046
 31
0.0
  0
LINE
  5
4420
  8
0
 10
508.243109959293804
 20
-6.45539515779046
 30
0.0
 11
508.2601577033935882
 21
-6.4641800633884241
 31
0.0
  0
LINE
  5
4421
  8
0
 10
508.2601577033935882
 20
-6.4641800633884241
 30
0.0
 11
508.2601577033935882
 21
-6.4483133881675458
 31
0.0
  0
LINE
  5
4422
  8
0
 10
508.1766411544938933
 20
-6.4686015767904603
 30
0.0
 11
508.1936888986239751
 21
-6.47470798274753
 31
0.0
  0
LINE
  5
4423
  8
0
 10
508.1936888986239751
 20
-6.47470798274753
 30
0.0
 11
508.1936888985936207
 21
-6.4715427892904511
 31
0.0
  0
LINE
  5
4424
  8
0
 10
508.1936888985936207
 20
-6.4715427892904511
 30
0.0
 11
508.1766411544938933
 21
-6.4623600571998434
 31
0.0
  0
LINE
  5
4425
  8
0
 10
508.1766411544938933
 20
-6.4623600571998434
 30
0.0
 11
508.1595934102936098
 21
-6.4561941742904567
 31
0.0
  0
LINE
  5
4426
  8
0
 10
508.1595934102936098
 20
-6.4561941742904567
 30
0.0
 11
508.1595934102936098
 21
-6.4592684877779032
 31
0.0
  0
LINE
  5
4427
  8
0
 10
508.1595934102936098
 20
-6.4592684877779032
 30
0.0
 11
508.1766411544938933
 21
-6.4686015767904603
 31
0.0
  0
LINE
  5
4428
  8
0
 10
508.1766411544938933
 20
-6.4686015767904603
 30
0.0
 11
508.1766411594268789
 21
-6.4623600598571311
 31
0.0
  0
ARC
  5
4429
  8
0
 10
507.495519093885207
 20
-5.9314286676690218
 30
0.0
 40
0.499331539731797
 50
293.5373008526320859
 51
310.0135199441672853
  0
ARC
  5
442A
  8
0
 10
507.7162795800612116
 20
-6.454627702060149
 30
0.0
 40
0.0688092058832105
 50
108.0798780220694937
 51
158.1081094740048911
  0
ARC
  5
442B
  8
0
 10
508.4898203849782021
 20
-6.67734931565482
 30
0.0
 40
0.8734473473336706
 50
163.4791241444303864
 51
179.9253317081046077
  0
ARC
  5
442C
  8
0
 10
495.2362618589339149
 20
-6.2801678067417281
 30
0.0
 40
12.3864450670498805
 50
356.4207991203169854
 51
358.1677169352091141
  0
LINE
  5
442D
  8
0
 10
508.343674252393896
 20
-6.5065259259904433
 30
0.0
 11
508.3445136359936214
 21
-6.5065259259904433
 31
0.0
  0
LINE
  5
442E
  8
0
 10
509.3523878338936015
 20
-9.8817155799509333
 30
0.0
 11
509.3523878338936015
 21
-9.9937796293904437
 31
0.0
  0
LINE
  5
442F
  8
0
 10
509.2558349772164092
 20
-3.832247819890453
 30
0.0
 11
509.2558349772164092
 21
-4.7223655397558542
 31
0.0
  0
LINE
  5
4430
  8
0
 10
509.2558349772164092
 20
-9.5551845850904424
 30
0.0
 11
509.2558349772164092
 21
-4.8249780549904511
 31
0.0
  0
LINE
  5
4431
  8
0
 10
509.0710380759936129
 20
-3.9441225019904471
 30
0.0
 11
509.0710380728936002
 21
-3.8267604362904679
 31
0.0
  0
LINE
  5
4432
  8
0
 10
509.0378081308938931
 20
-5.6130355670904608
 30
0.0
 11
509.0378081308938931
 21
-6.3138630711904664
 31
0.0
  0
LINE
  5
4433
  8
0
 10
509.2558349772164092
 20
-9.5669346495904488
 30
0.0
 11
509.2558349772164092
 21
-9.5551845850904424
 31
0.0
  0
LINE
  5
4434
  8
0
 10
509.3523878338936015
 20
-9.8817155799509333
 30
0.0
 11
509.3505892657938716
 21
-9.8699529800904582
 31
0.0
  0
LINE
  5
4435
  8
0
 10
508.7815088048158145
 20
-6.3737928404982229
 30
0.0
 11
508.7815215099938086
 21
-6.4089294020904477
 31
0.0
  0
LINE
  5
4436
  8
0
 10
508.7226270420936203
 20
-6.4208588585904609
 30
0.0
 11
508.7226270420936203
 21
-6.4269418702904471
 31
0.0
  0
LINE
  5
4437
  8
0
 10
508.7055792978937916
 20
-6.4387333220904539
 30
0.0
 11
508.7055792978937916
 21
-6.426567298690455
 31
0.0
  0
LINE
  5
4438
  8
0
 10
508.7055792978937916
 20
-6.4206976615904496
 30
0.0
 11
508.7055792978937916
 21
-6.4045027777904666
 31
0.0
  0
LINE
  5
4439
  8
0
 10
508.6947881923936166
 20
-6.4015694101904588
 30
0.0
 11
508.6947881923936166
 21
-6.4106611200904497
 31
0.0
  0
LINE
  5
443A
  8
0
 10
508.6947881923936166
 20
-6.425426406990451
 30
0.0
 11
508.6947881923936166
 21
-6.4325009967904503
 31
0.0
  0
LINE
  5
443B
  8
0
 10
508.6885315536936218
 20
-6.444289747690445
 30
0.0
 11
508.6885315536936218
 21
-6.4382067359904598
 31
0.0
  0
LINE
  5
443C
  8
0
 10
508.6885315536936218
 20
-6.4252813924904588
 30
0.0
 11
508.6885315536936218
 21
-6.417218745490457
 31
0.0
  0
LINE
  5
443D
  8
0
 10
508.6777404481939016
 20
-6.4436923593904663
 30
0.0
 11
508.6777404481939016
 21
-6.4295731448904672
 31
0.0
  0
LINE
  5
443E
  8
0
 10
508.6777404481939016
 20
-6.4229100146904701
 30
0.0
 11
508.6777404481939016
 21
-6.4048194874904691
 31
0.0
  0
LINE
  5
443F
  8
0
 10
508.6777404481939016
 20
-6.3964777931904537
 30
0.0
 11
508.6777404481939016
 21
-6.3842945642465141
 31
0.0
  0
LINE
  5
4440
  8
0
 10
508.6669493427938278
 20
-6.4003922103904616
 30
0.0
 11
508.6669493427938278
 21
-6.4104237436904699
 31
0.0
  0
LINE
  5
4441
  8
0
 10
508.6669493427938278
 20
-6.4269110220904491
 30
0.0
 11
508.6669493427938278
 21
-6.4349361531904474
 31
0.0
  0
LINE
  5
4442
  8
0
 10
508.6606927040937194
 20
-6.4477116663904592
 30
0.0
 11
508.6606927040937194
 21
-6.440666384890446
 31
0.0
  0
LINE
  5
4443
  8
0
 10
508.6606927040937194
 20
-6.4260097350904442
 30
0.0
 11
508.6606927040937194
 21
-6.41700890519044
 31
0.0
  0
LINE
  5
4444
  8
0
 10
508.6606927040937194
 20
-6.3987019957904439
 30
0.0
 11
508.6606927040937194
 21
-6.384989281397762
 31
0.0
  0
LINE
  5
4445
  8
0
 10
508.6499015985934875
 20
-6.4456049237904534
 30
0.0
 11
508.6499015985934875
 21
-6.4296048455904593
 31
0.0
  0
LINE
  5
4446
  8
0
 10
508.6499015985934875
 20
-6.422168899590444
 30
0.0
 11
508.6499015985934875
 21
-6.402211070690468
 31
0.0
  0
LINE
  5
4447
  8
0
 10
508.6499015985934875
 20
-6.3930897809904632
 30
0.0
 11
508.6499015985934875
 21
-6.3742251533000154
 31
0.0
  0
LINE
  5
4448
  8
0
 10
508.6391104930938241
 20
-6.3963361791904543
 30
0.0
 11
508.6391104930938241
 21
-6.4073060289904591
 31
0.0
  0
LINE
  5
4449
  8
0
 10
508.6391104930938241
 20
-6.425493307490453
 30
0.0
 11
508.6391104930938241
 21
-6.4344464894904521
 31
0.0
  0
LINE
  5
444A
  8
0
 10
508.6328538543937157
 20
-6.4481941538904533
 30
0.0
 11
508.6328538543937157
 21
-6.4402182776904597
 31
0.0
  0
LINE
  5
444B
  8
0
 10
508.6328538543937157
 20
-6.4238689580904502
 30
0.0
 11
508.6328538543937157
 21
-6.4139407779904589
 31
0.0
  0
LINE
  5
444C
  8
0
 10
508.6328538543937157
 20
-6.3939202169904643
 30
0.0
 11
508.6328538543937157
 21
-6.3819110358904521
 31
0.0
  0
LINE
  5
444D
  8
0
 10
508.6220627488935975
 20
-6.4446535093904611
 30
0.0
 11
508.6220627488935975
 21
-6.4268102838904593
 31
0.0
  0
LINE
  5
444E
  8
0
 10
508.6220627488935975
 20
-6.4186088421904488
 30
0.0
 11
508.6220627488935975
 21
-6.3967810442904609
 31
0.0
  0
LINE
  5
444F
  8
0
 10
508.6220627488935975
 20
-6.3868702671904583
 30
0.0
 11
508.6220627488935975
 21
-6.3709217937226557
 31
0.0
  0
LINE
  5
4450
  8
0
 10
508.6112716433938203
 20
-6.3894788550904567
 30
0.0
 11
508.6112716433938203
 21
-6.4014005003904488
 31
0.0
  0
LINE
  5
4451
  8
0
 10
508.6112716433938203
 20
-6.4212933370904439
 30
0.0
 11
508.6112716433938203
 21
-6.4311676544904488
 31
0.0
  0
LINE
  5
4452
  8
0
 10
508.6050150047938132
 20
-6.4458881150904661
 30
0.0
 11
508.6050150047938132
 21
-6.4369971126904471
 31
0.0
  0
LINE
  5
4453
  8
0
 10
508.6050150047938132
 20
-6.418965775190455
 30
0.0
 11
508.6050150047938132
 21
-6.4081062587904656
 31
0.0
  0
LINE
  5
4454
  8
0
 10
508.6050150047938132
 20
-6.3863457055904549
 30
0.0
 11
508.6050150047938132
 21
-6.3702457300871318
 31
0.0
  0
LINE
  5
4455
  8
0
 10
508.5942238992935813
 20
-6.4409617907904506
 30
0.0
 11
508.5942238992935813
 21
-6.4212834308904672
 31
0.0
  0
LINE
  5
4456
  8
0
 10
508.5942238992935813
 20
-6.412311831090447
 30
0.0
 11
508.5942238992935813
 21
-6.388582214290464
 31
0.0
  0
LINE
  5
4457
  8
0
 10
508.5942238992935813
 20
-6.377859505890453
 30
0.0
 11
508.5942238992935813
 21
-6.3702731795315213
 31
0.0
  0
LINE
  5
4458
  8
0
 10
508.58343279379352
 20
-6.3798492591904479
 30
0.0
 11
508.58343279379352
 21
-6.3927511956904626
 31
0.0
  0
LINE
  5
4459
  8
0
 10
508.58343279379352
 20
-6.4143814124904539
 30
0.0
 11
508.58343279379352
 21
-6.4251841081904484
 31
0.0
  0
LINE
  5
445A
  8
0
 10
508.58343279379352
 20
-6.4431350439904502
 30
0.0
 11
508.58343279379352
 21
-6.4519939567904583
 31
0.0
  0
LINE
  5
445B
  8
0
 10
508.5771761550939232
 20
-6.440892093790465
 30
0.0
 11
508.5771761550939232
 21
-6.4310872308904532
 31
0.0
  0
LINE
  5
445C
  8
0
 10
508.5771761550939232
 20
-6.4113588936904451
 30
0.0
 11
508.5771761550939232
 21
-6.3995498261904489
 31
0.0
  0
LINE
  5
445D
  8
0
 10
508.5771761550939232
 20
-6.3759955503904537
 30
0.0
 11
508.5771761550939232
 21
-6.3699169028144791
 31
0.0
  0
LINE
  5
445E
  8
0
 10
508.5663850495936913
 20
-6.460389454390449
 30
0.0
 11
508.5663850495936913
 21
-6.442712639090443
 31
0.0
  0
LINE
  5
445F
  8
0
 10
508.5663850495936913
 20
-6.4346053972904516
 30
0.0
 11
508.5663850495936913
 21
-6.4130723585904521
 31
0.0
  0
LINE
  5
4460
  8
0
 10
508.5663850495936913
 20
-6.4033142904904397
 30
0.0
 11
508.5663850495936913
 21
-6.3776212069904519
 31
0.0
  0
LINE
  5
4461
  8
0
 10
508.5555939440935163
 20
-6.3695104344343161
 30
0.0
 11
508.5555939440935163
 21
-6.3813573614904424
 31
0.0
  0
LINE
  5
4462
  8
0
 10
508.5555939440935163
 20
-6.4047838983904599
 30
0.0
 11
508.5555939440935163
 21
-6.4165361455904684
 31
0.0
  0
LINE
  5
4463
  8
0
 10
508.5555939440935163
 20
-6.43618135659045
 30
0.0
 11
508.5555939440935163
 21
-6.4459510869904451
 31
0.0
  0
LINE
  5
4464
  8
0
 10
508.5493373054935091
 20
-6.4599279822904503
 30
0.0
 11
508.5493373054935091
 21
-6.4511096846904632
 31
0.0
  0
LINE
  5
4465
  8
0
 10
508.5493373054935091
 20
-6.4332604391904598
 30
0.0
 11
508.5493373054935091
 21
-6.4225295457904661
 31
0.0
  0
LINE
  5
4466
  8
0
 10
508.5493373054935091
 20
-6.4010638296904547
 30
0.0
 11
508.5493373054935091
 21
-6.3882722148904607
 31
0.0
  0
LINE
  5
4467
  8
0
 10
508.5385461999937888
 20
-6.4539884165904464
 30
0.0
 11
508.5385461999937888
 21
-6.4344922184904449
 31
0.0
  0
LINE
  5
4468
  8
0
 10
508.5385461999937888
 20
-6.4256179903904611
 30
0.0
 11
508.5385461999937888
 21
-6.4021831056904519
 31
0.0
  0
LINE
  5
4469
  8
0
 10
508.5385461999937888
 20
-6.3916100286904491
 30
0.0
 11
508.5385461999937888
 21
-6.3692245701275541
 31
0.0
  0
LINE
  5
446A
  8
0
 10
508.5277550944936138
 20
-6.3924853237904511
 30
0.0
 11
508.5277550944936138
 21
-6.405223076590457
 31
0.0
  0
LINE
  5
446B
  8
0
 10
508.5277550944936138
 20
-6.4266083840904553
 30
0.0
 11
508.5277550944936138
 21
-6.4373041452904518
 31
0.0
  0
LINE
  5
446C
  8
0
 10
508.5277550944936138
 20
-6.455103598290461
 30
0.0
 11
508.5277550944936138
 21
-6.4639019969904696
 31
0.0
  0
LINE
  5
446D
  8
0
 10
508.5277550944936138
 20
-6.4783162103904584
 30
0.0
 11
508.5277550944936138
 21
-6.485296002890462
 31
0.0
  0
LINE
  5
446E
  8
0
 10
508.5277550944936138
 20
-6.4964183464904561
 30
0.0
 11
508.5277550944936138
 21
-6.5016045773904496
 31
0.0
  0
LINE
  5
446F
  8
0
 10
508.5277550944936138
 20
-6.5094350511904491
 30
0.0
 11
508.5277550944936138
 21
-6.5128026758904669
 31
0.0
  0
LINE
  5
4470
  8
0
 10
508.5277550944936138
 20
-6.5172479099904574
 30
0.0
 11
508.5277550944936138
 21
-6.5187181722904457
 31
0.0
  0
LINE
  5
4471
  8
0
 10
508.5214984557936191
 20
-6.4522777721904543
 30
0.0
 11
508.5214984557936191
 21
-6.4425510521904501
 31
0.0
  0
LINE
  5
4472
  8
0
 10
508.5214984557936191
 20
-6.4230075320904501
 30
0.0
 11
508.5214984557936191
 21
-6.411324733990452
 31
0.0
  0
LINE
  5
4473
  8
0
 10
508.5214984557936191
 20
-6.3880541416904437
 30
0.0
 11
508.5214984557936191
 21
-6.3742304758904691
 31
0.0
  0
LINE
  5
4474
  8
0
 10
508.5107073502937851
 20
-6.5218505406904486
 30
0.0
 11
508.5107073503493211
 21
-6.5188693832034783
 31
0.0
  0
LINE
  5
4475
  8
0
 10
508.5107073502937851
 20
-6.5168396455904629
 30
0.0
 11
508.5107073502937851
 21
-6.5100812738904468
 31
0.0
  0
LINE
  5
4476
  8
0
 10
508.5107073502937851
 20
-6.5065259259904433
 30
0.0
 11
508.5107073502937851
 21
-6.4961459530904602
 31
0.0
  0
LINE
  5
4477
  8
0
 10
508.5107073502937851
 20
-6.4911066211904522
 30
0.0
 11
508.5107073502937851
 21
-6.477154547290465
 31
0.0
  0
LINE
  5
4478
  8
0
 10
508.5107073502937851
 20
-6.4706312313904544
 30
0.0
 11
508.5107073502937851
 21
-6.4530575562904442
 31
0.0
  0
LINE
  5
4479
  8
0
 10
508.5107073502937851
 20
-6.4450086301904701
 30
0.0
 11
508.5107073502937851
 21
-6.4236577407904436
 31
0.0
  0
LINE
  5
447A
  8
0
 10
508.5107073502937851
 20
-6.4139938453904479
 30
0.0
 11
508.5107073502937851
 21
-6.3885801524904462
 31
0.0
  0
LINE
  5
447B
  8
0
 10
508.5107073502937851
 20
-6.3771497436904641
 30
0.0
 11
508.5107073502937851
 21
-6.3688245470534897
 31
0.0
  0
LINE
  5
447C
  8
0
 10
508.5098679666937755
 20
-6.3688137723219116
 30
0.0
 11
508.5098679666937755
 21
-6.3769251724904432
 31
0.0
  0
LINE
  5
447D
  8
0
 10
508.5098679666937755
 20
-6.3890334368904549
 30
0.0
 11
508.5098679666937755
 21
-6.413818058190456
 31
0.0
  0
LINE
  5
447E
  8
0
 10
508.5098679666937755
 20
-6.4240553037904506
 30
0.0
 11
508.5098679666937755
 21
-6.4448783459904444
 31
0.0
  0
LINE
  5
447F
  8
0
 10
508.5098679666937755
 20
-6.4534050223904531
 30
0.0
 11
508.5098679666937755
 21
-6.470544806490464
 31
0.0
  0
LINE
  5
4480
  8
0
 10
508.5098679666937755
 20
-6.477455528290446
 30
0.0
 11
508.5098679666937755
 21
-6.4910637165904443
 31
0.0
  0
LINE
  5
4481
  8
0
 10
508.5098679666937755
 20
-6.4964025590904528
 30
0.0
 11
508.5098679666937755
 21
-6.5065273963904513
 31
0.0
  0
LINE
  5
4482
  8
0
 10
508.5098679666937755
 20
-6.5102943595904579
 30
0.0
 11
508.5098679666937755
 21
-6.5168876009904562
 31
0.0
  0
LINE
  5
4483
  8
0
 10
508.5098679666937755
 20
-6.519038609690452
 30
0.0
 11
508.5098679666937755
 21
-6.521948593090455
 31
0.0
  0
LINE
  5
4484
  8
0
 10
508.4783719036934144
 20
-6.3684639014950601
 30
0.0
 11
508.4783719036934144
 21
-6.5260094270904547
 31
0.0
  0
LINE
  5
4485
  8
0
 10
508.4720773951937076
 20
-6.5209946422904439
 30
0.0
 11
508.4720773951937076
 21
-6.5065668968904591
 31
0.0
  0
LINE
  5
4486
  8
0
 10
508.4720773951937076
 20
-6.382698041590456
 30
0.0
 11
508.4720773951937076
 21
-6.3755117134904511
 31
0.0
  0
LINE
  5
4487
  8
0
 10
508.4658207564937129
 20
-6.3683540220461321
 30
0.0
 11
508.4658207564937129
 21
-6.3727638812904646
 31
0.0
  0
LINE
  5
4488
  8
0
 10
508.455029650993481
 20
-6.519876686890453
 30
0.0
 11
508.455029650993481
 21
-6.4981467581904697
 31
0.0
  0
LINE
  5
4489
  8
0
 10
508.455029650993481
 20
-6.3865856020904612
 30
0.0
 11
508.455029650993481
 21
-6.3722115024904422
 31
0.0
  0
LINE
  5
448A
  8
0
 10
508.4379819067938229
 20
-6.3755117134904511
 30
0.0
 11
508.4379819067938229
 21
-6.382698041590456
 31
0.0
  0
LINE
  5
448B
  8
0
 10
508.4379819067938229
 20
-6.5065668968904591
 30
0.0
 11
508.4379819067938229
 21
-6.5224554467904428
 31
0.0
  0
LINE
  5
448C
  8
0
 10
509.2558349772164092
 20
-9.5669346495904488
 30
0.0
 11
509.3505892657938716
 21
-9.8699529800904582
 31
0.0
  0
ARC
  5
448D
  8
0
 10
508.2657481592652857
 20
-37.142203870305508
 30
0.0
 40
33.3552704743580435
 50
88.3535431717021851
 51
89.7226819627248915
  0
ARC
  5
448E
  8
0
 10
509.0036568669736994
 20
-6.3112937285503374
 30
0.0
 40
0.03424777874463
 50
276.6870675278099156
 51
355.6975039245356811
  0
ARC
  5
448F
  8
0
 10
509.0019389815100226
 20
-5.6172219930076874
 30
0.0
 40
0.0361126299160829
 50
6.6570911840079416
 51
80.8206912462986224
  0
ARC
  5
4490
  8
0
 10
509.0337719524384283
 20
-3.833127873534719
 30
0.0
 40
0.0378061898482274
 50
9.6961497880917484
 51
79.6795753520669905
  0
ARC
  5
4491
  8
0
 10
508.614712734793784
 20
-5.9600976090904663
 30
0.0
 40
0.448598849
 50
260.2245284277129826
 51
262.4272225189033065
  0
ARC
  5
4492
  8
0
 10
508.6155966858667057
 20
-5.9648296670067662
 30
0.0
 40
0.4412375212737327
 50
261.3633868214010931
 51
263.5964248235841865
  0
ARC
  5
4493
  8
0
 10
508.6082122229934157
 20
-5.9800196502904699
 30
0.0
 40
0.4350679954000001
 50
264.4830975336997767
 51
266.7349346695107215
  0
ARC
  5
4494
  8
0
 10
508.6095982509934856
 20
-5.9843038233904604
 30
0.0
 40
0.4282840475
 50
265.6584230138886937
 51
267.9427793981881791
  0
ARC
  5
4495
  8
0
 10
508.6246900491935889
 20
-5.9718441723904601
 30
0.0
 40
0.4178501907000001
 50
265.8187595012976203
 51
268.1597466327037864
  0
ARC
  5
4496
  8
0
 10
508.6261764189937935
 20
-5.9759000867904577
 30
0.0
 40
0.4109907681000001
 50
267.0486050285920214
 51
269.4265081242119777
  0
ARC
  5
4497
  8
0
 10
508.6199732012935897
 20
-5.9898400711904554
 30
0.0
 40
0.4069463378
 50
270.2941979639040824
 51
272.6954182804104789
  0
ARC
  5
4498
  8
0
 10
508.621880147893819
 20
-5.9932456760904511
 30
0.0
 40
0.4008247871
 50
271.5688292250061977
 51
274.0087878135124129
  0
ARC
  5
4499
  8
0
 10
508.6162443086934104
 20
-6.00594765779047
 30
0.0
 40
0.3976902131
 50
274.8548596888077782
 51
277.3250826537977218
  0
ARC
  5
449A
  8
0
 10
508.6184660651936156
 20
-6.0086047699904528
 30
0.0
 40
0.3923760118
 50
276.1780096699010869
 51
278.6886647884027184
  0
ARC
  5
449B
  8
0
 10
508.6131970807934977
 20
-6.019932311290459
 30
0.0
 40
0.3902614313
 50
279.5195977390972075
 51
282.0677304582047213
  0
ARC
  5
449C
  8
0
 10
508.6102871669933734
 20
-6.0308802133904438
 30
0.0
 40
0.3855832086999999
 50
284.3081979038129248
 51
285.4849817723716114
  0
ARC
  5
449D
  8
0
 10
508.6226721824934884
 20
-5.9389686692904577
 30
0.0
 40
0.4633428638
 50
256.0163059749125978
 51
258.1791171265895741
  0
ARC
  5
449E
  8
0
 10
508.6230005024747811
 20
-5.9440732265312848
 30
0.0
 40
0.4554357457490773
 50
257.1224604201503894
 51
259.3134314931119206
  0
ARC
  5
449F
  8
0
 10
508.6306521086938233
 20
-5.9522211665904461
 30
0.0
 40
0.4302272065
 50
261.4090394867944838
 51
263.6988438790104965
  0
ARC
  5
44A0
  8
0
 10
508.6316337586937948
 20
-5.9568174434904479
 30
0.0
 40
0.4227007403
 50
262.5978664017104052
 51
264.9225661070103115
  0
ARC
  5
44A1
  8
0
 10
508.5984452807936123
 20
-5.96746303459045
 30
0.0
 40
0.4645552222
 50
259.1134823123013007
 51
261.247445250303997
  0
ARC
  5
44A2
  8
0
 10
508.5992292334061062
 20
-5.9723531886307031
 30
0.0
 40
0.4573088792789468
 50
260.2136725251874054
 51
262.3745914808989141
  0
ARC
  5
44A3
  8
0
 10
508.5914289557939014
 20
-5.9876416614904686
 30
0.0
 40
0.4499688946
 50
263.2506945734958776
 51
265.4321920568939959
  0
ARC
  5
44A4
  8
0
 10
508.5927170188936088
 20
-5.9921247579904646
 30
0.0
 40
0.443263453
 50
264.3837934510992227
 51
266.5943515932887067
  0
ARC
  5
44A5
  8
0
 10
508.5857240354937971
 20
-6.0064391667904413
 30
0.0
 40
0.436701888
 50
267.4618732336878111
 51
269.6993851318907787
  0
ARC
  5
44A6
  8
0
 10
508.5874603240939109
 20
-6.0103619021904509
 30
0.0
 40
0.4306530042000001
 50
268.631623386308604
 51
270.8998897944982218
  0
ARC
  5
44A7
  8
0
 10
508.6029934785935893
 20
-5.9984450003904586
 30
0.0
 40
0.4229293604000001
 50
268.8118680319873874
 51
271.1215447445899827
  0
ARC
  5
44A8
  8
0
 10
508.5832369990937991
 20
-6.0268548892904601
 30
0.0
 40
0.4195987677000001
 50
272.9751009915041777
 51
275.3092107835012143
  0
ARC
  5
44A9
  8
0
 10
508.6048151876937027
 20
-6.002128694090457
 30
0.0
 40
0.416837129
 50
270.0274655801027848
 51
272.3714170236901282
  0
ARC
  5
44AA
  8
0
 10
508.5988325781934805
 20
-6.0151081271904712
 30
0.0
 40
0.4123570136
 50
273.2294728074988939
 51
275.6054340245012781
  0
ARC
  5
44AB
  8
0
 10
508.6009974005935987
 20
-6.0180955216904666
 30
0.0
 40
0.4070220085000001
 50
274.4889685747029944
 51
276.9008310042996754
  0
ARC
  5
44AC
  8
0
 10
508.595457178893696
 20
-6.0297658483904657
 30
0.0
 40
0.4035287084000001
 50
277.7540406703921008
 51
280.2048167239956911
  0
ARC
  5
44AD
  8
0
 10
508.5004557697569112
 20
-5.4963145319451012
 30
0.0
 40
0.9434029074987303
 50
279.7790948066211172
 51
280.8314475819685754
  0
ARC
  5
44AE
  8
0
 10
508.5925625686256808
 20
-6.0422804731420259
 30
0.0
 40
0.3965487167792867
 50
282.4036779231403784
 51
284.9388686935989199
  0
ARC
  5
44AF
  8
0
 10
508.5950061129581172
 20
-6.0434492260381178
 30
0.0
 40
0.3931193348112354
 50
283.7629825155335084
 51
286.3360943072564737
  0
ARC
  5
44B0
  8
0
 10
508.589757205993692
 20
-6.0523650133904692
 30
0.0
 40
0.3917168713
 50
287.1982023875031018
 51
289.8280593629941109
  0
ARC
  5
44B1
  8
0
 10
508.5743578547937886
 20
-5.9947621887904443
 30
0.0
 40
0.4626943166000001
 50
262.0930372083947191
 51
264.2193437327111951
  0
ARC
  5
44B2
  8
0
 10
508.5755538158124978
 20
-5.9993806026128569
 30
0.0
 40
0.4561116400161036
 50
263.1936831897751858
 51
265.3460656865696023
  0
ARC
  5
44B3
  8
0
 10
508.5698296678936003
 20
-6.0180176589904573
 30
0.0
 40
0.4423852063
 50
267.34496956620319
 51
269.5538637362881218
  0
ARC
  5
44B4
  8
0
 10
508.5797629741152832
 20
-6.041221975606331
 30
0.0
 40
0.4104205105328779
 50
277.4324534882836133
 51
279.8398335844601093
  0
ARC
  5
44B5
  8
0
 10
508.5767604302047857
 20
-6.0535526342551096
 30
0.0
 40
0.4029962397020518
 50
282.0210249761951786
 51
284.5114280095352797
  0
ARC
  5
44B6
  8
0
 10
508.5738403975095139
 20
-6.0634738489140689
 30
0.0
 40
0.3977119687258417
 50
286.7608401485920808
 51
289.3441760179097173
  0
ARC
  5
44B7
  8
0
 10
508.5503661091935896
 20
-6.0208218396904529
 30
0.0
 40
0.4580527887
 50
265.0330439410968211
 51
267.1705391553118716
  0
ARC
  5
44B8
  8
0
 10
508.526430036816123
 20
-6.0457442579371143
 30
0.0
 40
0.4506760364954459
 50
268.0007225993884958
 51
270.1684587503422108
  0
ARC
  5
44B9
  8
0
 10
508.5025356919289266
 20
-6.0693199833754061
 30
0.0
 40
0.4408370347232238
 50
271.062134796041903
 51
273.2795671585050172
  0
ARC
  5
44BA
  8
0
 10
508.4786131149479047
 20
-6.0910105163679571
 30
0.0
 40
0.4290608929694641
 50
274.2897952293424169
 51
276.5767367636984773
  0
ARC
  5
44BB
  8
0
 10
508.476674322793599
 20
-6.1189530283904476
 30
0.0
 40
0.401507499
 50
266.9097717845074271
 51
269.3439965435982231
  0
ARC
  5
44BC
  8
0
 10
508.4612821688936037
 20
-6.1023848371904403
 30
0.0
 40
0.4223675236
 50
276.6054730574090854
 51
276.7201129461021765
  0
ARC
  5
44BD
  8
0
 10
508.4349807852556751
 20
-6.0617559480185133
 30
0.0
 40
0.4662848344801332
 50
279.3464659427240804
 51
281.4764349541338788
  0
ARC
  5
44BE
  8
0
 10
508.4061876271459823
 20
-6.037448657165581
 30
0.0
 40
0.4906527206031012
 50
282.2994961762012167
 51
284.3454037205921168
  0
ARC
  5
44BF
  8
0
 10
508.3945665286934741
 20
-6.1298885882904681
 30
0.0
 40
0.3946473188
 50
276.3159251251979072
 51
278.8128802909080264
  0
ARC
  5
44C0
  8
0
 10
508.4267303148333212
 20
-5.9340724444691348
 30
0.0
 40
0.5941853625720303
 50
274.9859572358910214
 51
278.0431426160703268
  0
ARC
  5
44C1
  8
0
 10
508.4272690145937759
 20
-5.8733006336904596
 30
0.0
 40
0.6492421118000001
 50
273.9574968655929865
 51
274.5145126372992195
  0
ARC
  5
44C2
  8
0
 10
508.3774020060524776
 20
-6.0127632893089329
 30
0.0
 40
0.5114409605584628
 50
285.1084321727014981
 51
287.0963456813707921
  0
ARC
  5
44C3
  8
0
 10
508.3721723386935878
 20
-5.93848376779047
 30
0.0
 40
0.6011736995
 50
303.6827129683048838
 51
305.6583566354958066
  0
ARC
  5
44C4
  8
0
 10
508.3482611369875031
 20
-5.986593022685665
 30
0.0
 40
0.5300214554584449
 50
287.8478212452203024
 51
289.7948979012742257
  0
ARC
  5
44C5
  8
0
 10
508.338257519593526
 20
-5.9148337669904532
 30
0.0
 40
0.6251588347000001
 50
305.9844400516083169
 51
307.7827092697543776
  0
ARC
  5
44C6
  8
0
 10
508.3543697652165179
 20
-5.9304712233436279
 30
0.0
 40
0.6078317626457447
 50
303.3505719416922943
 51
305.2964559200661938
  0
ARC
  5
44C7
  8
0
 10
508.3378268799144735
 20
-5.9258504496306141
 30
0.0
 40
0.6076823081351308
 50
302.0938017132365871
 51
304.0115936616742829
  0
ARC
  5
44C8
  8
0
 10
508.3563840139697732
 20
-5.9355917292479008
 30
0.0
 40
0.6011956488069145
 50
302.3119665700601786
 51
304.2555695633570849
  0
ARC
  5
44C9
  8
0
 10
508.3397539859095104
 20
-5.9310619189761251
 30
0.0
 40
0.6007878539648231
 50
301.0800281791940733
 51
302.9980486898007825
  0
ARC
  5
44CA
  8
0
 10
508.320548409010712
 20
-5.9060942014721132
 30
0.0
 40
0.6298094110672393
 50
305.7519288215568167
 51
307.6868251480130994
  0
ARC
  5
44CB
  8
0
 10
508.3227751836736843
 20
-5.9108893159729501
 30
0.0
 40
0.6230293210177827
 50
304.7321574912716073
 51
306.6627339132368775
  0
ARC
  5
44CC
  8
0
 10
508.3214409537815754
 20
-5.92101556429557
 30
0.0
 40
0.6054332764757517
 50
300.9549333346840854
 51
302.855462302397882
  0
ARC
  5
44CD
  8
0
 10
508.3232836714016116
 20
-5.926293233609468
 30
0.0
 40
0.5983028603997697
 50
299.9588343106242974
 51
301.8617298447625217
  0
ARC
  5
44CE
  8
0
 10
508.3221079628544885
 20
-5.9428586848754303
 30
0.0
 40
0.5722843632089095
 50
295.2675426013657898
 51
297.1701555206618082
  0
ARC
  5
44CF
  8
0
 10
508.3189291729734123
 20
-5.959824321143512
 30
0.0
 40
0.545621268634193
 50
290.5782257593060081
 51
292.5029213385390108
  0
ARC
  5
44D0
  8
0
 10
508.2900649637938955
 20
-5.8873728109904544
 30
0.0
 40
0.6399063714
 50
307.2887051059092869
 51
308.4385304217998964
  0
ARC
  5
44D1
  8
0
 10
508.3044882297605795
 20
-5.9008163626120034
 30
0.0
 40
0.6271653438674551
 50
304.6080531797092021
 51
306.522730764057826
  0
ARC
  5
44D2
  8
0
 10
508.3066570697985753
 20
-5.9057149572653289
 30
0.0
 40
0.6201140871442716
 50
303.6087232017400765
 51
305.5215878999887877
  0
ARC
  5
44D3
  8
0
 10
508.2907212153616001
 20
-5.900347131209597
 30
0.0
 40
0.6151279646366179
 50
302.5921013774618018
 51
304.4973962433301153
  0
ARC
  5
44D4
  8
0
 10
508.3052294434539817
 20
-5.9159452536910608
 30
0.0
 40
0.6011376070040447
 50
299.913836004834593
 51
301.8067693440145831
  0
ARC
  5
44D5
  8
0
 10
508.3069885020515812
 20
-5.9212640104022087
 30
0.0
 40
0.5937928564403495
 50
298.9292965912408135
 51
300.826486157071372
  0
ARC
  5
44D6
  8
0
 10
508.2908946553756095
 20
-5.9159733018219898
 30
0.0
 40
0.5872599149878095
 50
297.9766391396922813
 51
299.8770739970747741
  0
ARC
  5
44D7
  8
0
 10
508.3043576677130204
 20
-5.9322464559674852
 30
0.0
 40
0.5737892235377011
 50
295.2741909233561159
 51
297.1718817637927827
  0
ARC
  5
44D8
  8
0
 10
508.3055950784598735
 20
-5.9377842231674807
 30
0.0
 40
0.566332935918342
 50
294.2885655741960136
 51
296.1954402806001099
  0
ARC
  5
44D9
  8
0
 10
508.2889482934485841
 20
-5.9316084464698209
 30
0.0
 40
0.5592466611710432
 50
293.3615396406423201
 51
295.2782831243293913
  0
ARC
  5
44DA
  8
0
 10
508.2744938024936801
 20
-5.8817511755904643
 30
0.0
 40
0.6343486287
 50
306.2848770816059982
 51
308.2224167562624757
  0
ARC
  5
44DB
  8
0
 10
508.2886200684098981
 20
-5.8953843340069323
 30
0.0
 40
0.6224127930960611
 50
303.5774354824200145
 51
305.4824283187408014
  0
ARC
  5
44DC
  8
0
 10
508.273870600193618
 20
-5.8911440309904579
 30
0.0
 40
0.6139271632
 50
302.641927207411527
 51
304.5521052691063915
  0
ARC
  5
44DD
  8
0
 10
508.2746995463032817
 20
-5.8943171949825599
 30
0.0
 40
0.6086166734187197
 50
301.668309558417775
 51
303.5738695392287809
  0
ARC
  5
44DE
  8
0
 10
508.2892057063752986
 20
-5.9106138848153451
 30
0.0
 40
0.5948272718273917
 50
298.9551271914713766
 51
300.8494811539836746
  0
ARC
  5
44DF
  8
0
 10
508.2742415381937917
 20
-5.906541636390469
 30
0.0
 40
0.5847402875
 50
298.0640327537118992
 51
299.9743613751127782
  0
ARC
  5
44E0
  8
0
 10
508.2747742625422234
 20
-5.9099442122466117
 30
0.0
 40
0.5792193716336743
 50
297.090166735897526
 51
299.0009679035874228
  0
ARC
  5
44E1
  8
0
 10
508.2888921771934747
 20
-5.9284323005904556
 30
0.0
 40
0.5642905028000001
 50
294.3437494332936808
 51
296.258458920195892
  0
ARC
  5
44E2
  8
0
 10
508.2575458932935817
 20
-5.8722935169904513
 30
0.0
 40
0.6329029004
 50
306.3697987132023854
 51
307.7512912859785956
  0
ARC
  5
44E3
  8
0
 10
508.2583019145939147
 20
-5.8748316698904519
 30
0.0
 40
0.6280967042
 50
305.3906268444858938
 51
307.6857529856972064
  0
ARC
  5
44E4
  8
0
 10
508.2435956093934237
 20
-5.869455297190453
 30
0.0
 40
0.6175880804000001
 50
304.5926474609070738
 51
305.8179041457477751
  0
ARC
  5
44E5
  8
0
 10
508.2583619218937088
 20
-5.885260972890447
 30
0.0
 40
0.6050913483000001
 50
301.7953029719855067
 51
303.7148445217914059
  0
ARC
  5
44E6
  8
0
 10
508.2591742984972143
 20
-5.8884696689104583
 30
0.0
 40
0.5995360122823469
 50
300.8247709508153775
 51
302.7414575125480951
  0
ARC
  5
44E7
  8
0
 10
508.2430705436934772
 20
-5.8791004773904643
 30
0.0
 40
0.5941844727000002
 50
301.0269054164139106
 51
302.9653353520114933
  0
ARC
  5
44E8
  8
0
 10
508.2438587087524979
 20
-5.8823153952249054
 30
0.0
 40
0.5884061021499793
 50
300.0544846543734252
 51
301.9916765452301775
  0
ARC
  5
44E9
  8
0
 10
508.2586257227937949
 20
-5.9006405921904541
 30
0.0
 40
0.5743695382000001
 50
297.236973926287817
 51
299.1667224657024917
  0
ARC
  5
44EA
  8
0
 10
508.2591194208114871
 20
-5.9040291299324661
 30
0.0
 40
0.5686479555414249
 50
296.2591417695091991
 51
298.190928132880174
  0
ARC
  5
44EB
  8
0
 10
508.3213148963939148
 20
-4.9445793532904343
 30
0.0
 40
0.8661417322998467
 50
7.9370563962644169
 51
12.8368747772203307
  0
ARC
  5
44EC
  8
0
 10
508.2289538703938092
 20
-5.8742190818904572
 30
0.0
 40
0.5793045215000001
 50
300.3308713300082786
 51
301.3221566661273982
  0
ARC
  5
44ED
  8
0
 10
508.2292612376933789
 20
-5.8766784066904432
 30
0.0
 40
0.5741806975000001
 50
299.3517512235994218
 51
300.9674309637999841
  0
LINE
  5
44EE
  8
0
 10
508.4379819067938229
 20
-6.5224554467904428
 30
0.0
 11
508.4271908013936923
 21
-6.5225449168904648
 31
0.0
  0
LINE
  5
44EF
  8
0
 10
508.5098679666937755
 20
-6.3890334368904549
 30
0.0
 11
508.5107073502937851
 21
-6.3885801524904462
 31
0.0
  0
LINE
  5
44F0
  8
0
 10
508.5098679666937755
 20
-6.4240553037904506
 30
0.0
 11
508.5107073502937851
 21
-6.4236577407904436
 31
0.0
  0
LINE
  5
44F1
  8
0
 10
508.5098679666937755
 20
-6.4534050223904531
 30
0.0
 11
508.5107073502937851
 21
-6.4530575562904442
 31
0.0
  0
LINE
  5
44F2
  8
0
 10
508.5098679666937755
 20
-6.477455528290446
 30
0.0
 11
508.5107073502937851
 21
-6.477154547290465
 31
0.0
  0
LINE
  5
44F3
  8
0
 10
508.5098679666937755
 20
-6.4964025590904528
 30
0.0
 11
508.5107073502937851
 21
-6.4961459530904602
 31
0.0
  0
LINE
  5
44F4
  8
0
 10
508.5098679666937755
 20
-6.5102943595904579
 30
0.0
 11
508.5107073502937851
 21
-6.5100812738904468
 31
0.0
  0
LINE
  5
44F5
  8
0
 10
508.5098679666937755
 20
-6.519038609690452
 30
0.0
 11
508.5107073502937851
 21
-6.5188693832904478
 31
0.0
  0
LINE
  5
44F6
  8
0
 10
508.5107073502937851
 20
-6.3771497436904641
 30
0.0
 11
508.5098679666937755
 21
-6.3769251724904432
 31
0.0
  0
LINE
  5
44F7
  8
0
 10
508.5107073502937851
 20
-6.4139938453904479
 30
0.0
 11
508.5098679666937755
 21
-6.413818058190456
 31
0.0
  0
LINE
  5
44F8
  8
0
 10
508.5107073502937851
 20
-6.4450086301904701
 30
0.0
 11
508.5098679666937755
 21
-6.4448783459904444
 31
0.0
  0
LINE
  5
44F9
  8
0
 10
508.5107073502937851
 20
-6.4706312313904544
 30
0.0
 11
508.5098679666937755
 21
-6.470544806490464
 31
0.0
  0
LINE
  5
44FA
  8
0
 10
508.5107073502937851
 20
-6.4911066211904522
 30
0.0
 11
508.5098679666937755
 21
-6.4910637165904443
 31
0.0
  0
LINE
  5
44FB
  8
0
 10
508.5107073502937851
 20
-6.5168396455904629
 30
0.0
 11
508.5098679666937755
 21
-6.5168876009904562
 31
0.0
  0
ARC
  5
44FC
  8
0
 10
509.2229205634573077
 20
-4.7190810600597759
 30
0.0
 40
0.0330778844542238
 50
271.756080901016901
 51
354.3014056750046734
  0
ARC
  5
44FD
  8
0
 10
509.2209681968399764
 20
-3.8355889531331382
 30
0.0
 40
0.0350264977578776
 50
5.473694181654456
 51
84.843274758741785
  0
ARC
  5
44FE
  8
0
 10
509.036073018407194
 20
-3.939291233838671
 30
0.0
 40
0.0352972577400487
 50
275.4622103300143863
 51
352.133016043105215
  0
ARC
  5
44FF
  8
0
 10
508.4271908013437269
 20
-4.3195414401904459
 30
0.0
 40
0.131898013416208
 50
270.0
 51
90.0
  0
ARC
  5
4500
  8
0
 10
508.3503731161979999
 20
3.0798085879189339
 30
0.0
 40
7.1846625057610076
 50
270.6126123543224935
 51
276.8901745873989739
  0
ARC
  5
4501
  8
0
 10
509.2049506756418964
 20
-4.0220889089854932
 30
0.0
 40
0.0317377499217486
 50
283.3754456200736058
 51
359.9995688971175127
  0
LINE
  5
4502
  8
0
 10
509.2366884255628179
 20
-4.0220891477855476
 30
0.0
 11
509.0710380759936129
 21
-3.9441225019904471
 31
0.0
  0
ARC
  5
4503
  8
0
 10
508.2215814908105926
 20
-72.8757280854096621
 30
0.0
 40
67.2987477523766557
 50
89.3307113530898249
 51
89.8249512146658873
  0
ARC
  5
4504
  8
0
 10
508.1956958020007846
 20
24.3811828949761811
 30
0.0
 40
30.7372174392670487
 50
270.4315228553596171
 51
271.5136916297847733
  0
ARC
  5
4505
  8
0
 10
515.7603545114095596
 20
-16.8797356050474612
 30
0.0
 40
13.1198765079359596
 50
120.1240811962619972
 51
120.8234267755679952
  0
ARC
  5
4506
  8
0
 10
509.0265474531523182
 20
-5.3931159824662682
 30
0.0
 40
0.2037728334977906
 50
317.1023591334954972
 51
358.6141648578674221
  0
ARC
  5
4507
  8
0
 10
499.5410516234111924
 20
-4.5553090131820664
 30
0.0
 40
9.7257891634891251
 50
355.0291130458560929
 51
357.2739917423551219
  0
ARC
  5
4508
  8
0
 10
508.3901762502820816
 20
-15.72585469262782
 30
0.0
 40
9.3578064144999562
 50
88.2816112422054431
 51
89.7733674974028162
  0
ARC
  5
4509
  8
0
 10
508.7937555460142107
 20
-1.500497236296864
 30
0.0
 40
4.8733109923950328
 50
268.55412481683652
 51
271.0999118423857226
  0
ARC
  5
450A
  8
0
 10
508.9335127458792272
 20
-7.4244092110107811
 30
0.0
 40
1.052513813241539
 50
87.245918695460972
 51
92.5163240057392358
  0
ARC
  5
450B
  8
0
 10
508.9825282301227958
 20
-6.3808411648442114
 30
0.0
 40
0.007885334418963
 50
34.4397415737067121
 51
78.6114819694605558
  0
ARC
  5
450C
  8
0
 10
508.9698534358806796
 20
-6.362344766774922
 30
0.0
 40
0.0237661755363474
 50
291.5659059743958892
 51
323.7985226298471275
  0
ARC
  5
450D
  8
0
 10
508.7094722197919054
 20
-5.8044623166320237
 30
0.0
 40
0.6393797095931085
 50
288.0887181306001139
 51
294.8916246502284935
  0
ARC
  5
450E
  8
0
 10
508.7046999671190974
 20
-6.4076961300848696
 30
0.0
 40
0.0768314415421962
 50
319.2991724951306196
 51
359.0802682570283082
  0
ARC
  5
450F
  8
0
 10
508.6524224935612892
 20
-6.3647553799380301
 30
0.0
 40
0.1444745289113213
 50
309.1713650795899184
 51
319.9084016873318888
  0
ARC
  5
4510
  8
0
 10
508.5987964405529169
 20
-6.2879399180907258
 30
0.0
 40
0.2380003398507705
 50
282.220074281454572
 51
307.4990277261557026
  0
ARC
  5
4511
  8
0
 10
508.4284809039461948
 20
-5.5978201595239323
 30
0.0
 40
0.9487523724003063
 50
269.922089831672622
 51
283.4509759902715018
  0
ARC
  5
4512
  8
0
 10
508.8347568890587809
 20
-6.2943947281122776
 30
0.0
 40
0.138749578736811
 50
301.8587953242619051
 51
325.9809238613943876
  0
ARC
  5
4513
  8
0
 10
508.6441241932363937
 20
-5.9584936749009483
 30
0.0
 40
0.5248943327392293
 50
281.4287640341738097
 51
300.1793196493130154
  0
ARC
  5
4514
  8
0
 10
508.7078107805721174
 20
-6.207122862417461
 30
0.0
 40
0.2268445442051001
 50
288.6001649535393199
 51
312.8883430937099206
  0
ARC
  5
4515
  8
0
 10
508.7177707851989794
 20
-6.4203362263816341
 30
0.0
 40
0.0647631882496702
 50
10.1444992711982405
 51
46.0510939541507511
  0
ARC
  5
4516
  8
0
 10
508.4129042874317861
 20
-5.2717652104154791
 30
0.0
 40
1.2688961001759871
 50
270.645107385918493
 51
274.9806364765111084
  0
ARC
  5
4517
  8
0
 10
508.4762832252770863
 20
-5.9504644131798416
 30
0.0
 40
0.5872722306571002
 50
274.5693488404612026
 51
290.1528137082399894
  0
ARC
  5
4518
  8
0
 10
508.6440308136081967
 20
-6.3919233952900054
 30
0.0
 40
0.115173294574344
 50
287.4735065157926215
 51
325.2911400135236022
  0
ARC
  5
4519
  8
0
 10
508.7103196340723912
 20
-6.4431132527379571
 30
0.0
 40
0.0318290017857832
 50
333.1201083900858748
 51
29.8907980563065401
  0
ARC
  5
451A
  8
0
 10
508.647375424046686
 20
-6.4927349345416276
 30
0.0
 40
0.1117383272464886
 50
35.8768040832494393
 51
68.7473065646244663
  0
ARC
  5
451B
  8
0
 10
508.5364199097032838
 20
-6.7314850745025838
 30
0.0
 40
0.3748502968000019
 50
66.1683296308011677
 51
73.8615743177954585
  0
ARC
  5
451C
  8
0
 10
508.4318189227417975
 20
-5.9606867384423463
 30
0.0
 40
0.5671224060081086
 50
277.9103183818879756
 51
292.0994061226733152
  0
ARC
  5
451D
  8
0
 10
508.5783149395500118
 20
-6.2783965279874367
 30
0.0
 40
0.2182425547392707
 50
287.8408190128823776
 51
316.9950730265047127
  0
LINE
  5
451E
  8
0
 10
508.4783719037134233
 20
-6.3830482038786993
 30
0.0
 11
508.4658207564937129
 21
-6.3859045890034709
 31
0.0
  0
LINE
  5
451F
  8
0
 10
508.4658207564937129
 20
-6.3859045890034709
 30
0.0
 11
508.4658207565547059
 21
-6.3942058250532323
 31
0.0
  0
LINE
  5
4520
  8
0
 10
508.4658207565547059
 20
-6.3942058250532323
 30
0.0
 11
508.4783719037307037
 21
-6.3974628280326424
 31
0.0
  0
LINE
  5
4521
  8
0
 10
508.4720773951797241
 20
-6.3826980415886094
 30
0.0
 11
508.4550296510449812
 21
-6.3865856021301664
 31
0.0
  0
LINE
  5
4522
  8
0
 10
508.4550296510449812
 20
-6.3865856021301664
 30
0.0
 11
508.4379819067938229
 21
-6.382698041590456
 31
0.0
  0
LINE
  5
4523
  8
0
 10
508.4720773951937076
 20
-6.3755117134904511
 30
0.0
 11
508.4550296510403768
 21
-6.3722115024872021
 31
0.0
  0
LINE
  5
4524
  8
0
 10
508.4550296510403768
 20
-6.3722115024872021
 30
0.0
 11
508.437981906795585
 21
-6.375511713462485
 31
0.0
  0
LINE
  5
4525
  8
0
 10
508.4783719036934144
 20
-6.3751993027991301
 30
0.0
 11
508.4658207564937129
 21
-6.3727638812904646
 31
0.0
  0
LINE
  5
4526
  8
0
 10
508.4442385454938744
 20
-6.3682044448629798
 30
0.0
 11
508.4442385454938744
 21
-6.3727638812904646
 31
0.0
  0
LINE
  5
4527
  8
0
 10
508.4442385454938744
 20
-6.3727638812904646
 30
0.0
 11
508.4271908013936923
 21
-6.3760975359947434
 31
0.0
  0
LINE
  5
4528
  8
0
 10
508.4271908014346195
 20
-6.3820508226889929
 30
0.0
 11
508.4442385454938744
 21
-6.3859045889904538
 31
0.0
  0
LINE
  5
4529
  8
0
 10
508.4442385454938744
 20
-6.3859045889904538
 30
0.0
 11
508.4442385454938744
 21
-6.3942058249904479
 31
0.0
  0
LINE
  5
452A
  8
0
 10
508.4442385454938744
 20
-6.3942058249904479
 30
0.0
 11
508.4271908014222845
 21
-6.3986562582648201
 31
0.0
  0
LINE
  5
452B
  8
0
 10
508.4550296510558951
 20
-6.3934624430318632
 30
0.0
 11
508.4720773951937076
 21
-6.3978783623233229
 31
0.0
  0
LINE
  5
452C
  8
0
 10
508.4720773951937076
 20
-6.3978783623233229
 30
0.0
 11
508.4720773951764841
 21
-6.4073183086464081
 31
0.0
  0
LINE
  5
452D
  8
0
 10
508.4720773951764841
 20
-6.4073183086464081
 30
0.0
 11
508.455029650993481
 21
-6.4123469824904449
 31
0.0
  0
LINE
  5
452E
  8
0
 10
508.455029650993481
 20
-6.4123469824904449
 30
0.0
 11
508.4379819068352049
 21
-6.4073183086535126
 31
0.0
  0
LINE
  5
452F
  8
0
 10
508.4379819068352049
 20
-6.4073183086535126
 30
0.0
 11
508.4379819067938229
 21
-6.3978783623233229
 31
0.0
  0
LINE
  5
4530
  8
0
 10
508.4379819067938229
 20
-6.3978783623233229
 30
0.0
 11
508.4550296510558951
 21
-6.3934624430318632
 31
0.0
  0
LINE
  5
4531
  8
0
 10
508.4550296510316798
 20
-6.421141269172975
 30
0.0
 11
508.4720773951497108
 21
-6.4267335813181301
 31
0.0
  0
LINE
  5
4532
  8
0
 10
508.4720773951497108
 20
-6.4267335813181301
 30
0.0
 11
508.472077395237875
 21
-6.4385786644541252
 31
0.0
  0
LINE
  5
4533
  8
0
 10
508.472077395237875
 20
-6.4385786644541252
 30
0.0
 11
508.455029650993481
 21
-6.4448404104228389
 31
0.0
  0
LINE
  5
4534
  8
0
 10
508.455029650993481
 20
-6.4448404104228389
 30
0.0
 11
508.43798190687329
 21
-6.4385786644627077
 31
0.0
  0
LINE
  5
4535
  8
0
 10
508.43798190687329
 20
-6.4385786644627077
 30
0.0
 11
508.4379819067938229
 21
-6.4267335813329094
 31
0.0
  0
LINE
  5
4536
  8
0
 10
508.4379819067938229
 20
-6.4267335813329094
 30
0.0
 11
508.4550296548889037
 21
-6.4211412704382527
 31
0.0
  0
LINE
  5
4537
  8
0
 10
508.4271908013437269
 20
-6.406476364816255
 30
0.0
 11
508.4442385454938744
 21
-6.4114693961904532
 31
0.0
  0
LINE
  5
4538
  8
0
 10
508.4442385454938744
 20
-6.4114693961904532
 30
0.0
 11
508.4442385454938744
 21
-6.4220853839904608
 31
0.0
  0
LINE
  5
4539
  8
0
 10
508.4442385454938744
 20
-6.4220853839904608
 30
0.0
 11
508.4271908013936923
 21
-6.427714941990442
 31
0.0
  0
LINE
  5
453A
  8
0
 10
508.4271908013936923
 20
-6.4375273419904584
 30
0.0
 11
508.4442385454938744
 21
-6.4437496620363648
 31
0.0
  0
LINE
  5
453B
  8
0
 10
508.4442385454938744
 20
-6.4437496620363648
 30
0.0
 11
508.4442385454938744
 21
-6.456896006290461
 31
0.0
  0
LINE
  5
453C
  8
0
 10
508.4442385454938744
 20
-6.456896006290461
 30
0.0
 11
508.4271908013936923
 21
-6.4638320128458107
 31
0.0
  0
LINE
  5
453D
  8
0
 10
508.4550296510572025
 20
-6.455730680481194
 30
0.0
 11
508.4720773951937076
 21
-6.462624350099671
 31
0.0
  0
LINE
  5
453E
  8
0
 10
508.4720773951937076
 20
-6.462624350099671
 30
0.0
 11
508.4720773951701176
 21
-6.4771683717951847
 31
0.0
  0
LINE
  5
453F
  8
0
 10
508.4720773951701176
 20
-6.4771683717951847
 30
0.0
 11
508.455029650993481
 21
-6.4848346801904571
 31
0.0
  0
LINE
  5
4540
  8
0
 10
508.455029650993481
 20
-6.4848346801904571
 30
0.0
 11
508.4379819067938229
 21
-6.4771683717904667
 31
0.0
  0
LINE
  5
4541
  8
0
 10
508.4379819067938229
 20
-6.4771683717904667
 30
0.0
 11
508.4379819068155939
 21
-6.4626243500906053
 31
0.0
  0
LINE
  5
4542
  8
0
 10
508.4379819068155939
 20
-6.4626243500906053
 30
0.0
 11
508.4550296510572025
 21
-6.4557306804812216
 31
0.0
  0
LINE
  5
4543
  8
0
 10
508.4550296510572025
 20
-6.4557306804812216
 30
0.0
 11
508.4550296510154226
 21
-6.4848346801497012
 31
0.0
  0
LINE
  5
4544
  8
0
 10
508.4783719037106948
 20
-6.4778638928608219
 30
0.0
 11
508.4658207564937129
 21
-6.4835000792904491
 31
0.0
  0
LINE
  5
4545
  8
0
 10
508.4658207564937129
 20
-6.4835000792904491
 30
0.0
 11
508.4658207564937129
 21
-6.4995702973904459
 31
0.0
  0
LINE
  5
4546
  8
0
 10
508.4658207564937129
 20
-6.4995702973904459
 30
0.0
 11
508.4783719036934144
 21
-6.5057780592286161
 31
0.0
  0
LINE
  5
4547
  8
0
 10
508.4720773951074193
 20
-6.5065668968941832
 30
0.0
 11
508.4550296510377052
 21
-6.4981467581926022
 31
0.0
  0
LINE
  5
4548
  8
0
 10
508.4550296510377052
 20
-6.4981467581926022
 30
0.0
 11
508.4379819067938229
 21
-6.506566896937497
 31
0.0
  0
LINE
  5
4549
  8
0
 10
508.4271908013936923
 20
-6.5080418617573894
 30
0.0
 11
508.4442385454938744
 21
-6.4995702974173621
 31
0.0
  0
LINE
  5
454A
  8
0
 10
508.4442385454938744
 20
-6.4995702974173621
 30
0.0
 11
508.4442385455520252
 21
-6.4835000793120487
 31
0.0
  0
LINE
  5
454B
  8
0
 10
508.4442385455520252
 20
-6.4835000793120487
 30
0.0
 11
508.4271908013936923
 21
-6.4758799851270199
 31
0.0
  0
LINE
  5
454C
  8
0
 10
508.4783719037438914
 20
-6.461978468680682
 30
0.0
 11
508.4658207564928034
 21
-6.4568960063230332
 31
0.0
  0
LINE
  5
454D
  8
0
 10
508.4658207564928034
 20
-6.4568960063230332
 30
0.0
 11
508.46582075648098
 21
-6.4437496620782868
 31
0.0
  0
LINE
  5
454E
  8
0
 10
508.46582075648098
 20
-6.4437496620782868
 30
0.0
 11
508.4783719036934144
 21
-6.4391463429963931
 31
0.0
  0
LINE
  5
454F
  8
0
 10
508.4783719036934144
 20
-6.426208922613367
 30
0.0
 11
508.4658207564746135
 21
-6.4220853840406544
 31
0.0
  0
LINE
  5
4550
  8
0
 10
508.4658207564746135
 20
-6.4220853840406544
 30
0.0
 11
508.4658207564937129
 21
-6.4114693961904532
 31
0.0
  0
LINE
  5
4551
  8
0
 10
508.4658207564937129
 20
-6.4114693961904532
 30
0.0
 11
508.4783719036934144
 21
-6.4077732253422228
 31
0.0
  0
LINE
  5
4552
  8
0
 10
508.455029650993481
 20
-6.4448404104228389
 30
0.0
 11
508.4550296509635245
 21
-6.4211412691755623
 31
0.0
  0
LINE
  5
4553
  8
0
 10
508.4550296509776217
 20
-6.4123469824464774
 30
0.0
 11
508.455029650993481
 21
-6.3934624430480058
 31
0.0
  0
LINE
  5
4554
  8
0
 10
508.5555939441690043
 20
-6.4620885298548076
 30
0.0
 11
508.5385461999993026
 21
-6.4612849403933099
 31
0.0
  0
LINE
  5
4555
  8
0
 10
508.5385461999993026
 20
-6.4612849403933099
 30
0.0
 11
508.5214984557758271
 21
-6.4683576260968874
 31
0.0
  0
LINE
  5
4556
  8
0
 10
508.5214984557758271
 20
-6.4683576260968874
 30
0.0
 11
508.5214984558003835
 21
-6.4762371442572242
 31
0.0
  0
LINE
  5
4557
  8
0
 10
508.5214984558003835
 20
-6.4762371442572242
 30
0.0
 11
508.5385461999978816
 21
-6.4770644248052331
 31
0.0
  0
LINE
  5
4558
  8
0
 10
508.5385461999978816
 20
-6.4770644248052331
 30
0.0
 11
508.5555939440935163
 21
-6.4699886577642172
 31
0.0
  0
LINE
  5
4559
  8
0
 10
508.5555939440935163
 20
-6.4699886577642172
 30
0.0
 11
508.5555939440935163
 21
-6.4620885297904609
 31
0.0
  0
LINE
  5
455A
  8
0
 10
508.5385461990661042
 20
-6.4612849407803568
 30
0.0
 11
508.5385461999937888
 21
-6.477064424790453
 31
0.0
  0
LINE
  5
455B
  8
0
 10
508.5385462000169809
 20
-6.5106438144486543
 30
0.0
 11
508.5555939440935163
 21
-6.5086894964623223
 31
0.0
  0
LINE
  5
455C
  8
0
 10
508.5555939440935163
 20
-6.5086894964623223
 30
0.0
 11
508.5555939440935163
 21
-6.5110857894904628
 31
0.0
  0
LINE
  5
455D
  8
0
 10
508.5555939440935163
 20
-6.5110857894904628
 30
0.0
 11
508.5385461999937888
 21
-6.5154796629649327
 31
0.0
  0
LINE
  5
455E
  8
0
 10
508.5385461999937888
 20
-6.5154796629649327
 30
0.0
 11
508.5214984557936191
 21
-6.5174554850338762
 31
0.0
  0
LINE
  5
455F
  8
0
 10
508.5214984557936191
 20
-6.5174554850338762
 30
0.0
 11
508.5214984558481888
 21
-6.5150161817529391
 31
0.0
  0
LINE
  5
4560
  8
0
 10
508.5214984558481888
 20
-6.5150161817529391
 30
0.0
 11
508.5385462000169809
 21
-6.5106438144486543
 31
0.0
  0
LINE
  5
4561
  8
0
 10
508.5385462000169809
 20
-6.5106438144486543
 30
0.0
 11
508.5385461995539913
 21
-6.5154796630782794
 31
0.0
  0
LINE
  5
4562
  8
0
 10
508.5385461999937888
 20
-6.5078616743493551
 30
0.0
 11
508.5555939440935163
 21
-6.5025822520904599
 31
0.0
  0
LINE
  5
4563
  8
0
 10
508.5555939440935163
 20
-6.5025822520904599
 30
0.0
 11
508.5552667731602128
 21
-6.4983417231493643
 31
0.0
  0
LINE
  5
4564
  8
0
 10
508.5552667731602128
 20
-6.4983417231493643
 30
0.0
 11
508.5385461999937888
 21
-6.4993091119904678
 31
0.0
  0
LINE
  5
4565
  8
0
 10
508.5385461999937888
 20
-6.4993091119904678
 30
0.0
 11
508.5214984557936191
 21
-6.5045648431904493
 31
0.0
  0
LINE
  5
4566
  8
0
 10
508.5214984557936191
 20
-6.5045648431904493
 30
0.0
 11
508.5216649741853985
 21
-6.5088449014155261
 31
0.0
  0
LINE
  5
4567
  8
0
 10
508.5216649741853985
 20
-6.5088449014155261
 30
0.0
 11
508.5385461999937888
 21
-6.507861674390452
 31
0.0
  0
LINE
  5
4568
  8
0
 10
508.5385461999937888
 20
-6.507861674390452
 30
0.0
 11
508.5385462014962741
 21
-6.4993091119035258
 31
0.0
  0
LINE
  5
4569
  8
0
 10
508.5834327938011938
 20
-6.4975270109521244
 30
0.0
 11
508.5663850495936913
 21
-6.4998394968147268
 31
0.0
  0
LINE
  5
456A
  8
0
 10
508.5663850495936913
 20
-6.4998394968147268
 30
0.0
 11
508.5493373054935091
 21
-6.5054610363904688
 31
0.0
  0
LINE
  5
456B
  8
0
 10
508.5493373054935091
 20
-6.5054610363904688
 30
0.0
 11
508.5493373054935091
 21
-6.5088087622904398
 31
0.0
  0
LINE
  5
456C
  8
0
 10
508.5493373054935091
 20
-6.5088087622904398
 30
0.0
 11
508.5663850496483178
 21
-6.5064947283414627
 31
0.0
  0
LINE
  5
456D
  8
0
 10
508.5663850496483178
 20
-6.5064947283414627
 30
0.0
 11
508.58343279379352
 21
-6.5008341215904561
 31
0.0
  0
LINE
  5
456E
  8
0
 10
508.58343279379352
 20
-6.5008341215904561
 30
0.0
 11
508.58343279379352
 21
-6.4975270109904653
 31
0.0
  0
LINE
  5
456F
  8
0
 10
508.5663850495228075
 20
-6.5064947283610737
 30
0.0
 11
508.5663850495936913
 21
-6.4998394967852544
 31
0.0
  0
LINE
  5
4570
  8
0
 10
508.5942238992113857
 20
-6.5022708754676417
 30
0.0
 11
508.5771761550939232
 21
-6.505991663790466
 31
0.0
  0
LINE
  5
4571
  8
0
 10
508.5771761550939232
 20
-6.505991663790466
 30
0.0
 11
508.5771761551180248
 21
-6.5036305032609478
 31
0.0
  0
LINE
  5
4572
  8
0
 10
508.5771761551180248
 20
-6.5036305032609478
 30
0.0
 11
508.5942238992872717
 21
-6.4976171886101186
 31
0.0
  0
LINE
  5
4573
  8
0
 10
508.5942238992872717
 20
-6.4976171886101186
 30
0.0
 11
508.6112716433938203
 21
-6.4939060639443058
 31
0.0
  0
LINE
  5
4574
  8
0
 10
508.6112716433938203
 20
-6.4939060639443058
 30
0.0
 11
508.6112716433938203
 21
-6.4961977700468463
 31
0.0
  0
LINE
  5
4575
  8
0
 10
508.6112716433938203
 20
-6.4961977700468463
 30
0.0
 11
508.5942238992935813
 21
-6.502270875439959
 31
0.0
  0
LINE
  5
4576
  8
0
 10
508.5942238992935813
 20
-6.502270875439959
 30
0.0
 11
508.594223903707416
 21
-6.4976171876478741
 31
0.0
  0
LINE
  5
4577
  8
0
 10
508.6220627489512935
 20
-6.4905923731398314
 30
0.0
 11
508.6050150048047271
 21
-6.4946961903204086
 31
0.0
  0
LINE
  5
4578
  8
0
 10
508.6050150048047271
 20
-6.4946961903204086
 30
0.0
 11
508.6050150047938132
 21
-6.4914211691904571
 31
0.0
  0
LINE
  5
4579
  8
0
 10
508.6050150047938132
 20
-6.4914211691904571
 30
0.0
 11
508.6220627488935975
 21
-6.4841035518904544
 31
0.0
  0
LINE
  5
457A
  8
0
 10
508.6220627488935975
 20
-6.4841035518904544
 30
0.0
 11
508.6391104930938241
 21
-6.479979543739117
 31
0.0
  0
LINE
  5
457B
  8
0
 10
508.6391104930938241
 20
-6.479979543739117
 30
0.0
 11
508.6391104931179257
 21
-6.4831923850508106
 31
0.0
  0
LINE
  5
457C
  8
0
 10
508.6391104931179257
 20
-6.4831923850508106
 30
0.0
 11
508.6220627483809835
 21
-6.4905923732770789
 31
0.0
  0
LINE
  5
457D
  8
0
 10
508.6220627483809835
 20
-6.4905923732770789
 30
0.0
 11
508.6220627488935975
 21
-6.484103551949401
 31
0.0
  0
LINE
  5
457E
  8
0
 10
508.6499015986257746
 20
-6.4761815795296487
 30
0.0
 11
508.6328538543937157
 21
-6.4807119998904428
 31
0.0
  0
LINE
  5
457F
  8
0
 10
508.6328538543937157
 20
-6.4807119998904428
 30
0.0
 11
508.632853854387406
 21
-6.4765218527760711
 31
0.0
  0
LINE
  5
4580
  8
0
 10
508.632853854387406
 20
-6.4765218527760711
 30
0.0
 11
508.6499015986094037
 21
-6.4678496109725048
 31
0.0
  0
LINE
  5
4581
  8
0
 10
508.6499015986094037
 20
-6.4678496109725048
 30
0.0
 11
508.6669493427017983
 21
-6.4632638520885708
 31
0.0
  0
LINE
  5
4582
  8
0
 10
508.6669493427017983
 20
-6.4632638520885708
 30
0.0
 11
508.6669493427938278
 21
-6.4674047443904481
 31
0.0
  0
LINE
  5
4583
  8
0
 10
508.6669493427938278
 20
-6.4674047443904481
 30
0.0
 11
508.6499015985352798
 21
-6.4761815795557398
 31
0.0
  0
LINE
  5
4584
  8
0
 10
508.6499015985352798
 20
-6.4761815795557398
 30
0.0
 11
508.6499015987049006
 21
-6.4678496109469261
 31
0.0
  0
LINE
  5
4585
  8
0
 10
508.6777404482360794
 20
-6.4589445236628906
 30
0.0
 11
508.660692704055009
 21
-6.4639547518945033
 31
0.0
  0
LINE
  5
4586
  8
0
 10
508.660692704055009
 20
-6.4639547518945033
 30
0.0
 11
508.6606927040937194
 21
-6.4588340099589612
 31
0.0
  0
LINE
  5
4587
  8
0
 10
508.6606927040937194
 20
-6.4588340099589612
 30
0.0
 11
508.6777404481939016
 21
-6.4487316912440606
 31
0.0
  0
LINE
  5
4588
  8
0
 10
508.6777404481939016
 20
-6.4487316912440606
 30
0.0
 11
508.6947881924049852
 21
-6.4436233402984993
 31
0.0
  0
LINE
  5
4589
  8
0
 10
508.6947881924049852
 20
-6.4436233402984993
 30
0.0
 11
508.6947881923622958
 21
-6.4487147739963548
 31
0.0
  0
LINE
  5
458A
  8
0
 10
508.6947881923622958
 20
-6.4487147739963548
 30
0.0
 11
508.6777404482360794
 21
-6.4589445236628906
 31
0.0
  0
LINE
  5
458B
  8
0
 10
508.6777404482360794
 20
-6.4589445236628906
 30
0.0
 11
508.6777404481939016
 21
-6.4487316913278478
 31
0.0
  0
LINE
  5
458C
  8
0
 10
508.7055792978392219
 20
-6.451079511786074
 30
0.0
 11
508.6885315536936218
 21
-6.4577124678258118
 31
0.0
  0
LINE
  5
458D
  8
0
 10
508.6885315536936218
 20
-6.4577124678258118
 30
0.0
 11
508.6885315536936218
 21
-6.4536090914640152
 31
0.0
  0
LINE
  5
458E
  8
0
 10
508.6885315536936218
 20
-6.4536090914640152
 30
0.0
 11
508.7055792978937916
 21
-6.4429423487280788
 31
0.0
  0
LINE
  5
458F
  8
0
 10
508.7055792978937916
 20
-6.4429423487280788
 30
0.0
 11
508.7226270420645164
 21
-6.4361966411825602
 31
0.0
  0
LINE
  5
4590
  8
0
 10
508.7226270420645164
 20
-6.4361966411825602
 30
0.0
 11
508.7226270420936203
 21
-6.4402285528904581
 31
0.0
  0
LINE
  5
4591
  8
0
 10
508.7226270420936203
 20
-6.4402285528904581
 30
0.0
 11
508.7055792978937916
 21
-6.4510795117527362
 31
0.0
  0
LINE
  5
4592
  8
0
 10
508.7055792978937916
 20
-6.4510795117527362
 30
0.0
 11
508.7055792978937916
 21
-6.4429423487280788
 31
0.0
  0
LINE
  5
4593
  8
0
 10
508.6499015985743881
 20
-6.4636008031299053
 30
0.0
 11
508.6669493427505131
 21
-6.4539105894419579
 31
0.0
  0
LINE
  5
4594
  8
0
 10
508.6669493427505131
 20
-6.4539105894419579
 30
0.0
 11
508.6669493427095858
 21
-6.4478275775784351
 31
0.0
  0
LINE
  5
4595
  8
0
 10
508.6669493427095858
 20
-6.4478275775784351
 30
0.0
 11
508.6499015985226038
 21
-6.4514347796870739
 31
0.0
  0
LINE
  5
4596
  8
0
 10
508.6499015985226038
 20
-6.4514347796870739
 30
0.0
 11
508.6328538544041749
 21
-6.4610410242997007
 31
0.0
  0
LINE
  5
4597
  8
0
 10
508.6328538544041749
 20
-6.4610410242997007
 30
0.0
 11
508.6328538543692162
 21
-6.4671240359458269
 31
0.0
  0
LINE
  5
4598
  8
0
 10
508.6328538543692162
 20
-6.4671240359458269
 30
0.0
 11
508.6499015985934875
 21
-6.4636008030761314
 31
0.0
  0
LINE
  5
4599
  8
0
 10
508.6499015985934875
 20
-6.4636008030761314
 30
0.0
 11
508.6499015985934875
 21
-6.4514347795787312
 31
0.0
  0
LINE
  5
459A
  8
0
 10
508.6220627489440176
 20
-6.4652891631066867
 30
0.0
 11
508.6050150047938132
 21
-6.4674230939904449
 31
0.0
  0
LINE
  5
459B
  8
0
 10
508.6050150047938132
 20
-6.4674230939904449
 30
0.0
 11
508.6050150047237821
 21
-6.4604133084736173
 31
0.0
  0
LINE
  5
459C
  8
0
 10
508.6050150047237821
 20
-6.4604133084736173
 30
0.0
 11
508.6220627489080925
 21
-6.4512498070145323
 31
0.0
  0
LINE
  5
459D
  8
0
 10
508.6220627489080925
 20
-6.4512498070145323
 30
0.0
 11
508.6391104930938241
 21
-6.4490461302904674
 31
0.0
  0
LINE
  5
459E
  8
0
 10
508.6391104930938241
 20
-6.4490461302904674
 30
0.0
 11
508.6391104931328755
 21
-6.4560760222893503
 31
0.0
  0
LINE
  5
459F
  8
0
 10
508.6391104931328755
 20
-6.4560760222893503
 30
0.0
 11
508.622062749110512
 21
-6.4652891630858544
 31
0.0
  0
LINE
  5
45A0
  8
0
 10
508.622062749110512
 20
-6.4652891630858544
 30
0.0
 11
508.6220627488935975
 21
-6.4512498070163788
 31
0.0
  0
LINE
  5
45A1
  8
0
 10
508.6220627488935975
 20
-6.4703284950803921
 30
0.0
 11
508.6391104930528968
 21
-6.4671983658961363
 31
0.0
  0
LINE
  5
45A2
  8
0
 10
508.6391104930528968
 20
-6.4671983658961363
 30
0.0
 11
508.6391104930938241
 21
-6.472334497232791
 31
0.0
  0
LINE
  5
45A3
  8
0
 10
508.6391104930938241
 20
-6.472334497232791
 30
0.0
 11
508.622062748939527
 21
-6.4806211857852514
 31
0.0
  0
LINE
  5
45A4
  8
0
 10
508.622062748939527
 20
-6.4806211857852514
 30
0.0
 11
508.6050150047278748
 21
-6.4837016754630641
 31
0.0
  0
LINE
  5
45A5
  8
0
 10
508.6050150047278748
 20
-6.4837016754630641
 30
0.0
 11
508.6050150047938132
 21
-6.4785454374801343
 31
0.0
  0
LINE
  5
45A6
  8
0
 10
508.6050150047938132
 20
-6.4785454374801343
 30
0.0
 11
508.6220627519317077
 21
-6.4703284945225876
 31
0.0
  0
LINE
  5
45A7
  8
0
 10
508.6220627519317077
 20
-6.4703284945225876
 30
0.0
 11
508.6220627462773791
 21
-6.4806211862662311
 31
0.0
  0
LINE
  5
45A8
  8
0
 10
508.5942238992549846
 20
-6.4821486692091792
 30
0.0
 11
508.5771761550743122
 21
-6.4838700470056363
 31
0.0
  0
LINE
  5
45A9
  8
0
 10
508.5771761550743122
 20
-6.4838700470056363
 30
0.0
 11
508.5771761550939232
 21
-6.4777870353601346
 31
0.0
  0
LINE
  5
45AA
  8
0
 10
508.5771761550939232
 20
-6.4777870353601346
 30
0.0
 11
508.5942238992935813
 21
-6.4699826458904663
 31
0.0
  0
LINE
  5
45AB
  8
0
 10
508.5942238992935813
 20
-6.4699826458904663
 30
0.0
 11
508.6112716433938203
 21
-6.4682187552396311
 31
0.0
  0
LINE
  5
45AC
  8
0
 10
508.6112716433938203
 20
-6.4682187552396311
 30
0.0
 11
508.6112716433938203
 21
-6.4743017668904459
 31
0.0
  0
LINE
  5
45AD
  8
0
 10
508.6112716433938203
 20
-6.4743017668904459
 30
0.0
 11
508.5942238992549846
 21
-6.4821486692091792
 31
0.0
  0
LINE
  5
45AE
  8
0
 10
508.5942238992549846
 20
-6.4821486692091792
 30
0.0
 11
508.5942238991348745
 21
-6.4699826459631691
 31
0.0
  0
LINE
  5
45AF
  8
0
 10
508.5942238992935813
 20
-6.4948901220904514
 30
0.0
 11
508.5771761550939232
 21
-6.4975702756904621
 31
0.0
  0
LINE
  5
45B0
  8
0
 10
508.5771761550939232
 20
-6.4975702756904621
 30
0.0
 11
508.5771761550839187
 21
-6.4933211998242628
 31
0.0
  0
LINE
  5
45B1
  8
0
 10
508.5771761550839187
 20
-6.4933211998242628
 30
0.0
 11
508.5942238992935813
 21
-6.486424750590456
 31
0.0
  0
LINE
  5
45B2
  8
0
 10
508.5942238992935813
 20
-6.486424750590456
 30
0.0
 11
508.6112716433938203
 21
-6.483722856690461
 31
0.0
  0
LINE
  5
45B3
  8
0
 10
508.6112716433938203
 20
-6.483722856690461
 30
0.0
 11
508.6112716434283811
 21
-6.4879387216985807
 31
0.0
  0
LINE
  5
45B4
  8
0
 10
508.6112716434283811
 20
-6.4879387216985807
 30
0.0
 11
508.5942238992445255
 21
-6.494890122120947
 31
0.0
  0
LINE
  5
45B5
  8
0
 10
508.5942238992445255
 20
-6.494890122120947
 30
0.0
 11
508.5942238992445255
 21
-6.4864247507097419
 31
0.0
  0
LINE
  5
45B6
  8
0
 10
508.5663850496151213
 20
-6.4963120908936931
 30
0.0
 11
508.5493373054935091
 21
-6.4976544207904663
 31
0.0
  0
LINE
  5
45B7
  8
0
 10
508.5493373054935091
 20
-6.4976544207904663
 30
0.0
 11
508.5493373054935091
 21
-6.4924746396628139
 31
0.0
  0
LINE
  5
45B8
  8
0
 10
508.5493373054935091
 20
-6.4924746396628139
 30
0.0
 11
508.5663850495936913
 21
-6.4859655442904494
 31
0.0
  0
LINE
  5
45B9
  8
0
 10
508.5663850495936913
 20
-6.4859655442904494
 30
0.0
 11
508.58343279379352
 21
-6.4846024492904606
 31
0.0
  0
LINE
  5
45BA
  8
0
 10
508.58343279379352
 20
-6.4846024492904606
 30
0.0
 11
508.58343279379352
 21
-6.4897690740425817
 31
0.0
  0
LINE
  5
45BB
  8
0
 10
508.58343279379352
 20
-6.4897690740425817
 30
0.0
 11
508.5663850496496252
 21
-6.4963120909633272
 31
0.0
  0
LINE
  5
45BC
  8
0
 10
508.5663850496496252
 20
-6.4963120909633272
 30
0.0
 11
508.5663850495399743
 21
-6.4859655443109689
 31
0.0
  0
LINE
  5
45BD
  8
0
 10
508.5385461999937888
 20
-6.4950151916181058
 30
0.0
 11
508.5214984557936191
 21
-6.4950151916181058
 31
0.0
  0
LINE
  5
45BE
  8
0
 10
508.5214984557936191
 20
-6.4950151916181058
 30
0.0
 11
508.5214984557936191
 21
-6.4889967843430423
 31
0.0
  0
LINE
  5
45BF
  8
0
 10
508.5214984557936191
 20
-6.4889967843430423
 30
0.0
 11
508.5385461999183008
 21
-6.4828491682417537
 31
0.0
  0
LINE
  5
45C0
  8
0
 10
508.5385461999183008
 20
-6.4828491682417537
 30
0.0
 11
508.5555939440935163
 21
-6.4828491682417537
 31
0.0
  0
LINE
  5
45C1
  8
0
 10
508.5555939440935163
 20
-6.4828491682417537
 30
0.0
 11
508.5555939440935163
 21
-6.4888499742904431
 31
0.0
  0
LINE
  5
45C2
  8
0
 10
508.5555939440935163
 20
-6.4888499742904431
 30
0.0
 11
508.5385462001875112
 21
-6.4950151916181058
 31
0.0
  0
LINE
  5
45C3
  8
0
 10
508.5385462001875112
 20
-6.4950151916181058
 30
0.0
 11
508.5385461999183008
 21
-6.4828491682417537
 31
0.0
  0
LINE
  5
45C4
  8
0
 10
508.5663850495936913
 20
-6.4809262123337676
 30
0.0
 11
508.5493373054935091
 21
-6.481352296071603
 31
0.0
  0
LINE
  5
45C5
  8
0
 10
508.5493373054935091
 20
-6.481352296071603
 30
0.0
 11
508.5493373054421227
 21
-6.474366053811079
 31
0.0
  0
LINE
  5
45C6
  8
0
 10
508.5493373054421227
 20
-6.474366053811079
 30
0.0
 11
508.5663850496292184
 21
-6.4669407123054992
 31
0.0
  0
LINE
  5
45C7
  8
0
 10
508.5663850496292184
 20
-6.4669407123054992
 30
0.0
 11
508.58343279379352
 21
-6.4664807070904518
 31
0.0
  0
LINE
  5
45C8
  8
0
 10
508.58343279379352
 20
-6.4664807070904518
 30
0.0
 11
508.58343279379352
 21
-6.4734801056904683
 31
0.0
  0
LINE
  5
45C9
  8
0
 10
508.58343279379352
 20
-6.4734801056904683
 30
0.0
 11
508.5663850496387113
 21
-6.480926212446005
 31
0.0
  0
LINE
  5
45CA
  8
0
 10
508.5663850496387113
 20
-6.480926212446005
 30
0.0
 11
508.5663850496292184
 21
-6.4669407123054992
 31
0.0
  0
LINE
  5
45CB
  8
0
 10
508.5942238992935813
 20
-6.4641800633884241
 30
0.0
 11
508.5771761550956853
 21
-6.4649935009433914
 31
0.0
  0
LINE
  5
45CC
  8
0
 10
508.5771761550956853
 20
-6.4649935009433914
 30
0.0
 11
508.5771761550939232
 21
-6.4570765534241419
 31
0.0
  0
LINE
  5
45CD
  8
0
 10
508.5771761550939232
 20
-6.4570765534241419
 30
0.0
 11
508.5942238993969227
 21
-6.4483133881122656
 31
0.0
  0
LINE
  5
45CE
  8
0
 10
508.5942238993969227
 20
-6.4483133881122656
 30
0.0
 11
508.6112716433938203
 21
-6.4474449994904406
 31
0.0
  0
LINE
  5
45CF
  8
0
 10
508.6112716433938203
 20
-6.4474449994904406
 30
0.0
 11
508.6112716433938203
 21
-6.45539515779046
 31
0.0
  0
LINE
  5
45D0
  8
0
 10
508.6112716433938203
 20
-6.45539515779046
 30
0.0
 11
508.5942238992935813
 21
-6.4641800633884241
 31
0.0
  0
LINE
  5
45D1
  8
0
 10
508.5942238992935813
 20
-6.4641800633884241
 30
0.0
 11
508.5942238992935813
 21
-6.4483133881675458
 31
0.0
  0
LINE
  5
45D2
  8
0
 10
508.6777404481939016
 20
-6.4686015767904603
 30
0.0
 11
508.6606927040631945
 21
-6.47470798274753
 31
0.0
  0
LINE
  5
45D3
  8
0
 10
508.6606927040631945
 20
-6.47470798274753
 30
0.0
 11
508.6606927040937194
 21
-6.4715427892904511
 31
0.0
  0
LINE
  5
45D4
  8
0
 10
508.6606927040937194
 20
-6.4715427892904511
 30
0.0
 11
508.6777404481939016
 21
-6.4623600571998434
 31
0.0
  0
LINE
  5
45D5
  8
0
 10
508.6777404481939016
 20
-6.4623600571998434
 30
0.0
 11
508.6947881923936166
 21
-6.4561941742904567
 31
0.0
  0
LINE
  5
45D6
  8
0
 10
508.6947881923936166
 20
-6.4561941742904567
 30
0.0
 11
508.6947881923936166
 21
-6.4592684877779032
 31
0.0
  0
LINE
  5
45D7
  8
0
 10
508.6947881923936166
 20
-6.4592684877779032
 30
0.0
 11
508.6777404481939016
 21
-6.4686015767904603
 31
0.0
  0
LINE
  5
45D8
  8
0
 10
508.6777404481939016
 20
-6.4686015767904603
 30
0.0
 11
508.6777404432602907
 21
-6.4623600598571311
 31
0.0
  0
ARC
  5
45D9
  8
0
 10
509.3588625088020763
 20
-5.9314286676690218
 30
0.0
 40
0.499331539731797
 50
229.9864800558326863
 51
246.4626991473679141
  0
ARC
  5
45DA
  8
0
 10
509.1381020226260716
 20
-6.454627702060149
 30
0.0
 40
0.0688092058832105
 50
21.8918905259950414
 51
71.9201219779304921
  0
ARC
  5
45DB
  8
0
 10
508.3645612177090243
 20
-6.67734931565482
 30
0.0
 40
0.8734473473336706
 50
0.0746682918954199
 51
16.5208758555696598
  0
ARC
  5
45DC
  8
0
 10
521.6181197437532546
 20
-6.2801678067417281
 30
0.0
 40
12.3864450670498805
 50
181.8322830647906869
 51
183.5792008796829009
  0
LINE
  5
45DD
  8
0
 10
508.5107073502937851
 20
-6.5065259259904433
 30
0.0
 11
508.5098679666937755
 21
-6.5065259259904433
 31
0.0
  0
LINE
  5
45DE
  8
0
 10
507.5037923368935253
 20
-9.8699529800904582
 30
0.0
 11
509.3505892657938716
 21
-9.8699529800904582
 31
0.0
  0
LINE
  5
45DF
  8
0
 10
507.5985466254708172
 20
-9.5551845850904424
 30
0.0
 11
509.2558349772164092
 21
-9.5551845850904424
 31
0.0
  0
LINE
  5
45E0
  8
0
 10
507.8149486660587968
 20
-3.974428213696283
 30
0.0
 11
509.0394329366283728
 21
-3.974428213696283
 31
0.0
  0
ENDSEC
  0
EOF
