  0
SECTION
  2
HEADER
  9
$ACADVER
  1
AC1009
  9
$INSBASE
 10
516.3595507681279742
 20
-10.0106213197619507
 30
0.0
  9
$EXTMIN
 10
515.4182821651245376
 20
-10.0111145484743407
 30
-0.0000000000112498
  9
$EXTMAX
 10
517.5682031083363199
 20
-3.8705348414113909
 30
0.0000000000002956
  9
$LIMMIN
 10
0.0
 20
0.0
  9
$LIMMAX
 10
11.6929133858000007
 20
8.2677165353999982
  9
$ORTHOMODE
 70
     0
  9
$REGENMODE
 70
     1
  9
$FILLMODE
 70
     1
  9
$QTEXTMODE
 70
     0
  9
$MIRRTEXT
 70
     0
  9
$DRAGMODE
 70
     2
  9
$LTSCALE
 40
0.6431102362
  9
$OSMODE
 70
  4095
  9
$ATTMODE
 70
     1
  9
$TEXTSIZE
 40
0.2
  9
$TRACEWID
 40
0.05
  9
$TEXTSTYLE
  7
STANDARD
  9
$CLAYER
  8
DEFPOINT
  9
$CELTYPE
  6
BYLAYER
  9
$CECOLOR
 62
   256
  9
$DIMSCALE
 40
1.0
  9
$DIMASZ
 40
0.1875
  9
$DIMEXO
 40
0.0625
  9
$DIMDLI
 40
0.4443307087
  9
$DIMRND
 40
0.0
  9
$DIMDLE
 40
0.0
  9
$DIMEXE
 40
0.125
  9
$DIMTP
 40
0.01
  9
$DIMTM
 40
0.01
  9
$DIMTXT
 40
1.0
  9
$DIMCEN
 40
0.1052362205
  9
$DIMTSZ
 40
0.0
  9
$DIMTOL
 70
     1
  9
$DIMLIM
 70
     0
  9
$DIMTIH
 70
     1
  9
$DIMTOH
 70
     1
  9
$DIMSE1
 70
     0
  9
$DIMSE2
 70
     0
  9
$DIMTAD
 70
     0
  9
$DIMZIN
 70
     0
  9
$DIMBLK
  1

  9
$DIMASO
 70
     1
  9
$DIMSHO
 70
     1
  9
$DIMPOST
  1
\X
  9
$DIMAPOST
  1

  9
$DIMALT
 70
     1
  9
$DIMALTD
 70
     2
  9
$DIMALTF
 40
25.3999999999999986
  9
$DIMLFAC
 40
1.0
  9
$DIMTOFL
 70
     0
  9
$DIMTVP
 40
0.0
  9
$DIMTIX
 70
     0
  9
$DIMSOXD
 70
     0
  9
$DIMSAH
 70
     0
  9
$DIMBLK1
  1

  9
$DIMBLK2
  1

  9
$DIMSTYLE
  2
STANDARD
  9
$DIMCLRD
 70
     0
  9
$DIMCLRE
 70
     0
  9
$DIMCLRT
 70
     0
  9
$DIMTFAC
 40
1.0
  9
$DIMGAP
 40
0.09
  9
$LUNITS
 70
     2
  9
$LUPREC
 70
     4
  9
$SKETCHINC
 40
0.1
  9
$FILLETRAD
 40
0.0
  9
$AUNITS
 70
     0
  9
$AUPREC
 70
     0
  9
$MENU
  1
.
  9
$ELEVATION
 40
0.0
  9
$PELEVATION
 40
0.0
  9
$THICKNESS
 40
0.0
  9
$LIMCHECK
 70
     0
  9
$BLIPMODE
 70
     0
  9
$CHAMFERA
 40
0.0
  9
$CHAMFERB
 40
0.0
  9
$SKPOLY
 70
     0
  9
$TDCREATE
 40
2458305.9844560190103948
  9
$TDUPDATE
 40
2459052.1666087969206274
  9
$TDINDWG
 40
0.1207497685
  9
$TDUSRTIMER
 40
0.1207496412
  9
$USRTIMER
 70
     1
  9
$ANGBASE
 50
0.0
  9
$ANGDIR
 70
     0
  9
$PDMODE
 70
     0
  9
$PDSIZE
 40
0.3125
  9
$PLINEWID
 40
0.0
  9
$COORDS
 70
     1
  9
$SPLFRAME
 70
     0
  9
$SPLINETYPE
 70
     6
  9
$SPLINESEGS
 70
     8
  9
$ATTDIA
 70
     1
  9
$ATTREQ
 70
     1
  9
$HANDLING
 70
     1
  9
$HANDSEED
  5
40AE
  9
$SURFTAB1
 70
     6
  9
$SURFTAB2
 70
     6
  9
$SURFTYPE
 70
     6
  9
$SURFU
 70
     6
  9
$SURFV
 70
     6
  9
$UCSNAME
  2

  9
$UCSORG
 10
0.0
 20
0.0
 30
0.0
  9
$UCSXDIR
 10
1.0
 20
0.0
 30
0.0
  9
$UCSYDIR
 10
0.0
 20
1.0
 30
0.0
  9
$PUCSNAME
  2

  9
$PUCSORG
 10
0.0
 20
0.0
 30
0.0
  9
$PUCSXDIR
 10
1.0
 20
0.0
 30
0.0
  9
$PUCSYDIR
 10
0.0
 20
1.0
 30
0.0
  9
$USERI1
 70
     0
  9
$USERI2
 70
     0
  9
$USERI3
 70
     0
  9
$USERI4
 70
     0
  9
$USERI5
 70
     0
  9
$USERR1
 40
0.0
  9
$USERR2
 40
0.0
  9
$USERR3
 40
0.0
  9
$USERR4
 40
0.0
  9
$USERR5
 40
0.0
  9
$WORLDVIEW
 70
     1
  9
$SHADEDGE
 70
     3
  9
$SHADEDIF
 70
    70
  9
$TILEMODE
 70
     1
  9
$MAXACTVP
 70
    64
  9
$PLIMCHECK
 70
     0
  9
$PEXTMIN
 10
1.0000000000000000E+20
 20
1.0000000000000000E+20
 30
1.0000000000000000E+20
  9
$PEXTMAX
 10
-1.0000000000000000E+20
 20
-1.0000000000000000E+20
 30
-1.0000000000000000E+20
  9
$PLIMMIN
 10
0.0
 20
0.0
  9
$PLIMMAX
 10
12.0
 20
9.0
  9
$UNITMODE
 70
     0
  9
$VISRETAIN
 70
     1
  9
$PLINEGEN
 70
     0
  9
$PSLTSCALE
 70
     1
  0
ENDSEC
  0
SECTION
  2
TABLES
  0
TABLE
  2
VPORT
 70
     1
  0
VPORT
  2
*ACTIVE
 70
     0
 10
0.0
 20
0.0
 11
1.0
 21
1.0
 12
174.8859564158696003
 22
2.0291123990476252
 13
0.0
 23
0.0
 14
1.0
 24
1.0
 15
0.0
 25
0.0
 16
0.0
 26
0.0
 36
57.1721640433716018
 17
341.6072862208607717
 27
-8.9699370939904934
 37
0.0
 40
5.687193703054735
 41
2.8556034482758621
 42
50.0
 43
0.0
 44
0.0
 50
0.0
 51
0.0
 71
     0
 72
   100
 73
     1
 74
     1
 75
     0
 76
     0
 77
     0
 78
     0
  0
ENDTAB
  0
TABLE
  2
LTYPE
 70
     1
  0
LTYPE
  2
CONTINUOUS
 70
     0
  3
Solid line
 72
    65
 73
     0
 40
0.0
  0
ENDTAB
  0
TABLE
  2
LAYER
 70
     2
  0
LAYER
  2
0
 70
     0
 62
   255
  6
CONTINUOUS
  0
LAYER
  2
DEFPOINT
 70
     0
 62
     7
  6
CONTINUOUS
  0
ENDTAB
  0
TABLE
  2
STYLE
 70
     1
  0
STYLE
  2
STANDARD
 70
     0
 40
0.0
 41
0.8
 50
0.0
 71
     0
 42
0.2
  3
txt
  4

  0
ENDTAB
  0
TABLE
  2
VIEW
 70
     0
  0
ENDTAB
  0
TABLE
  2
UCS
 70
     0
  0
ENDTAB
  0
TABLE
  2
APPID
 70
    10
  0
APPID
  2
ACAD
 70
     0
  0
APPID
  2
ACADANNOTATIVE
 70
     0
  0
APPID
  2
ACAD_MLEADERVER
 70
     0
  0
APPID
  2
ACAD_EXEMPT_FROM_CAD_STANDARDS
 70
     0
  0
APPID
  2
ACAD_DSTYLE_DIMJAG
 70
     0
  0
APPID
  2
ACAD_DSTYLE_DIMTALN
 70
     0
  0
APPID
  2
ACAD_NAV_VCDISPLAY
 70
     0
  0
APPID
  2
ACAECLAYERSTANDARD
 70
     0
  0
APPID
  2
ACCMTRANSPARENCY
 70
     0
  0
APPID
  2
ACDBATTR
 70
     0
  0
ENDTAB
  0
TABLE
  2
DIMSTYLE
 70
     1
  0
DIMSTYLE
  2
STANDARD
 70
     0
  3

  4

  5

  6

  7

 40
1.0
 41
0.1875
 42
0.0625
 43
0.38
 44
0.125
 45
0.0
 46
0.0
 47
0.01
 48
0.01
140
0.15625
141
0.09
142
0.0
143
25.3999999999999986
144
1.0
145
0.0
146
1.0
147
0.09
 71
     1
 72
     0
 73
     1
 74
     1
 75
     0
 76
     0
 77
     0
 78
     4
170
     0
171
     2
172
     0
173
     0
174
     0
175
     0
176
     0
177
     0
178
     0
  0
ENDTAB
  0
ENDSEC
  0
SECTION
  2
BLOCKS
  0
BLOCK
  8
0
  2
$MODEL_SPACE
 70
     0
 10
0.0
 20
0.0
 30
0.0
  3
$MODEL_SPACE
  1

  0
ENDBLK
  5
1598
  8
0
  0
BLOCK
 67
     1
  8
0
  2
$PAPER_SPACE
 70
     0
 10
0.0
 20
0.0
 30
0.0
  3
$PAPER_SPACE
  1

  0
ENDBLK
  5
1594
 67
     1
  8
0
  0
ENDSEC
  0
SECTION
  2
ENTITIES
  0
ATTDEF
  5
659
  8
DEFPOINT
 10
516.3568212343432151
 20
-10.0059116697291799
 30
0.0
 40
0.001
  1
K-74013IN-4
  3

  2
MODELNUMBER
 70
     0
1001
ACDBATTR
1070
     0
1070
     1
  0
ATTDEF
  5
65A
  8
DEFPOINT
 10
516.3568212343432151
 20
-10.0075783363958504
 30
0.0
 40
0.001
  1
TAUT
  3

  2
TRADENAME
 70
     0
1001
ACDBATTR
1070
     0
1070
     1
  0
ATTDEF
  5
65B
  8
DEFPOINT
 10
516.3568212343432151
 20
-10.0092450030625102
 30
0.0
 40
0.001
  1
BATHROOM SINK FAUCET
  3

  2
PRODUCT
 70
     0
1001
ACDBATTR
1070
     0
1070
     1
  0
LINE
  5
3F5E
  8
0
 10
517.1880878094370928
 20
-9.6625163362619144
 30
0.0
 11
515.5309841593074225
 21
-9.6625163224619524
 31
0.0
  0
LINE
  5
3F5F
  8
0
 10
517.1862386467338411
 20
-4.9205599028619487
 30
0.0
 11
515.5328333224809967
 21
-4.9205599028619531
 31
0.0
  0
LINE
  5
3F60
  8
0
 10
515.5398740430540556
 20
-4.8359141581281326
 30
0.0
 11
517.178511967324539
 21
-4.83591387454676
 31
0.0
  0
ARC
  5
3F61
  8
0
 10
516.3595507681279742
 20
-27.4931420045665718
 30
0.0
 40
23.6220472440999991
 50
90.0
 51
91.9285494051993766
  0
ARC
  5
3F62
  8
0
 10
515.7805376035106519
 20
-6.4092165712171107
 30
0.0
 40
0.0317080740293429
 50
180.4155661150807077
 51
267.3696653953949181
  0
ARC
  5
3F63
  8
0
 10
515.7492039703503224
 20
-3.9105148248427621
 30
0.0
 40
0.031599705983646
 50
95.4747922976486478
 51
180.0304798607027976
  0
ARC
  5
3F64
  8
0
 10
516.659045967313773
 20
-5.2078865353705348
 30
0.0
 40
1.100998651402856
 50
160.2540616805474087
 51
163.6534947722990125
  0
ARC
  5
3F65
  8
0
 10
515.5643980349267395
 20
-3.9160833313901371
 30
0.0
 40
0.0316089704558349
 50
89.645278610818707
 51
183.5025059677938088
  0
ARC
  5
3F66
  8
0
 10
515.748345100572692
 20
-4.0281256115175932
 30
0.0
 40
0.0307419414872758
 50
179.5131603833505949
 51
271.0303546958929815
  0
LINE
  5
3F67
  8
0
 10
515.7488979056242897
 20
-4.0588625823016207
 30
0.0
 11
516.9702036306277932
 21
-4.0588625823016189
 31
0.0
  0
LINE
  5
3F68
  8
0
 10
515.7510865226314536
 20
-4.0588625823016207
 30
0.0
 11
515.5766575151969846
 21
-4.1367703062686756
 31
0.0
  0
ARC
  5
3F69
  8
0
 10
516.6401338031040495
 20
-77.7973997329168441
 30
0.0
 40
72.1253780180538797
 50
90.2229050541963034
 51
90.6831779712113359
  0
ARC
  5
3F6A
  8
0
 10
515.7804569971975752
 20
-5.708774414646844
 30
0.0
 40
0.03162702338634
 50
90.5517238768330373
 51
179.7155768924434938
  0
ARC
  5
3F6B
  8
0
 10
513.7143181975536663
 20
-9.0698557979889554
 30
0.0
 40
3.9290155536591662
 50
58.8140471626361929
 51
60.9341631115691769
  0
ARC
  5
3F6C
  8
0
 10
515.6779529653972531
 20
-5.5370191673572702
 30
0.0
 40
0.1128647272897738
 50
185.539085328976995
 51
240.9158490991952135
  0
ARC
  5
3F6D
  8
0
 10
525.1161047338270009
 20
-4.6217299927064319
 30
0.0
 40
9.5952939032523261
 50
182.8684751543127049
 51
185.5390853289769098
  0
ARC
  5
3F6E
  8
0
 10
515.409064454406689
 20
-5.9966515888021643
 30
0.0
 40
0.5346966942431715
 50
294.0851010526217806
 51
309.4524661279302222
  0
ARC
  5
3F6F
  8
0
 10
515.6691139990366537
 20
-6.5784054326853774
 30
0.0
 40
0.1025342690151745
 50
114.0851010526217948
 51
184.9257239810638112
  0
ARC
  5
3F70
  8
0
 10
523.1843561131599927
 20
-7.3097313190896021
 30
0.0
 40
7.651587134947178
 50
174.5816179996155881
 51
179.7650274643557964
  0
ARC
  5
3F71
  8
0
 10
516.6823730779314019
 20
27.1434930761441109
 30
0.0
 40
33.5965296377686116
 50
268.4593355906462762
 51
269.4494226697449903
  0
LINE
  5
3F72
  8
0
 10
517.1882649200490505
 20
-9.6630684468135435
 30
0.0
 11
517.2829344491074153
 21
-9.9655348283619514
 31
0.0
  0
ARC
  5
3F73
  8
0
 10
516.3595507681279742
 20
-27.4931420045665718
 30
0.0
 40
23.6220472440999991
 50
88.0714505948006234
 51
90.0
  0
ARC
  5
3F74
  8
0
 10
517.2278687039179204
 20
-9.6502387086130526
 30
0.0
 40
0.0416300598008258
 50
180.020315132333991
 51
197.9498526481318095
  0
ARC
  5
3F75
  8
0
 10
517.2413034103453811
 20
-9.9779128749514872
 30
0.0
 40
0.0434322394745599
 50
359.3476831300627055
 51
16.5586536222235488
  0
ARC
  5
3F76
  8
0
 10
516.9385343657039584
 20
-6.4092165712171107
 30
0.0
 40
0.0317080740293396
 50
272.630334604592008
 51
359.5844338849190081
  0
ARC
  5
3F77
  8
0
 10
516.9698975659056259
 20
-3.9105148248427648
 30
0.0
 40
0.03159970598365
 50
359.9695201075621185
 51
84.5252077023513522
  0
ARC
  5
3F78
  8
0
 10
516.0600260701596653
 20
-5.2078865128434559
 30
0.0
 40
1.10099857956326
 50
16.3465051025262014
 51
19.7459525152154498
  0
ARC
  5
3F79
  8
0
 10
517.1547035013290952
 20
-3.9160833313901371
 30
0.0
 40
0.0316089704558349
 50
356.4974940322060775
 51
90.3547213891812788
  0
ARC
  5
3F7A
  8
0
 10
516.9707564356831426
 20
-4.0281256115175958
 30
0.0
 40
0.0307419414872757
 50
268.9696453041070185
 51
0.4868396153614769
  0
LINE
  5
3F7B
  8
0
 10
516.9680150136242673
 20
-4.0588625823016207
 30
0.0
 11
517.14244402105885
 21
-4.1367703062686756
 31
0.0
  0
ARC
  5
3F7C
  8
0
 10
516.0789381661109019
 20
-77.7973997328931404
 30
0.0
 40
72.125378018030176
 50
89.3168220287886641
 51
89.7770949458036824
  0
ARC
  5
3F7D
  8
0
 10
516.9386149735521485
 20
-5.708774413114587
 30
0.0
 40
0.0316270218393787
 50
0.2844187199921884
 51
89.4482788769869046
  0
ARC
  5
3F7E
  8
0
 10
519.0047526634375572
 20
-9.0698538468578906
 30
0.0
 40
3.929013309858794
 50
119.0658365855660037
 51
121.1859537519712973
  0
ARC
  5
3F7F
  8
0
 10
517.0411190038174709
 20
-5.5370191673572702
 30
0.0
 40
0.1128647272897738
 50
299.0841509008047865
 51
354.4609146710229197
  0
ARC
  5
3F80
  8
0
 10
507.6029672353877231
 20
-4.6217299927064319
 30
0.0
 40
9.5952939032523261
 50
354.4609146710229766
 51
357.1315248456872951
  0
ARC
  5
3F81
  8
0
 10
517.3085492656219913
 20
-5.999402260617388
 30
0.0
 40
0.5315904346121245
 50
230.4756125620423859
 51
245.937399949025604
  0
ARC
  5
3F82
  8
0
 10
517.049957970178184
 20
-6.5784054326853774
 30
0.0
 40
0.1025342690151745
 50
355.0742760189360183
 51
65.9148989473782052
  0
ARC
  5
3F83
  8
0
 10
509.5347158560547882
 20
-7.3097313190896021
 30
0.0
 40
7.651587134947178
 50
0.2349725356345429
 51
5.4183820003843577
  0
ARC
  5
3F84
  8
0
 10
516.0366988912834358
 20
27.1434930761441109
 30
0.0
 40
33.5965296377686116
 50
270.5505773302517127
 51
271.5406644093537238
  0
LINE
  5
3F85
  8
0
 10
515.4343687012484452
 20
-9.9774184062423572
 30
0.0
 11
517.2847328350073894
 21
-9.9774184062423572
 31
0.0
  0
CIRCLE
  5
3F86
  8
0
 10
516.3595507681279742
 20
-4.4024086144120096
 30
0.0
 40
0.1431306686496843
  0
CIRCLE
  5
3F87
  8
0
 10
516.359552484496021
 20
-4.4024086144360943
 30
0.0
 40
0.1318858960406615
  0
LINE
  5
3F89
  8
0
 10
516.9702416057201617
 20
-6.4094465477660636
 30
0.0
 11
516.9702416057201617
 21
-5.7086174158592602
 31
0.0
  0
LINE
  5
3F8A
  8
0
 10
515.7488303634947897
 20
-6.4094465477655351
 30
0.0
 11
515.7488303634947897
 21
-5.7086174149623314
 31
0.0
  0
LINE
  5
3F8B
  8
0
 10
517.001497267418813
 20
-4.0278644017914154
 30
0.0
 11
517.001497267418813
 21
-3.91053163507909
 31
0.0
  0
LINE
  5
3F8C
  8
0
 10
515.717604268836908
 20
-3.910531635061584
 30
0.0
 11
515.717604268836908
 21
-4.0278644017907199
 31
0.0
  0
LINE
  5
3F8D
  8
0
 10
517.1862386467338411
 20
-4.9205599028619487
 30
0.0
 11
517.1862386467338411
 21
-9.6502534692143325
 31
0.0
  0
LINE
  5
3F8E
  8
0
 10
515.5328333224809967
 20
-4.9205599028619531
 30
0.0
 11
515.5328333224809967
 21
-9.6486699196274301
 31
0.0
  0
LINE
  5
3F8F
  8
0
 10
515.532848106001552
 20
-3.918014392786048
 30
0.0
 11
515.532848106001552
 21
-4.8214793919866308
 31
0.0
  0
LINE
  5
3F90
  8
0
 10
517.186253430254169
 20
-4.8216588183118922
 30
0.0
 11
517.186253430254169
 21
-3.918014392786048
 31
0.0
  0
ARC
  5
3F91
  8
0
 10
516.3595507681279742
 20
1.7941287230366869
 30
0.0
 40
5.9823477950801287
 50
262.0568576035087176
 51
277.9431423964912824
  0
LINE
  5
3F92
  8
0
 10
517.454074986951241
 20
-8.0743668296236706
 30
0.0
 11
517.1862386467338411
 21
-7.9728736280683332
 31
0.0
  0
LINE
  5
3F93
  8
0
 10
517.5068309690174146
 20
-7.9259502749199253
 30
0.0
 11
517.2052163830977634
 21
-7.8116572333565664
 31
0.0
  0
ARC
  5
3F94
  8
0
 10
517.4896837595316583
 20
-7.9812123421513981
 30
0.0
 40
0.0578612380427915
 50
19.3516823265711793
 51
72.7614602995846695
  0
ARC
  5
3F95
  8
0
 10
517.4403003921404434
 20
-7.9803109136057131
 30
0.0
 40
0.1078761570669565
 50
296.2373340969547257
 51
356.6639961163667749
  0
ARC
  5
3F96
  8
0
 10
517.4575987188993622
 20
-7.9877217668901732
 30
0.0
 40
0.090402133536923
 50
0.7183496065966068
 51
16.5046634770403493
  0
ARC
  5
3F97
  8
0
 10
517.4750580017991979
 20
-8.0252702297882639
 30
0.0
 40
0.0533925371893124
 50
246.8589969671280926
 51
284.0183392571083232
  0
ARC
  5
3F98
  8
0
 10
517.1456823849160855
 20
-7.965100625505082
 30
0.0
 40
0.1645878839209062
 50
68.7944082830364039
 51
75.7071719707436444
  0
ARC
  5
3F99
  8
0
 10
515.9665479331411007
 20
-3.6520833478125332
 30
0.0
 40
2.824613675083707
 50
266.9769910054275215
 51
274.7328536599388826
  0
ARC
  5
3F9A
  8
0
 10
516.3127216617508566
 20
-7.8333156590646613
 30
0.0
 40
1.37092441806221
 50
88.0431529282133454
 51
94.7328536599389537
  0
ARC
  5
3F9B
  8
0
 10
516.1698303115313138
 20
-5.9132737674860207
 30
0.0
 40
0.6611413054105996
 50
237.8064038334646
 51
267.3103286866889903
  0
ARC
  5
3F9C
  8
0
 10
516.0928159745740231
 20
-6.4974941926596967
 30
0.0
 40
0.0334034286940766
 50
137.3568182067517967
 51
183.6373132755275037
  0
ARC
  5
3F9D
  8
0
 10
516.1352194758591168
 20
-6.4885588997794441
 30
0.0
 40
0.0765421044614868
 50
188.3038537840585036
 51
249.1867927824187916
  0
ARC
  5
3F9E
  8
0
 10
516.2844123101790501
 20
-6.2019622108033623
 30
0.0
 40
0.3992248799673075
 50
243.779230004981514
 51
261.8896441099524282
  0
ARC
  5
3F9F
  8
0
 10
516.3566460322704188
 20
-5.7698116701870443
 30
0.0
 40
0.8373102556839161
 50
261.1681586290231962
 51
268.1410546269199813
  0
ARC
  5
3FA0
  8
0
 10
516.3595299186875991
 20
-5.7088779030418211
 30
0.0
 40
0.8983059614617518
 50
268.0832848931644889
 51
270.0005515647326888
  0
ARC
  5
3FA1
  8
0
 10
516.1884510801661463
 20
-6.5742747298064241
 30
0.0
 40
0.1079726913750199
 50
105.1337747063021055
 51
141.8074305361325003
  0
ARC
  5
3FA2
  8
0
 10
516.1297866597277562
 20
-6.5222549692340648
 30
0.0
 40
0.0300578752952381
 50
150.6329677480719056
 51
232.9691481800161057
  0
ARC
  5
3FA3
  8
0
 10
516.2687433772481427
 20
-6.3175230875784196
 30
0.0
 40
0.2774594376645533
 50
235.5240097242034949
 51
264.3494321097919055
  0
ARC
  5
3FA4
  8
0
 10
516.3145554749894472
 20
-6.2472389804814759
 30
0.0
 40
0.3540309129209869
 50
258.0787564420447779
 51
270.208938700591716
  0
ARC
  5
3FA5
  8
0
 10
516.3595463769073604
 20
-6.1976262119618983
 30
0.0
 40
0.4060000000000511
 50
258.891607394944117
 51
269.9988999910924008
  0
ARC
  5
3FA6
  8
0
 10
516.3595463769073604
 20
-6.1976262119619898
 30
0.0
 40
0.4059999999999569
 50
243.9636642142714038
 51
258.891607394944117
  0
ARC
  5
3FA7
  8
0
 10
516.3571377273325425
 20
-6.2025567369585497
 30
0.0
 40
0.4005125899080767
 50
232.7902935528593957
 51
243.9636642142714891
  0
ARC
  5
3FA8
  8
0
 10
516.1377648553836934
 20
-6.491468176897043
 30
0.0
 40
0.0377533349270458
 50
205.1526274164343988
 51
232.7902935528599073
  0
ARC
  5
3FA9
  8
0
 10
516.1945403608482366
 20
-6.6051609303934704
 30
0.0
 40
0.1432473353333328
 50
110.648715566778904
 51
128.7966574523977954
  0
ARC
  5
3FAA
  8
0
 10
516.1312521586205548
 20
-6.5264368777161339
 30
0.0
 40
0.0422380634265348
 50
128.7966574523971985
 51
175.5861899481818114
  0
ARC
  5
3FAB
  8
0
 10
516.1429046319085501
 20
-6.5107635553776664
 30
0.0
 40
0.055181770312542
 50
193.0101355185489922
 51
246.1776568087985027
  0
ARC
  5
3FAC
  8
0
 10
516.2750968674705518
 20
-6.2566555097197876
 30
0.0
 40
0.3415234662459951
 50
243.106923296636495
 51
260.85970122574372
  0
ARC
  5
3FAD
  8
0
 10
516.3537056827608467
 20
-5.8479664067221426
 30
0.0
 40
0.7576166504365127
 50
259.900005563171419
 51
268.4184187717175973
  0
ARC
  5
3FAE
  8
0
 10
516.3595101556552436
 20
-5.7351305861045327
 30
0.0
 40
0.8705738398477194
 50
268.241513623902506
 51
270.0018702494510876
  0
ARC
  5
3FAF
  8
0
 10
516.154364630523105
 20
-6.081550099747802
 30
0.0
 40
0.4803118150664902
 50
235.4644763387896091
 51
264.2659841912516185
  0
LINE
  5
3FB0
  8
0
 10
516.0594798329074138
 20
-6.4996133215619523
 30
0.0
 11
516.0555856444808569
 21
-6.4752933469853264
 31
0.0
  0
ARC
  5
3FB1
  8
0
 10
516.1699407293959894
 20
-6.20063964762093
 30
0.0
 40
0.3120747786034143
 50
241.9769803781038888
 51
249.03257365245139
  0
ARC
  5
3FB2
  8
0
 10
516.1602837713359122
 20
-6.2396053671037173
 30
0.0
 40
0.2670997640732056
 50
242.1883001192211111
 51
247.323443545636394
  0
ARC
  5
3FB3
  8
0
 10
516.1796360682540126
 20
-6.1489639834298053
 30
0.0
 40
0.3787833547991031
 50
239.8802048299517935
 51
251.8127276374997052
  0
ARC
  5
3FB4
  8
0
 10
516.3546710055461517
 20
-6.1598706754174462
 30
0.0
 40
0.4049685846265319
 50
239.2165914176725039
 51
265.5223876828490006
  0
ARC
  5
3FB5
  8
0
 10
516.3639654170166295
 20
-6.0404255593730571
 30
0.0
 40
0.5247747578677397
 50
265.5288275427300277
 51
269.5166838128088216
  0
ARC
  5
3FB6
  8
0
 10
516.1821373575435246
 20
-6.5232863828255256
 30
0.0
 40
0.0380306159154791
 50
155.9415135597315043
 51
204.0563030188835114
  0
ARC
  5
3FB7
  8
0
 10
516.3569754067760869
 20
-6.1822811228744987
 30
0.0
 40
0.4135402633896183
 50
239.5517668315465869
 51
253.3596484189295097
  0
ARC
  5
3FB8
  8
0
 10
516.3653263620932421
 20
-6.1494666858070639
 30
0.0
 40
0.4473740523730042
 50
253.5383876908674097
 51
265.6755922178272158
  0
ARC
  5
3FB9
  8
0
 10
516.3741947191513191
 20
-5.3046798954873919
 30
0.0
 40
1.291589999007557
 50
268.1098074179431023
 51
269.3498316704216222
  0
ARC
  5
3FBA
  8
0
 10
516.3114339126376535
 20
-6.9129327893314079
 30
0.0
 40
0.4085186534450008
 50
108.603793078310801
 51
113.6726389720581949
  0
ARC
  5
3FBB
  8
0
 10
516.7525555564940305
 20
-3.6520868530710722
 30
0.0
 40
2.824613675083707
 50
265.2666353106146175
 51
273.022497965128025
  0
ARC
  5
3FBC
  8
0
 10
516.4063445348745063
 20
-7.8333160765827179
 30
0.0
 40
1.37092441806221
 50
85.2666353106146744
 51
91.9563360423373695
  0
ARC
  5
3FBD
  8
0
 10
516.5492530102234241
 20
-5.9132754595493227
 30
0.0
 40
0.6611413054105996
 50
272.6891602838616109
 51
302.193085137088417
  0
ARC
  5
3FBE
  8
0
 10
516.626262136430114
 20
-6.4974965716019097
 30
0.0
 40
0.0334034286940766
 50
356.3621756950258828
 51
42.6426707638015685
  0
ARC
  5
3FBF
  8
0
 10
516.5838587148417673
 20
-6.4885609005189764
 30
0.0
 40
0.0765421044614868
 50
290.8126961881350212
 51
351.6956351864947123
  0
ARC
  5
3FC0
  8
0
 10
516.4346684367257012
 20
-6.201962880881557
 30
0.0
 40
0.3992248799673075
 50
278.1098448606030047
 51
296.2202589655697125
  0
ARC
  5
3FC1
  8
0
 10
516.3624385690511644
 20
-5.7698116960192847
 30
0.0
 40
0.8373102556839161
 50
271.8584343436336894
 51
278.8313303415292808
  0
ARC
  5
3FC2
  8
0
 10
516.3595552261111834
 20
-5.7088779031503094
 30
0.0
 40
0.8983059614661247
 50
269.9989374058275757
 51
271.916204077385828
  0
ARC
  5
3FC3
  8
0
 10
516.5306263460249738
 20
-6.5742762557620731
 30
0.0
 40
0.1079726913750199
 50
38.1920584344210212
 51
74.8657142642526594
  0
ARC
  5
3FC4
  8
0
 10
516.5892912304326501
 20
-6.5222570184283368
 30
0.0
 40
0.0300578752952381
 50
307.0303407905360018
 51
29.3665212224817402
  0
ARC
  5
3FC5
  8
0
 10
516.450336338951729
 20
-6.3175238974055272
 30
0.0
 40
0.2774594376645533
 50
275.650056860758184
 51
304.4754792463476747
  0
ARC
  5
3FC6
  8
0
 10
516.4045248680863551
 20
-6.2472393817065699
 30
0.0
 40
0.3540309129209869
 50
269.7905502699626936
 51
281.9207325285090064
  0
ARC
  5
3FC7
  8
0
 10
516.3595344086736532
 20
-6.1976262119085241
 30
0.0
 40
0.4060000000000511
 50
270.0005889794613836
 51
281.1078815756098948
  0
ARC
  5
3FC8
  8
0
 10
516.3595344086736532
 20
-6.1976262119086156
 30
0.0
 40
0.4059999999999569
 50
281.1078815756098948
 51
296.03582475628059
  0
ARC
  5
3FC9
  8
0
 10
516.3619430142723559
 20
-6.2025567583880781
 30
0.0
 40
0.4005125899080767
 50
296.03582475628059
 51
307.2091954176952981
  0
ARC
  5
3FCA
  8
0
 10
516.5813133093690794
 20
-6.4914701549338458
 30
0.0
 40
0.0377533349270458
 50
307.2091954176949002
 51
334.8468615541193003
  0
ARC
  5
3FCB
  8
0
 10
516.5245367898646691
 20
-6.6051624020367043
 30
0.0
 40
0.1432473353333328
 50
51.202831518155179
 51
69.3507734037762731
  0
ARC
  5
3FCC
  8
0
 10
516.5878256942410189
 20
-6.5264389138392431
 30
0.0
 40
0.0422380634265348
 50
4.4132990223714668
 51
51.2028315181582911
  0
ARC
  5
3FCD
  8
0
 10
516.5761733607459973
 20
-6.5107654875712822
 30
0.0
 40
0.055181770312542
 50
293.821832161752809
 51
346.9893534520036269
  0
ARC
  5
3FCE
  8
0
 10
516.443983391616257
 20
-6.2566562628816067
 30
0.0
 40
0.3415234662459951
 50
279.1397877448105191
 51
296.8925656739169199
  0
ARC
  5
3FCF
  8
0
 10
516.3653782214869352
 20
-5.8479664587766829
 30
0.0
 40
0.7576166504365127
 50
271.5810701988356755
 51
280.0994834073807169
  0
ARC
  5
3FD0
  8
0
 10
516.3595747549919679
 20
-5.735130586392617
 30
0.0
 40
0.8705738398477194
 50
269.9976187211022989
 51
271.7579753466515058
  0
ARC
  5
3FD1
  8
0
 10
516.564717190349711
 20
-6.0815519297450846
 30
0.0
 40
0.4803118150664902
 50
275.7335047793030753
 51
304.5350126317616741
  0
LINE
  5
3FD2
  8
0
 10
516.6595982591944676
 20
-6.4996159978340069
 30
0.0
 11
516.6634926645341466
 21
-6.4752960579911871
 31
0.0
  0
ARC
  5
3FD3
  8
0
 10
516.5491400293002471
 20
-6.2006413386879693
 30
0.0
 40
0.3120747786034143
 50
290.9669153181022239
 51
298.0225085924491282
  0
ARC
  5
3FD4
  8
0
 10
516.5587966398190929
 20
-6.2396071443010266
 30
0.0
 40
0.2670997640732056
 50
292.6760454249185841
 51
297.8111888513316217
  0
ARC
  5
3FD5
  8
0
 10
516.5394451513454896
 20
-6.148965588024752
 30
0.0
 40
0.3787833547991031
 50
288.1867613330534255
 51
300.1192841406016214
  0
ARC
  5
3FD6
  8
0
 10
516.364410116781869
 20
-6.1598707188497261
 30
0.0
 40
0.4049685846265319
 50
274.4771012877055227
 51
300.7828975528797173
  0
ARC
  5
3FD7
  8
0
 10
516.3551167706449405
 20
-6.0404255196561669
 30
0.0
 40
0.5247747581238731
 50
270.4828051631985772
 51
274.4706614273337095
  0
ARC
  5
3FD8
  8
0
 10
516.5369405234198439
 20
-6.5232879650962188
 30
0.0
 40
0.0380306159154791
 50
335.9431859516698182
 51
24.057975410820589
  0
ARC
  5
3FD9
  8
0
 10
516.3621055156700095
 20
-6.1822811457525946
 30
0.0
 40
0.4135402633896183
 50
286.63984055162598
 51
300.4477221390088175
  0
ARC
  5
3FDA
  8
0
 10
516.3537548530300683
 20
-6.1494666342030717
 30
0.0
 40
0.4473740523730042
 50
274.3238967527258865
 51
286.46110127968808
  0
ARC
  5
3FDB
  8
0
 10
516.3448940307497423
 20
-5.30467976483515
 30
0.0
 40
1.2915899989912309
 50
270.649657300121703
 51
271.8896815526176738
  0
ARC
  5
3FDC
  8
0
 10
516.4076404930174249
 20
-6.9129332183716956
 30
0.0
 40
0.4085186534450008
 50
66.3268499984957884
 51
71.3956958922410365
  0
LINE
  5
3FDD
  8
0
 10
517.1174100004074035
 20
-4.9205599028619513
 30
0.0
 11
517.1174100004074035
 21
-4.9038700285619496
 31
0.0
  0
LINE
  5
3FDE
  8
0
 10
517.1174100004074035
 20
-4.9038700285619496
 30
0.0
 11
517.1165191690089387
 21
-4.8980152423338641
 31
0.0
  0
LINE
  5
3FDF
  8
0
 10
515.6016619689074787
 20
-4.9205599028619531
 30
0.0
 11
515.6016619688074343
 21
-4.9038700286798971
 31
0.0
  0
LINE
  5
3FE0
  8
0
 10
515.6016619688074343
 20
-4.9038700286798971
 30
0.0
 11
515.6025528003074214
 21
-4.8980152422619501
 31
0.0
  0
ARC
  5
3FE1
  8
0
 10
515.5542967350068011
 20
-4.8237221037298852
 30
0.0
 40
0.0215655614850728
 50
174.0307295475093952
 51
204.1283470006642062
  0
ARC
  5
3FE2
  8
0
 10
515.5398276367011476
 20
-4.8302030370547859
 30
0.0
 40
0.0057113096093925
 50
204.1283470006642062
 51
270.4655530160226249
  0
ARC
  5
3FE3
  8
0
 10
517.164791454820147
 20
-4.8237699915964072
 30
0.0
 40
0.0215655614850728
 50
335.8682456331316075
 51
5.6180018082205656
  0
ARC
  5
3FE4
  8
0
 10
517.1792601676805816
 20
-4.8302517853836386
 30
0.0
 40
0.0057113096093925
 50
262.4724274875933929
 51
335.8682456331316075
  0
LINE
  5
3FE5
  8
0
 10
517.2847328350073894
 20
-10.0106213197619507
 30
0.0
 11
517.2847328350073894
 21
-9.9784073436662304
 31
0.0
  0
LINE
  5
3FE6
  8
0
 10
515.4343687012484452
 20
-10.0106213197619507
 30
0.0
 11
517.2847476185279447
 21
-10.0106213197619507
 31
0.0
  0
LINE
  5
3FE7
  8
0
 10
515.5308366162066704
 20
-9.6630684468135435
 30
0.0
 11
515.4361670871484193
 21
-9.9655348283619514
 31
0.0
  0
ARC
  5
3FE8
  8
0
 10
515.4912328323380279
 20
-9.6502387086130526
 30
0.0
 40
0.0416300598008258
 50
342.0501473518681905
 51
2.1596480030325962
  0
ARC
  5
3FE9
  8
0
 10
515.4777981259104536
 20
-9.9779128749514872
 30
0.0
 40
0.0434322394745599
 50
163.441346377776398
 51
180.6523168699372093
  0
LINE
  5
3FEA
  8
0
 10
515.4343687012484452
 20
-10.0106213197619507
 30
0.0
 11
515.4343687012484452
 21
-9.9784073436662304
 31
0.0
  0
ENDSEC
  0
EOF
